ISO-10303-21;
HEADER;
FILE_DESCRIPTION (( 'STEP AP214' ),
    '1' );
FILE_NAME ('Micro_SD-312.STEP',
    '2021-09-02T13:23:34',
    ( '' ),
    ( '' ),
    'SwSTEP 2.0',
    'SolidWorks 2020',
    '' );
FILE_SCHEMA (( 'AUTOMOTIVE_DESIGN' ));
ENDSEC;

DATA;
#1 = CARTESIAN_POINT ( 'NONE',  ( 0.0000000000000000000, 0.0000000000000000000, 0.0000000000000000000 ) ) ;
#2 = CARTESIAN_POINT ( 'NONE',  ( 0.0000000000000000000, 0.0000000000000000000, 0.8870000000000000107 ) ) ;
#3 = DIRECTION ( 'NONE',  ( -0.8571673007021137769, 1.049727191138620545E-16, 0.5150380749100517130 ) ) ;
#4 = CIRCLE ( 'NONE', #72, 0.1412499999999994871 ) ;
#5 = PRODUCT_DEFINITION_CONTEXT ( 'detailed design', #174, 'design' ) ;
#6 = CARTESIAN_POINT ( 'NONE',  ( -0.1562500000000000000, 0.0000000000000000000, 2.484999999999999432 ) ) ;
#7 = ADVANCED_FACE ( 'NONE', ( #230 ), #155, .T. ) ;
#8 = FACE_OUTER_BOUND ( 'NONE', #170, .T. ) ;
#9 = CARTESIAN_POINT ( 'NONE',  ( 0.0000000000000000000, 0.0000000000000000000, 2.500000000000000000 ) ) ;
#10 = EDGE_CURVE ( 'NONE', #144, #312, #233, .T. ) ;
#11 = DIRECTION ( 'NONE',  ( -0.0000000000000000000, -0.0000000000000000000, -1.000000000000000000 ) ) ;
#12 = CARTESIAN_POINT ( 'NONE',  ( 0.1562000000000000888, 1.912898300268166897E-17, 0.0000000000000000000 ) ) ;
#13 = CARTESIAN_POINT ( 'NONE',  ( 0.0000000000000000000, 0.0000000000000000000, 0.0000000000000000000 ) ) ;
#14 = CIRCLE ( 'NONE', #67, 0.1562000000000001443 ) ;
#15 = LINE ( 'NONE', #121, #240 ) ;
#16 = EDGE_CURVE ( 'NONE', #221, #293, #60, .T. ) ;
#17 = ORIENTED_EDGE ( 'NONE', *, *, #196, .F. ) ;
#18 = SURFACE_SIDE_STYLE ('',( #169 ) ) ;
#19 = ORIENTED_EDGE ( 'NONE', *, *, #323, .F. ) ;
#20 = VECTOR ( 'NONE', #28, 39.37007874015748854 ) ;
#21 = SURFACE_STYLE_USAGE ( .BOTH. , #18 ) ;
#22 = ORIENTED_EDGE ( 'NONE', *, *, #16, .T. ) ;
#23 = DIRECTION ( 'NONE',  ( -0.0000000000000000000, -0.0000000000000000000, -1.000000000000000000 ) ) ;
#24 = EDGE_LOOP ( 'NONE', ( #269, #197, #246 ) ) ;
#25 = DIRECTION ( 'NONE',  ( 0.0000000000000000000, 0.0000000000000000000, 1.000000000000000000 ) ) ;
#26 = DIRECTION ( 'NONE',  ( 1.000000000000000000, 0.0000000000000000000, 0.0000000000000000000 ) ) ;
#27 = CIRCLE ( 'NONE', #282, 0.1412499999999994871 ) ;
#28 = DIRECTION ( 'NONE',  ( -0.7071067811865497932, 8.659560562354959975E-17, 0.7071067811865451302 ) ) ;
#29 = DIRECTION ( 'NONE',  ( -0.0000000000000000000, -0.0000000000000000000, -1.000000000000000000 ) ) ;
#30 = CLOSED_SHELL ( 'NONE', ( #147, #53, #272, #307, #7, #208, #261, #123, #158, #232, #88 ) ) ;
#31 = EDGE_CURVE ( 'NONE', #144, #195, #128, .T. ) ;
#32 = DIRECTION ( 'NONE',  ( -1.000000000000000000, 0.0000000000000000000, 0.0000000000000000000 ) ) ;
#33 = AXIS2_PLACEMENT_3D ( 'NONE', #13, #113, #259 ) ;
#34 = VECTOR ( 'NONE', #157, 39.37007874015748854 ) ;
#35 = STYLED_ITEM ( 'NONE', ( #145 ), #236 ) ;
#36 = DIMENSIONAL_EXPONENTS ( 1.000000000000000000, 0.0000000000000000000, 0.0000000000000000000, 0.0000000000000000000, 0.0000000000000000000, 0.0000000000000000000, 0.0000000000000000000 ) ;
#37 = CARTESIAN_POINT ( 'NONE',  ( 0.0000000000000000000, 0.0000000000000000000, 0.0000000000000000000 ) ) ;
#38 = DIRECTION ( 'NONE',  ( 0.0000000000000000000, 0.0000000000000000000, 1.000000000000000000 ) ) ;
#39 = CARTESIAN_POINT ( 'NONE',  ( 0.0000000000000000000, 0.0000000000000000000, 0.09385442869210434969 ) ) ;
#40 = AXIS2_PLACEMENT_3D ( 'NONE', #85, #11, #43 ) ;
#41 = AXIS2_PLACEMENT_3D ( 'NONE', #214, #268, #167 ) ;
#42 = PRESENTATION_STYLE_ASSIGNMENT (( #306 ) ) ;
#43 = DIRECTION ( 'NONE',  ( -1.000000000000000000, 0.0000000000000000000, 0.0000000000000000000 ) ) ;
#44 = FILL_AREA_STYLE ('',( #185 ) ) ;
#45 = CONICAL_SURFACE ( 'NONE', #200, 65.52281426576885792, 1.029744258676657420 ) ;
#46 = COLOUR_RGB ( '',0.7921568627450980005, 0.8196078431372548767, 0.9333333333333333481 ) ;
#47 = VERTEX_POINT ( 'NONE', #57 ) ;
#48 = EDGE_LOOP ( 'NONE', ( #71, #22, #19, #98 ) ) ;
#49 = PRODUCT_DEFINITION_SHAPE ( 'NONE', 'NONE',  #295 ) ;
#50 = DIRECTION ( 'NONE',  ( 0.0000000000000000000, 0.0000000000000000000, 1.000000000000000000 ) ) ;
#51 = EDGE_LOOP ( 'NONE', ( #130, #294, #273, #300 ) ) ;
#52 = ORIENTED_EDGE ( 'NONE', *, *, #290, .F. ) ;
#53 = ADVANCED_FACE ( 'NONE', ( #55 ), #303, .T. ) ;
#54 = ORIENTED_EDGE ( 'NONE', *, *, #237, .T. ) ;
#55 = FACE_OUTER_BOUND ( 'NONE', #224, .T. ) ;
#56 = CIRCLE ( 'NONE', #313, 0.1562500000000000000 ) ;
#57 = CARTESIAN_POINT ( 'NONE',  ( -0.1562500000000000000, 0.0000000000000000000, 0.8870499999999998941 ) ) ;
#58 = CARTESIAN_POINT ( 'NONE',  ( 0.0000000000000000000, 0.0000000000000000000, 0.0000000000000000000 ) ) ;
#59 = CARTESIAN_POINT ( 'NONE',  ( 0.1412499999999994871, 1.729813603795630110E-17, 2.500000000000000000 ) ) ;
#60 = LINE ( 'NONE', #159, #118 ) ;
#61 = CIRCLE ( 'NONE', #281, 0.1562000000000001443 ) ;
#62 = FACE_OUTER_BOUND ( 'NONE', #291, .T. ) ;
#63 =( CONVERSION_BASED_UNIT ( 'INCH', #186 ) LENGTH_UNIT ( ) NAMED_UNIT ( #156 ) );
#64 = UNCERTAINTY_MEASURE_WITH_UNIT (LENGTH_MEASURE( 1.000000000000000082E-05 ), #289, 'distance_accuracy_value', 'NONE');
#65 = DIRECTION ( 'NONE',  ( 0.0000000000000000000, 0.0000000000000000000, 1.000000000000000000 ) ) ;
#66 = VECTOR ( 'NONE', #111, 39.37007874015748143 ) ;
#67 = AXIS2_PLACEMENT_3D ( 'NONE', #304, #189, #263 ) ;
#68 = CARTESIAN_POINT ( 'NONE',  ( -0.1562000000000001443, 1.913204461967953334E-17, 0.8870000000000000107 ) ) ;
#69 = EDGE_CURVE ( 'NONE', #249, #76, #4, .T. ) ;
#70 = CARTESIAN_POINT ( 'NONE',  ( 0.0000000000000000000, 0.0000000000000000000, 0.8870000000000000107 ) ) ;
#71 = ORIENTED_EDGE ( 'NONE', *, *, #212, .T. ) ;
#72 = AXIS2_PLACEMENT_3D ( 'NONE', #255, #253, #258 ) ;
#73 = FILL_AREA_STYLE ('',( #193 ) ) ;
#74 = VERTEX_POINT ( 'NONE', #207 ) ;
#75 = ORIENTED_EDGE ( 'NONE', *, *, #152, .F. ) ;
#76 = VERTEX_POINT ( 'NONE', #77 ) ;
#77 = CARTESIAN_POINT ( 'NONE',  ( -0.1412499999999994871, 0.0000000000000000000, 2.500000000000000000 ) ) ;
#78 = DIRECTION ( 'NONE',  ( 1.000000000000000000, 0.0000000000000000000, 0.0000000000000000000 ) ) ;
#79 = CARTESIAN_POINT ( 'NONE',  ( -0.1562000000000000888, 0.0000000000000000000, 0.0000000000000000000 ) ) ;
#80 = DIRECTION ( 'NONE',  ( 1.000000000000000000, 0.0000000000000000000, 0.0000000000000000000 ) ) ;
#81 = UNCERTAINTY_MEASURE_WITH_UNIT (LENGTH_MEASURE( 1.000000000000000082E-05 ), #63, 'distance_accuracy_value', 'NONE');
#82 = CARTESIAN_POINT ( 'NONE',  ( 0.0000000000000000000, 0.0000000000000000000, 39.37007874015748143 ) ) ;
#83 = CARTESIAN_POINT ( 'NONE',  ( 0.1562500000000000000, 1.913510623667739463E-17, 0.8870499999999998941 ) ) ;
#84 = PRESENTATION_LAYER_ASSIGNMENT (  '', '', ( #141 ) ) ;
#85 = CARTESIAN_POINT ( 'NONE',  ( 0.0000000000000000000, 0.0000000000000000000, 2.500000000000000000 ) ) ;
#86 = FACE_OUTER_BOUND ( 'NONE', #251, .T. ) ;
#87 = AXIS2_PLACEMENT_3D ( 'NONE', #322, #104, #32 ) ;
#88 = ADVANCED_FACE ( 'NONE', ( #133 ), #179, .T. ) ;
#89 = AXIS2_PLACEMENT_3D ( 'NONE', #270, #23, #190 ) ;
#90 = DIRECTION ( 'NONE',  ( -0.0000000000000000000, -0.0000000000000000000, -1.000000000000000000 ) ) ;
#91 = CARTESIAN_POINT ( 'NONE',  ( 0.0000000000000000000, 0.0000000000000000000, 2.500000000000000000 ) ) ;
#92 = ORIENTED_EDGE ( 'NONE', *, *, #16, .F. ) ;
#93 = EDGE_CURVE ( 'NONE', #249, #221, #278, .T. ) ;
#94 = ORIENTED_EDGE ( 'NONE', *, *, #318, .T. ) ;
#95 = CONICAL_SURFACE ( 'NONE', #229, 0.1562000000000001443, 0.7853981633974516097 ) ;
#96 = COLOUR_RGB ( '',0.7921568627450980005, 0.8196078431372548767, 0.9333333333333333481 ) ;
#97 =( NAMED_UNIT ( * ) SI_UNIT ( $, .STERADIAN. ) SOLID_ANGLE_UNIT ( ) );
#98 = ORIENTED_EDGE ( 'NONE', *, *, #318, .F. ) ;
#99 =( NAMED_UNIT ( * ) SI_UNIT ( $, .STERADIAN. ) SOLID_ANGLE_UNIT ( ) );
#100 =( LENGTH_UNIT ( ) NAMED_UNIT ( * ) SI_UNIT ( $, .METRE. ) );
#101 = ORIENTED_EDGE ( 'NONE', *, *, #134, .T. ) ;
#102 = CIRCLE ( 'NONE', #206, 0.1562000000000000333 ) ;
#103 = DIRECTION ( 'NONE',  ( -1.000000000000000000, 0.0000000000000000000, 0.0000000000000000000 ) ) ;
#104 = DIRECTION ( 'NONE',  ( 0.0000000000000000000, 0.0000000000000000000, -1.000000000000000000 ) ) ;
#105 = DIRECTION ( 'NONE',  ( 1.000000000000000000, 0.0000000000000000000, 0.0000000000000000000 ) ) ;
#106 = DIRECTION ( 'NONE',  ( -1.000000000000000000, 0.0000000000000000000, 0.0000000000000000000 ) ) ;
#107 = CIRCLE ( 'NONE', #89, 0.1562500000000000000 ) ;
#108 = CARTESIAN_POINT ( 'NONE',  ( 0.1562000000000001443, 0.0000000000000000000, 0.8870000000000000107 ) ) ;
#109 = SURFACE_STYLE_FILL_AREA ( #44 ) ;
#110 = SURFACE_SIDE_STYLE ('',( #109 ) ) ;
#111 = DIRECTION ( 'NONE',  ( -0.0000000000000000000, -0.0000000000000000000, -1.000000000000000000 ) ) ;
#112 = DIRECTION ( 'NONE',  ( -0.0000000000000000000, -0.0000000000000000000, -1.000000000000000000 ) ) ;
#113 = DIRECTION ( 'NONE',  ( -0.0000000000000000000, -0.0000000000000000000, -1.000000000000000000 ) ) ;
#114 = PRODUCT_DEFINITION_FORMATION_WITH_SPECIFIED_SOURCE ( 'ANY', '', #191, .NOT_KNOWN. ) ;
#115 =( NAMED_UNIT ( * ) PLANE_ANGLE_UNIT ( ) SI_UNIT ( $, .RADIAN. ) );
#116 = EDGE_LOOP ( 'NONE', ( #199, #52, #122, #117 ) ) ;
#117 = ORIENTED_EDGE ( 'NONE', *, *, #196, .T. ) ;
#118 = VECTOR ( 'NONE', #210, 39.37007874015748143 ) ;
#119 =( CONVERSION_BASED_UNIT ( 'INCH', #314 ) LENGTH_UNIT ( ) NAMED_UNIT ( #36 ) );
#120 = ORIENTED_EDGE ( 'NONE', *, *, #202, .T. ) ;
#121 = CARTESIAN_POINT ( 'NONE',  ( -0.1562500000000000000, 0.0000000000000000000, 2.500000000000000000 ) ) ;
#122 = ORIENTED_EDGE ( 'NONE', *, *, #152, .T. ) ;
#123 = ADVANCED_FACE ( 'NONE', ( #257 ), #164, .T. ) ;
#124 = DIRECTION ( 'NONE',  ( 1.000000000000000000, 0.0000000000000000000, 0.0000000000000000000 ) ) ;
#125 = ORIENTED_EDGE ( 'NONE', *, *, #202, .F. ) ;
#126 = CONICAL_SURFACE ( 'NONE', #244, 0.1562000000000001443, 0.7853981633974516097 ) ;
#127 = AXIS2_PLACEMENT_3D ( 'NONE', #149, #25, #124 ) ;
#128 = LINE ( 'NONE', #1, #211 ) ;
#129 = CARTESIAN_POINT ( 'NONE',  ( -0.1562000000000001443, 1.912898300268167205E-17, 0.8870000000000000107 ) ) ;
#130 = ORIENTED_EDGE ( 'NONE', *, *, #69, .F. ) ;
#131 = AXIS2_PLACEMENT_3D ( 'NONE', #178, #231, #105 ) ;
#132 = CARTESIAN_POINT ( 'NONE',  ( 0.0000000000000000000, 0.0000000000000000000, 0.09385442869210434969 ) ) ;
#133 = FACE_OUTER_BOUND ( 'NONE', #252, .T. ) ;
#134 = EDGE_CURVE ( 'NONE', #228, #47, #176, .T. ) ;
#135 = CARTESIAN_POINT ( 'NONE',  ( -0.1412499999999994871, 0.0000000000000000000, 2.500000000000000000 ) ) ;
#136 = LINE ( 'NONE', #135, #234 ) ;
#137 =( LENGTH_UNIT ( ) NAMED_UNIT ( * ) SI_UNIT ( $, .METRE. ) );
#138 = FACE_OUTER_BOUND ( 'NONE', #267, .T. ) ;
#139 = AXIS2_PLACEMENT_3D ( 'NONE', #82, #302, #80 ) ;
#140 = EDGE_CURVE ( 'NONE', #195, #312, #102, .T. ) ;
#141 = STYLED_ITEM ( 'NONE', ( #42 ), #305 ) ;
#142 = ORIENTED_EDGE ( 'NONE', *, *, #162, .F. ) ;
#143 =( LENGTH_UNIT ( ) NAMED_UNIT ( * ) SI_UNIT ( $, .METRE. ) );
#144 = VERTEX_POINT ( 'NONE', #274 ) ;
#145 = PRESENTATION_STYLE_ASSIGNMENT (( #21 ) ) ;
#146 = ORIENTED_EDGE ( 'NONE', *, *, #31, .T. ) ;
#147 = ADVANCED_FACE ( 'NONE', ( #154 ), #45, .T. ) ;
#148 = ORIENTED_EDGE ( 'NONE', *, *, #237, .F. ) ;
#149 = CARTESIAN_POINT ( 'NONE',  ( 0.0000000000000000000, 0.0000000000000000000, 0.0000000000000000000 ) ) ;
#150 = VERTEX_POINT ( 'NONE', #6 ) ;
#151 = DIRECTION ( 'NONE',  ( 0.8571673007021137769, 0.0000000000000000000, 0.5150380749100517130 ) ) ;
#152 = EDGE_CURVE ( 'NONE', #74, #293, #298, .T. ) ;
#153 = VECTOR ( 'NONE', #3, 39.37007874015748143 ) ;
#154 = FACE_OUTER_BOUND ( 'NONE', #24, .T. ) ;
#155 = CYLINDRICAL_SURFACE ( 'NONE', #239, 0.1562500000000000000 ) ;
#156 = DIMENSIONAL_EXPONENTS ( 1.000000000000000000, 0.0000000000000000000, 0.0000000000000000000, 0.0000000000000000000, 0.0000000000000000000, 0.0000000000000000000, 0.0000000000000000000 ) ;
#157 = DIRECTION ( 'NONE',  ( 0.7071067811865410224, 8.659560562354852739E-17, -0.7071067811865539010 ) ) ;
#158 = ADVANCED_FACE ( 'NONE', ( #182 ), #95, .T. ) ;
#159 = CARTESIAN_POINT ( 'NONE',  ( 0.1562500000000000000, 1.913510623667739463E-17, 2.500000000000000000 ) ) ;
#160 = CARTESIAN_POINT ( 'NONE',  ( 0.1412499999999994871, 1.821662113731684786E-17, 2.500000000000000000 ) ) ;
#161 = CYLINDRICAL_SURFACE ( 'NONE', #33, 0.1562000000000000888 ) ;
#162 = EDGE_CURVE ( 'NONE', #221, #150, #276, .T. ) ;
#163 = DIRECTION ( 'NONE',  ( -1.000000000000000000, 0.0000000000000000000, 0.0000000000000000000 ) ) ;
#164 = CONICAL_SURFACE ( 'NONE', #87, 0.1412499999999994871, 0.7853981633974391752 ) ;
#165 =( NAMED_UNIT ( * ) PLANE_ANGLE_UNIT ( ) SI_UNIT ( $, .RADIAN. ) );
#166 = DIRECTION ( 'NONE',  ( -1.000000000000000000, 0.0000000000000000000, 0.0000000000000000000 ) ) ;
#167 = DIRECTION ( 'NONE',  ( -1.000000000000000000, 0.0000000000000000000, 0.0000000000000000000 ) ) ;
#168 = ORIENTED_EDGE ( 'NONE', *, *, #299, .T. ) ;
#169 = SURFACE_STYLE_FILL_AREA ( #73 ) ;
#170 = EDGE_LOOP ( 'NONE', ( #92, #173, #94, #17 ) ) ;
#171 = EDGE_CURVE ( 'NONE', #228, #312, #301, .T. ) ;
#172 = APPLICATION_PROTOCOL_DEFINITION ( 'draft international standard', 'automotive_design', 1998, #177 ) ;
#173 = ORIENTED_EDGE ( 'NONE', *, *, #162, .T. ) ;
#174 = APPLICATION_CONTEXT ( 'automotive_design' ) ;
#175 = ORIENTED_EDGE ( 'NONE', *, *, #171, .T. ) ;
#176 = LINE ( 'NONE', #129, #20 ) ;
#177 = APPLICATION_CONTEXT ( 'automotive_design' ) ;
#178 = CARTESIAN_POINT ( 'NONE',  ( 0.0000000000000000000, 0.0000000000000000000, 2.484999999999999432 ) ) ;
#179 = CONICAL_SURFACE ( 'NONE', #139, 65.52281426576885792, 1.029744258676657420 ) ;
#180 =( GEOMETRIC_REPRESENTATION_CONTEXT ( 3 ) GLOBAL_UNCERTAINTY_ASSIGNED_CONTEXT ( ( #81 ) ) GLOBAL_UNIT_ASSIGNED_CONTEXT ( ( #63, #165, #311 ) ) REPRESENTATION_CONTEXT ( 'NONE', 'WORKASPACE' ) );
#181 = DIRECTION ( 'NONE',  ( -0.0000000000000000000, -0.0000000000000000000, -1.000000000000000000 ) ) ;
#182 = FACE_OUTER_BOUND ( 'NONE', #116, .T. ) ;
#183 = AXIS2_PLACEMENT_3D ( 'NONE', #9, #38, #283 ) ;
#184 =( GEOMETRIC_REPRESENTATION_CONTEXT ( 3 ) GLOBAL_UNCERTAINTY_ASSIGNED_CONTEXT ( ( #64 ) ) GLOBAL_UNIT_ASSIGNED_CONTEXT ( ( #289, #115, #97 ) ) REPRESENTATION_CONTEXT ( 'NONE', 'WORKASPACE' ) );
#185 = FILL_AREA_STYLE_COLOUR ( '', #96 ) ;
#186 = LENGTH_MEASURE_WITH_UNIT ( LENGTH_MEASURE( 0.02539999999999999897 ), #137 );
#187 = DIRECTION ( 'NONE',  ( 0.0000000000000000000, 0.0000000000000000000, -1.000000000000000000 ) ) ;
#188 = MECHANICAL_DESIGN_GEOMETRIC_PRESENTATION_REPRESENTATION (  '', ( #141 ), #180 ) ;
#189 = DIRECTION ( 'NONE',  ( -0.0000000000000000000, -0.0000000000000000000, -1.000000000000000000 ) ) ;
#190 = DIRECTION ( 'NONE',  ( 1.000000000000000000, 0.0000000000000000000, 0.0000000000000000000 ) ) ;
#191 = PRODUCT ( 'Micro_SD-312', 'Micro_SD-312', '', ( #297 ) ) ;
#192 = ORIENTED_EDGE ( 'NONE', *, *, #140, .T. ) ;
#193 = FILL_AREA_STYLE_COLOUR ( '', #46 ) ;
#194 = ORIENTED_EDGE ( 'NONE', *, *, #93, .F. ) ;
#195 = VERTEX_POINT ( 'NONE', #285 ) ;
#196 = EDGE_CURVE ( 'NONE', #293, #47, #56, .T. ) ;
#197 = ORIENTED_EDGE ( 'NONE', *, *, #10, .T. ) ;
#198 =( NAMED_UNIT ( * ) PLANE_ANGLE_UNIT ( ) SI_UNIT ( $, .RADIAN. ) );
#199 = ORIENTED_EDGE ( 'NONE', *, *, #134, .F. ) ;
#200 = AXIS2_PLACEMENT_3D ( 'NONE', #203, #204, #26 ) ;
#201 = PRESENTATION_LAYER_ASSIGNMENT (  '', '', ( #35 ) ) ;
#202 = EDGE_CURVE ( 'NONE', #74, #195, #216, .T. ) ;
#203 = CARTESIAN_POINT ( 'NONE',  ( 0.0000000000000000000, 0.0000000000000000000, 39.37007874015748143 ) ) ;
#204 = DIRECTION ( 'NONE',  ( 0.0000000000000000000, 0.0000000000000000000, 1.000000000000000000 ) ) ;
#205 = DIRECTION ( 'NONE',  ( 0.7071067811865497932, 0.0000000000000000000, 0.7071067811865451302 ) ) ;
#206 = AXIS2_PLACEMENT_3D ( 'NONE', #132, #235, #103 ) ;
#207 = CARTESIAN_POINT ( 'NONE',  ( 0.1562000000000001443, 0.0000000000000000000, 0.8870000000000000107 ) ) ;
#208 = ADVANCED_FACE ( 'NONE', ( #8 ), #288, .T. ) ;
#209 = DIMENSIONAL_EXPONENTS ( 1.000000000000000000, 0.0000000000000000000, 0.0000000000000000000, 0.0000000000000000000, 0.0000000000000000000, 0.0000000000000000000, 0.0000000000000000000 ) ;
#210 = DIRECTION ( 'NONE',  ( -0.0000000000000000000, -0.0000000000000000000, -1.000000000000000000 ) ) ;
#211 = VECTOR ( 'NONE', #151, 39.37007874015748143 ) ;
#212 = EDGE_CURVE ( 'NONE', #150, #221, #223, .T. ) ;
#213 = MECHANICAL_DESIGN_GEOMETRIC_PRESENTATION_REPRESENTATION (  '', ( #35 ), #265 ) ;
#214 = CARTESIAN_POINT ( 'NONE',  ( 0.0000000000000000000, 0.0000000000000000000, 2.500000000000000000 ) ) ;
#215 = DIRECTION ( 'NONE',  ( 1.000000000000000000, 0.0000000000000000000, 0.0000000000000000000 ) ) ;
#216 = LINE ( 'NONE', #12, #66 ) ;
#217 = AXIS2_PLACEMENT_3D ( 'NONE', #218, #187, #284 ) ;
#218 = CARTESIAN_POINT ( 'NONE',  ( 0.0000000000000000000, 0.0000000000000000000, 2.484999999999999432 ) ) ;
#219 = AXIS2_PLACEMENT_3D ( 'NONE', #39, #90, #163 ) ;
#220 = DIRECTION ( 'NONE',  ( 1.000000000000000000, 0.0000000000000000000, 0.0000000000000000000 ) ) ;
#221 = VERTEX_POINT ( 'NONE', #308 ) ;
#222 = ORIENTED_EDGE ( 'NONE', *, *, #286, .F. ) ;
#223 = CIRCLE ( 'NONE', #217, 0.1562500000000000000 ) ;
#224 = EDGE_LOOP ( 'NONE', ( #54, #120, #222, #296 ) ) ;
#225 = LENGTH_MEASURE_WITH_UNIT ( LENGTH_MEASURE( 0.02539999999999999897 ), #143 );
#226 = ORIENTED_EDGE ( 'NONE', *, *, #310, .T. ) ;
#227 = APPLICATION_PROTOCOL_DEFINITION ( 'draft international standard', 'automotive_design', 1998, #174 ) ;
#228 = VERTEX_POINT ( 'NONE', #68 ) ;
#229 = AXIS2_PLACEMENT_3D ( 'NONE', #2, #280, #78 ) ;
#230 = FACE_OUTER_BOUND ( 'NONE', #48, .T. ) ;
#231 = DIRECTION ( 'NONE',  ( 0.0000000000000000000, 0.0000000000000000000, -1.000000000000000000 ) ) ;
#232 = ADVANCED_FACE ( 'NONE', ( #138 ), #161, .T. ) ;
#233 = LINE ( 'NONE', #58, #153 ) ;
#234 = VECTOR ( 'NONE', #238, 39.37007874015748854 ) ;
#235 = DIRECTION ( 'NONE',  ( -0.0000000000000000000, -0.0000000000000000000, -1.000000000000000000 ) ) ;
#236 = ADVANCED_BREP_SHAPE_REPRESENTATION ( 'Micro_SD-312', ( #305, #127 ), #184 ) ;
#237 = EDGE_CURVE ( 'NONE', #228, #74, #61, .T. ) ;
#238 = DIRECTION ( 'NONE',  ( -0.7071067811865410224, 0.0000000000000000000, -0.7071067811865539010 ) ) ;
#239 = AXIS2_PLACEMENT_3D ( 'NONE', #277, #275, #256 ) ;
#240 = VECTOR ( 'NONE', #250, 39.37007874015748143 ) ;
#241 = CARTESIAN_POINT ( 'NONE',  ( 0.0000000000000000000, 0.0000000000000000000, 0.8870499999999998941 ) ) ;
#242 = DIRECTION ( 'NONE',  ( 1.000000000000000000, 0.0000000000000000000, 0.0000000000000000000 ) ) ;
#243 = CARTESIAN_POINT ( 'NONE',  ( -0.1562000000000000333, 0.0000000000000000000, 0.09385442869210434969 ) ) ;
#244 = AXIS2_PLACEMENT_3D ( 'NONE', #70, #65, #215 ) ;
#245 = FACE_OUTER_BOUND ( 'NONE', #51, .T. ) ;
#246 = ORIENTED_EDGE ( 'NONE', *, *, #286, .T. ) ;
#247 = PRODUCT_RELATED_PRODUCT_CATEGORY ( 'part', '', ( #191 ) ) ;
#248 = ORIENTED_EDGE ( 'NONE', *, *, #140, .F. ) ;
#249 = VERTEX_POINT ( 'NONE', #160 ) ;
#250 = DIRECTION ( 'NONE',  ( -0.0000000000000000000, -0.0000000000000000000, -1.000000000000000000 ) ) ;
#251 = EDGE_LOOP ( 'NONE', ( #226, #319 ) ) ;
#252 = EDGE_LOOP ( 'NONE', ( #317, #146, #192 ) ) ;
#253 = DIRECTION ( 'NONE',  ( 0.0000000000000000000, 0.0000000000000000000, 1.000000000000000000 ) ) ;
#254 = VECTOR ( 'NONE', #181, 39.37007874015748143 ) ;
#255 = CARTESIAN_POINT ( 'NONE',  ( 0.0000000000000000000, 0.0000000000000000000, 2.500000000000000000 ) ) ;
#256 = DIRECTION ( 'NONE',  ( -1.000000000000000000, 0.0000000000000000000, 0.0000000000000000000 ) ) ;
#257 = FACE_OUTER_BOUND ( 'NONE', #266, .T. ) ;
#258 = DIRECTION ( 'NONE',  ( 1.000000000000000000, 0.0000000000000000000, 0.0000000000000000000 ) ) ;
#259 = DIRECTION ( 'NONE',  ( -1.000000000000000000, 0.0000000000000000000, 0.0000000000000000000 ) ) ;
#260 = PLANE ( 'NONE',  #183 ) ;
#261 = ADVANCED_FACE ( 'NONE', ( #86 ), #260, .T. ) ;
#262 = DIRECTION ( 'NONE',  ( -0.0000000000000000000, -0.0000000000000000000, -1.000000000000000000 ) ) ;
#263 = DIRECTION ( 'NONE',  ( -1.000000000000000000, 0.0000000000000000000, 0.0000000000000000000 ) ) ;
#264 = CIRCLE ( 'NONE', #219, 0.1562000000000000333 ) ;
#265 =( GEOMETRIC_REPRESENTATION_CONTEXT ( 3 ) GLOBAL_UNCERTAINTY_ASSIGNED_CONTEXT ( ( #279 ) ) GLOBAL_UNIT_ASSIGNED_CONTEXT ( ( #119, #198, #99 ) ) REPRESENTATION_CONTEXT ( 'NONE', 'WORKASPACE' ) );
#266 = EDGE_LOOP ( 'NONE', ( #194, #292, #168, #142 ) ) ;
#267 = EDGE_LOOP ( 'NONE', ( #125, #271, #175, #248 ) ) ;
#268 = DIRECTION ( 'NONE',  ( 0.0000000000000000000, 0.0000000000000000000, -1.000000000000000000 ) ) ;
#269 = ORIENTED_EDGE ( 'NONE', *, *, #31, .F. ) ;
#270 = CARTESIAN_POINT ( 'NONE',  ( 0.0000000000000000000, 0.0000000000000000000, 0.8870499999999998941 ) ) ;
#271 = ORIENTED_EDGE ( 'NONE', *, *, #290, .T. ) ;
#272 = ADVANCED_FACE ( 'NONE', ( #62 ), #126, .T. ) ;
#273 = ORIENTED_EDGE ( 'NONE', *, *, #212, .F. ) ;
#274 = CARTESIAN_POINT ( 'NONE',  ( 0.0000000000000000000, 0.0000000000000000000, 0.0000000000000000000 ) ) ;
#275 = DIRECTION ( 'NONE',  ( -0.0000000000000000000, -0.0000000000000000000, -1.000000000000000000 ) ) ;
#276 = CIRCLE ( 'NONE', #131, 0.1562500000000000000 ) ;
#277 = CARTESIAN_POINT ( 'NONE',  ( 0.0000000000000000000, 0.0000000000000000000, 2.500000000000000000 ) ) ;
#278 = LINE ( 'NONE', #59, #34 ) ;
#279 = UNCERTAINTY_MEASURE_WITH_UNIT (LENGTH_MEASURE( 1.000000000000000082E-05 ), #119, 'distance_accuracy_value', 'NONE');
#280 = DIRECTION ( 'NONE',  ( 0.0000000000000000000, 0.0000000000000000000, 1.000000000000000000 ) ) ;
#281 = AXIS2_PLACEMENT_3D ( 'NONE', #309, #112, #166 ) ;
#282 = AXIS2_PLACEMENT_3D ( 'NONE', #91, #50, #220 ) ;
#283 = DIRECTION ( 'NONE',  ( 1.000000000000000000, 0.0000000000000000000, -0.0000000000000000000 ) ) ;
#284 = DIRECTION ( 'NONE',  ( 1.000000000000000000, 0.0000000000000000000, 0.0000000000000000000 ) ) ;
#285 = CARTESIAN_POINT ( 'NONE',  ( 0.1562000000000000333, 1.912898300268166589E-17, 0.09385442869210434969 ) ) ;
#286 = EDGE_CURVE ( 'NONE', #312, #195, #264, .T. ) ;
#287 = AXIS2_PLACEMENT_3D ( 'NONE', #37, #29, #106 ) ;
#288 = CYLINDRICAL_SURFACE ( 'NONE', #40, 0.1562500000000000000 ) ;
#289 =( CONVERSION_BASED_UNIT ( 'INCH', #225 ) LENGTH_UNIT ( ) NAMED_UNIT ( #209 ) );
#290 = EDGE_CURVE ( 'NONE', #74, #228, #14, .T. ) ;
#291 = EDGE_LOOP ( 'NONE', ( #148, #101, #316, #75 ) ) ;
#292 = ORIENTED_EDGE ( 'NONE', *, *, #310, .F. ) ;
#293 = VERTEX_POINT ( 'NONE', #83 ) ;
#294 = ORIENTED_EDGE ( 'NONE', *, *, #93, .T. ) ;
#295 = PRODUCT_DEFINITION ( 'UNKNOWN', '', #114, #5 ) ;
#296 = ORIENTED_EDGE ( 'NONE', *, *, #171, .F. ) ;
#297 = PRODUCT_CONTEXT ( 'NONE', #177, 'mechanical' ) ;
#298 = LINE ( 'NONE', #108, #321 ) ;
#299 = EDGE_CURVE ( 'NONE', #76, #150, #136, .T. ) ;
#300 = ORIENTED_EDGE ( 'NONE', *, *, #299, .F. ) ;
#301 = LINE ( 'NONE', #79, #254 ) ;
#302 = DIRECTION ( 'NONE',  ( 0.0000000000000000000, 0.0000000000000000000, 1.000000000000000000 ) ) ;
#303 = CYLINDRICAL_SURFACE ( 'NONE', #287, 0.1562000000000000888 ) ;
#304 = CARTESIAN_POINT ( 'NONE',  ( 0.0000000000000000000, 0.0000000000000000000, 0.8870000000000000107 ) ) ;
#305 = MANIFOLD_SOLID_BREP ( 'Cut-Revolve2', #30 ) ;
#306 = SURFACE_STYLE_USAGE ( .BOTH. , #110 ) ;
#307 = ADVANCED_FACE ( 'NONE', ( #245 ), #315, .T. ) ;
#308 = CARTESIAN_POINT ( 'NONE',  ( 0.1562500000000000000, 1.913510623667739463E-17, 2.484999999999999432 ) ) ;
#309 = CARTESIAN_POINT ( 'NONE',  ( 0.0000000000000000000, 0.0000000000000000000, 0.8870000000000000107 ) ) ;
#310 = EDGE_CURVE ( 'NONE', #76, #249, #27, .T. ) ;
#311 =( NAMED_UNIT ( * ) SI_UNIT ( $, .STERADIAN. ) SOLID_ANGLE_UNIT ( ) );
#312 = VERTEX_POINT ( 'NONE', #243 ) ;
#313 = AXIS2_PLACEMENT_3D ( 'NONE', #241, #262, #242 ) ;
#314 = LENGTH_MEASURE_WITH_UNIT ( LENGTH_MEASURE( 0.02539999999999999897 ), #100 );
#315 = CONICAL_SURFACE ( 'NONE', #41, 0.1412499999999994871, 0.7853981633974391752 ) ;
#316 = ORIENTED_EDGE ( 'NONE', *, *, #323, .T. ) ;
#317 = ORIENTED_EDGE ( 'NONE', *, *, #10, .F. ) ;
#318 = EDGE_CURVE ( 'NONE', #150, #47, #15, .T. ) ;
#319 = ORIENTED_EDGE ( 'NONE', *, *, #69, .T. ) ;
#320 = SHAPE_DEFINITION_REPRESENTATION ( #49, #236 ) ;
#321 = VECTOR ( 'NONE', #205, 39.37007874015748854 ) ;
#322 = CARTESIAN_POINT ( 'NONE',  ( 0.0000000000000000000, 0.0000000000000000000, 2.500000000000000000 ) ) ;
#323 = EDGE_CURVE ( 'NONE', #47, #293, #107, .T. ) ;
ENDSEC;
END-ISO-10303-21;
