ISO-10303-21;
HEADER;
FILE_DESCRIPTION (( 'STEP AP214' ),
    '1' );
FILE_NAME ('Micro_RME-040-2X.STEP',
    '2021-09-01T23:21:58',
    ( '' ),
    ( '' ),
    'SwSTEP 2.0',
    'SolidWorks 2020',
    '' );
FILE_SCHEMA (( 'AUTOMOTIVE_DESIGN' ));
ENDSEC;

DATA;
#1 = EDGE_CURVE ( 'NONE', #51, #114, #76, .T. ) ;
#2 = DIRECTION ( 'NONE',  ( -1.224646799147353454E-16, -0.0000000000000000000, -1.000000000000000000 ) ) ;
#3 =( GEOMETRIC_REPRESENTATION_CONTEXT ( 3 ) GLOBAL_UNCERTAINTY_ASSIGNED_CONTEXT ( ( #185 ) ) GLOBAL_UNIT_ASSIGNED_CONTEXT ( ( #270, #183, #46 ) ) REPRESENTATION_CONTEXT ( 'NONE', 'WORKASPACE' ) );
#4 = DIRECTION ( 'NONE',  ( 0.0000000000000000000, 0.0000000000000000000, 1.000000000000000000 ) ) ;
#5 = DIRECTION ( 'NONE',  ( -0.7071067811865462405, 0.0000000000000000000, -0.7071067811865486830 ) ) ;
#6 = FACE_OUTER_BOUND ( 'NONE', #174, .T. ) ;
#7 = EDGE_CURVE ( 'NONE', #252, #227, #14, .T. ) ;
#8 = PRODUCT_DEFINITION_SHAPE ( 'NONE', 'NONE',  #265 ) ;
#9 = VECTOR ( 'NONE', #290, 39.37007874015748143 ) ;
#10 = CARTESIAN_POINT ( 'NONE',  ( -0.01997999999999998388, 5.050443399683686447E-18, 0.1199999999999999956 ) ) ;
#11 = LINE ( 'NONE', #125, #109 ) ;
#12 = DIRECTION ( 'NONE',  ( 1.000000000000000000, 0.0000000000000000000, 0.0000000000000000000 ) ) ;
#13 = EDGE_CURVE ( 'NONE', #227, #296, #282, .T. ) ;
#14 = CIRCLE ( 'NONE', #181, 0.06250000000000002776 ) ;
#15 = DIRECTION ( 'NONE',  ( 1.000000000000000000, 0.0000000000000000000, 0.0000000000000000000 ) ) ;
#16 = EDGE_CURVE ( 'NONE', #133, #44, #40, .T. ) ;
#17 = MANIFOLD_SOLID_BREP ( 'Cut-Revolve1', #45 ) ;
#18 = AXIS2_PLACEMENT_3D ( 'NONE', #173, #88, #146 ) ;
#19 = ORIENTED_EDGE ( 'NONE', *, *, #144, .F. ) ;
#20 = LENGTH_MEASURE_WITH_UNIT ( LENGTH_MEASURE( 0.02539999999999999897 ), #199 );
#21 = ORIENTED_EDGE ( 'NONE', *, *, #68, .T. ) ;
#22 =( LENGTH_UNIT ( ) NAMED_UNIT ( * ) SI_UNIT ( $, .METRE. ) );
#23 = MECHANICAL_DESIGN_GEOMETRIC_PRESENTATION_REPRESENTATION (  '', ( #210 ), #205 ) ;
#24 = APPLICATION_PROTOCOL_DEFINITION ( 'draft international standard', 'automotive_design', 1998, #35 ) ;
#25 = DIMENSIONAL_EXPONENTS ( 1.000000000000000000, 0.0000000000000000000, 0.0000000000000000000, 0.0000000000000000000, 0.0000000000000000000, 0.0000000000000000000, 0.0000000000000000000 ) ;
#26 = DIRECTION ( 'NONE',  ( 1.000000000000000000, 0.0000000000000000000, 0.0000000000000000000 ) ) ;
#27 = EDGE_CURVE ( 'NONE', #44, #133, #240, .T. ) ;
#28 = FACE_OUTER_BOUND ( 'NONE', #48, .T. ) ;
#29 = ORIENTED_EDGE ( 'NONE', *, *, #127, .F. ) ;
#30 =( NAMED_UNIT ( * ) SI_UNIT ( $, .STERADIAN. ) SOLID_ANGLE_UNIT ( ) );
#31 = EDGE_CURVE ( 'NONE', #51, #227, #258, .T. ) ;
#32 = CYLINDRICAL_SURFACE ( 'NONE', #61, 0.06250000000000002776 ) ;
#33 = DIRECTION ( 'NONE',  ( -1.000000000000000000, 0.0000000000000000000, 1.224646799147353454E-16 ) ) ;
#34 =( GEOMETRIC_REPRESENTATION_CONTEXT ( 3 ) GLOBAL_UNCERTAINTY_ASSIGNED_CONTEXT ( ( #206 ) ) GLOBAL_UNIT_ASSIGNED_CONTEXT ( ( #207, #71, #30 ) ) REPRESENTATION_CONTEXT ( 'NONE', 'WORKASPACE' ) );
#35 = APPLICATION_CONTEXT ( 'automotive_design' ) ;
#36 = FACE_OUTER_BOUND ( 'NONE', #203, .T. ) ;
#37 = ADVANCED_FACE ( 'NONE', ( #28 ), #136, .F. ) ;
#38 = CARTESIAN_POINT ( 'NONE',  ( 0.06250000000000006939, 7.654042494670963708E-18, 0.3611429029701438975 ) ) ;
#39 = DIRECTION ( 'NONE',  ( 0.7071067811865462405, 8.659560562354916834E-17, -0.7071067811865486830 ) ) ;
#40 = CIRCLE ( 'NONE', #283, 0.01997999999999999776 ) ;
#41 = AXIS2_PLACEMENT_3D ( 'NONE', #179, #170, #276 ) ;
#42 = CARTESIAN_POINT ( 'NONE',  ( -0.06250000000000002776, 0.0000000000000000000, 1.485000000000000764 ) ) ;
#43 = SURFACE_STYLE_USAGE ( .BOTH. , #128 ) ;
#44 = VERTEX_POINT ( 'NONE', #197 ) ;
#45 = CLOSED_SHELL ( 'NONE', ( #95, #189, #113, #272, #116, #200, #120, #81, #67, #37 ) ) ;
#46 =( NAMED_UNIT ( * ) SI_UNIT ( $, .STERADIAN. ) SOLID_ANGLE_UNIT ( ) );
#47 = AXIS2_PLACEMENT_3D ( 'NONE', #65, #80, #222 ) ;
#48 = EDGE_LOOP ( 'NONE', ( #178, #268 ) ) ;
#49 = CYLINDRICAL_SURFACE ( 'NONE', #118, 0.06250000000000002776 ) ;
#50 = ORIENTED_EDGE ( 'NONE', *, *, #7, .F. ) ;
#51 = VERTEX_POINT ( 'NONE', #168 ) ;
#52 = DIRECTION ( 'NONE',  ( -1.000000000000000000, 0.0000000000000000000, 0.0000000000000000000 ) ) ;
#53 = CIRCLE ( 'NONE', #141, 0.06250000000000002776 ) ;
#54 = EDGE_CURVE ( 'NONE', #44, #161, #261, .T. ) ;
#55 = DIRECTION ( 'NONE',  ( -1.224646799147353454E-16, -0.0000000000000000000, -1.000000000000000000 ) ) ;
#56 = ORIENTED_EDGE ( 'NONE', *, *, #7, .T. ) ;
#57 = PRESENTATION_LAYER_ASSIGNMENT (  '', '', ( #196 ) ) ;
#58 = CARTESIAN_POINT ( 'NONE',  ( -0.06250000000000002776, 0.0000000000000000000, 1.500000000000000222 ) ) ;
#59 = CARTESIAN_POINT ( 'NONE',  ( 0.01998000000000000817, 0.0000000000000000000, 0.1199999999999999956 ) ) ;
#60 = CARTESIAN_POINT ( 'NONE',  ( 0.0000000000000000000, 0.0000000000000000000, 1.500000000000000222 ) ) ;
#61 = AXIS2_PLACEMENT_3D ( 'NONE', #60, #241, #165 ) ;
#62 = CARTESIAN_POINT ( 'NONE',  ( 0.01998000000000000123, 2.446844304696411883E-18, -2.446844304696412268E-18 ) ) ;
#63 = DIRECTION ( 'NONE',  ( 0.0000000000000000000, 0.0000000000000000000, -1.000000000000000000 ) ) ;
#64 = DIRECTION ( 'NONE',  ( -0.0000000000000000000, -0.0000000000000000000, -1.000000000000000000 ) ) ;
#65 = CARTESIAN_POINT ( 'NONE',  ( 4.422725001571700136E-17, 0.0000000000000000000, 0.3611429029701438975 ) ) ;
#66 = PRODUCT_RELATED_PRODUCT_CATEGORY ( 'part', '', ( #176 ) ) ;
#67 = ADVANCED_FACE ( 'NONE', ( #286 ), #218, .T. ) ;
#68 = EDGE_CURVE ( 'NONE', #114, #51, #242, .T. ) ;
#69 = EDGE_CURVE ( 'NONE', #252, #161, #122, .T. ) ;
#70 = CARTESIAN_POINT ( 'NONE',  ( 0.0000000000000000000, 0.0000000000000000000, 0.0000000000000000000 ) ) ;
#71 =( NAMED_UNIT ( * ) PLANE_ANGLE_UNIT ( ) SI_UNIT ( $, .RADIAN. ) );
#72 = CARTESIAN_POINT ( 'NONE',  ( 1.469576158976824292E-17, 0.0000000000000000000, 0.1199999999999999956 ) ) ;
#73 = CIRCLE ( 'NONE', #47, 0.06250000000000002776 ) ;
#74 = DIRECTION ( 'NONE',  ( -1.000000000000000000, 0.0000000000000000000, 0.0000000000000000000 ) ) ;
#75 = CARTESIAN_POINT ( 'NONE',  ( -0.01998000000000000123, 0.0000000000000000000, 2.446844304696412268E-18 ) ) ;
#76 = CIRCLE ( 'NONE', #274, 0.04750000000000064587 ) ;
#77 = LINE ( 'NONE', #75, #254 ) ;
#78 = DIRECTION ( 'NONE',  ( -0.1736481776669311639, 2.126576849575783008E-17, 0.9848077530122080203 ) ) ;
#79 = LINE ( 'NONE', #164, #215 ) ;
#80 = DIRECTION ( 'NONE',  ( -1.224646799147353454E-16, -0.0000000000000000000, -1.000000000000000000 ) ) ;
#81 = ADVANCED_FACE ( 'NONE', ( #36 ), #182, .T. ) ;
#82 = ORIENTED_EDGE ( 'NONE', *, *, #144, .T. ) ;
#83 = LENGTH_MEASURE_WITH_UNIT ( LENGTH_MEASURE( 0.02539999999999999897 ), #104 );
#84 = ORIENTED_EDGE ( 'NONE', *, *, #85, .F. ) ;
#85 = EDGE_CURVE ( 'NONE', #133, #186, #77, .T. ) ;
#86 = APPLICATION_PROTOCOL_DEFINITION ( 'draft international standard', 'automotive_design', 1998, #208 ) ;
#87 = ORIENTED_EDGE ( 'NONE', *, *, #1, .F. ) ;
#88 = DIRECTION ( 'NONE',  ( -1.224646799147353454E-16, -0.0000000000000000000, -1.000000000000000000 ) ) ;
#89 = CIRCLE ( 'NONE', #147, 0.01998000000000000123 ) ;
#90 = CARTESIAN_POINT ( 'NONE',  ( -0.04750000000000064587, 0.0000000000000000000, 1.500000000000000222 ) ) ;
#91 = SHAPE_DEFINITION_REPRESENTATION ( #8, #226 ) ;
#92 = ORIENTED_EDGE ( 'NONE', *, *, #257, .T. ) ;
#93 = EDGE_CURVE ( 'NONE', #133, #296, #11, .T. ) ;
#94 = ORIENTED_EDGE ( 'NONE', *, *, #93, .T. ) ;
#95 = ADVANCED_FACE ( 'NONE', ( #238 ), #163, .T. ) ;
#96 = DIRECTION ( 'NONE',  ( -0.0000000000000000000, -0.0000000000000000000, -1.000000000000000000 ) ) ;
#97 = FACE_OUTER_BOUND ( 'NONE', #223, .T. ) ;
#98 = EDGE_CURVE ( 'NONE', #114, #252, #79, .T. ) ;
#99 = DIRECTION ( 'NONE',  ( -1.224646799147353454E-16, -0.0000000000000000000, -1.000000000000000000 ) ) ;
#100 = DIRECTION ( 'NONE',  ( 1.000000000000000000, 0.0000000000000000000, -0.0000000000000000000 ) ) ;
#101 = DIRECTION ( 'NONE',  ( 1.224646799147353454E-16, 0.0000000000000000000, 1.000000000000000000 ) ) ;
#102 = CONICAL_SURFACE ( 'NONE', #41, 0.01997999999999999776, 0.1745329251994338637 ) ;
#103 = DIRECTION ( 'NONE',  ( -1.224646799147353454E-16, -0.0000000000000000000, -1.000000000000000000 ) ) ;
#104 =( LENGTH_UNIT ( ) NAMED_UNIT ( * ) SI_UNIT ( $, .METRE. ) );
#105 = ORIENTED_EDGE ( 'NONE', *, *, #54, .T. ) ;
#106 = CARTESIAN_POINT ( 'NONE',  ( 0.06250000000000002776, 7.654042494670959086E-18, 1.485000000000000764 ) ) ;
#107 = ORIENTED_EDGE ( 'NONE', *, *, #98, .F. ) ;
#108 = AXIS2_PLACEMENT_3D ( 'NONE', #234, #55, #52 ) ;
#109 = VECTOR ( 'NONE', #78, 39.37007874015747433 ) ;
#110 = EDGE_LOOP ( 'NONE', ( #229, #171, #149, #134 ) ) ;
#111 = EDGE_LOOP ( 'NONE', ( #150, #21 ) ) ;
#112 = LENGTH_MEASURE_WITH_UNIT ( LENGTH_MEASURE( 0.02539999999999999897 ), #22 );
#113 = ADVANCED_FACE ( 'NONE', ( #169 ), #231, .T. ) ;
#114 = VERTEX_POINT ( 'NONE', #266 ) ;
#115 = SURFACE_SIDE_STYLE ('',( #135 ) ) ;
#116 = ADVANCED_FACE ( 'NONE', ( #6 ), #32, .T. ) ;
#117 = EDGE_LOOP ( 'NONE', ( #129, #184, #29, #211 ) ) ;
#118 = AXIS2_PLACEMENT_3D ( 'NONE', #291, #220, #297 ) ;
#119 = CARTESIAN_POINT ( 'NONE',  ( 0.0000000000000000000, 0.0000000000000000000, 1.485000000000000764 ) ) ;
#120 = ADVANCED_FACE ( 'NONE', ( #97 ), #172, .T. ) ;
#121 = DIRECTION ( 'NONE',  ( -1.224646799147353454E-16, -0.0000000000000000000, -1.000000000000000000 ) ) ;
#122 = LINE ( 'NONE', #287, #294 ) ;
#123 = MECHANICAL_DESIGN_GEOMETRIC_PRESENTATION_REPRESENTATION (  '', ( #196 ), #34 ) ;
#124 = CARTESIAN_POINT ( 'NONE',  ( 0.0000000000000000000, 0.0000000000000000000, 0.0000000000000000000 ) ) ;
#125 = CARTESIAN_POINT ( 'NONE',  ( -0.01997999999999998388, 2.446844304696411498E-18, 0.1199999999999999956 ) ) ;
#126 = CARTESIAN_POINT ( 'NONE',  ( 1.469576158976824292E-17, 0.0000000000000000000, 0.1199999999999999956 ) ) ;
#127 = EDGE_CURVE ( 'NONE', #227, #252, #279, .T. ) ;
#128 = SURFACE_SIDE_STYLE ('',( #246 ) ) ;
#129 = ORIENTED_EDGE ( 'NONE', *, *, #68, .F. ) ;
#130 =( NAMED_UNIT ( * ) PLANE_ANGLE_UNIT ( ) SI_UNIT ( $, .RADIAN. ) );
#131 = ORIENTED_EDGE ( 'NONE', *, *, #16, .F. ) ;
#132 = FACE_OUTER_BOUND ( 'NONE', #111, .T. ) ;
#133 = VERTEX_POINT ( 'NONE', #10 ) ;
#134 = ORIENTED_EDGE ( 'NONE', *, *, #259, .F. ) ;
#135 = SURFACE_STYLE_FILL_AREA ( #159 ) ;
#136 = PLANE ( 'NONE',  #198 ) ;
#137 = PRESENTATION_LAYER_ASSIGNMENT (  '', '', ( #210 ) ) ;
#138 = DIRECTION ( 'NONE',  ( -1.000000000000000000, 0.0000000000000000000, 0.0000000000000000000 ) ) ;
#139 = DIRECTION ( 'NONE',  ( -1.224646799147353454E-16, -0.0000000000000000000, -1.000000000000000000 ) ) ;
#140 = CARTESIAN_POINT ( 'NONE',  ( 0.0000000000000000000, 0.0000000000000000000, 1.485000000000000764 ) ) ;
#141 = AXIS2_PLACEMENT_3D ( 'NONE', #289, #243, #193 ) ;
#142 = EDGE_CURVE ( 'NONE', #44, #154, #263, .T. ) ;
#143 = CARTESIAN_POINT ( 'NONE',  ( 0.01998000000000000123, 2.446844304696411883E-18, 0.0000000000000000000 ) ) ;
#144 = EDGE_CURVE ( 'NONE', #161, #296, #53, .T. ) ;
#145 = DIRECTION ( 'NONE',  ( 0.0000000000000000000, 0.0000000000000000000, -1.000000000000000000 ) ) ;
#146 = DIRECTION ( 'NONE',  ( -1.000000000000000000, 0.0000000000000000000, 1.224646799147353454E-16 ) ) ;
#147 = AXIS2_PLACEMENT_3D ( 'NONE', #217, #195, #244 ) ;
#148 = FILL_AREA_STYLE ('',( #267 ) ) ;
#149 = ORIENTED_EDGE ( 'NONE', *, *, #85, .T. ) ;
#150 = ORIENTED_EDGE ( 'NONE', *, *, #1, .T. ) ;
#151 = AXIS2_PLACEMENT_3D ( 'NONE', #262, #264, #239 ) ;
#152 =( NAMED_UNIT ( * ) SI_UNIT ( $, .STERADIAN. ) SOLID_ANGLE_UNIT ( ) );
#153 = UNCERTAINTY_MEASURE_WITH_UNIT (LENGTH_MEASURE( 1.000000000000000082E-05 ), #248, 'distance_accuracy_value', 'NONE');
#154 = VERTEX_POINT ( 'NONE', #143 ) ;
#155 = ORIENTED_EDGE ( 'NONE', *, *, #54, .F. ) ;
#156 = DIRECTION ( 'NONE',  ( 0.0000000000000000000, 0.0000000000000000000, 1.000000000000000000 ) ) ;
#157 = AXIS2_PLACEMENT_3D ( 'NONE', #126, #101, #12 ) ;
#158 = FILL_AREA_STYLE_COLOUR ( '', #166 ) ;
#159 = FILL_AREA_STYLE ('',( #158 ) ) ;
#160 = ORIENTED_EDGE ( 'NONE', *, *, #31, .T. ) ;
#161 = VERTEX_POINT ( 'NONE', #38 ) ;
#162 = VECTOR ( 'NONE', #99, 39.37007874015748143 ) ;
#163 = CYLINDRICAL_SURFACE ( 'NONE', #284, 0.01998000000000000123 ) ;
#164 = CARTESIAN_POINT ( 'NONE',  ( 0.04750000000000064587, 5.817072295950006528E-18, 1.500000000000000222 ) ) ;
#165 = DIRECTION ( 'NONE',  ( -1.000000000000000000, 0.0000000000000000000, 0.0000000000000000000 ) ) ;
#166 = COLOUR_RGB ( '',0.7921568627450980005, 0.8196078431372548767, 0.9333333333333333481 ) ;
#167 = EDGE_CURVE ( 'NONE', #186, #154, #89, .T. ) ;
#168 = CARTESIAN_POINT ( 'NONE',  ( -0.04750000000000064587, 0.0000000000000000000, 1.500000000000000222 ) ) ;
#169 = FACE_OUTER_BOUND ( 'NONE', #117, .T. ) ;
#170 = DIRECTION ( 'NONE',  ( 1.224646799147353454E-16, 0.0000000000000000000, 1.000000000000000000 ) ) ;
#171 = ORIENTED_EDGE ( 'NONE', *, *, #27, .T. ) ;
#172 = CONICAL_SURFACE ( 'NONE', #249, 0.04750000000000064587, 0.7853981633974466137 ) ;
#173 = CARTESIAN_POINT ( 'NONE',  ( 2.996520045758392741E-34, 0.0000000000000000000, 2.446844304696412268E-18 ) ) ;
#174 = EDGE_LOOP ( 'NONE', ( #187, #56, #277, #19 ) ) ;
#175 = CARTESIAN_POINT ( 'NONE',  ( -0.01998000000000000123, 0.0000000000000000000, 4.893688609392824536E-18 ) ) ;
#176 = PRODUCT ( 'Micro_RME-040-2X', 'Micro_RME-040-2X', '', ( #233 ) ) ;
#177 = PRODUCT_DEFINITION_CONTEXT ( 'detailed design', #35, 'design' ) ;
#178 = ORIENTED_EDGE ( 'NONE', *, *, #167, .T. ) ;
#179 = CARTESIAN_POINT ( 'NONE',  ( 1.469576158976824292E-17, 0.0000000000000000000, 0.1199999999999999956 ) ) ;
#180 = ORIENTED_EDGE ( 'NONE', *, *, #142, .T. ) ;
#181 = AXIS2_PLACEMENT_3D ( 'NONE', #119, #212, #299 ) ;
#182 = CONICAL_SURFACE ( 'NONE', #157, 0.01997999999999999776, 0.1745329251994338637 ) ;
#183 =( NAMED_UNIT ( * ) PLANE_ANGLE_UNIT ( ) SI_UNIT ( $, .RADIAN. ) );
#184 = ORIENTED_EDGE ( 'NONE', *, *, #98, .T. ) ;
#185 = UNCERTAINTY_MEASURE_WITH_UNIT (LENGTH_MEASURE( 1.000000000000000082E-05 ), #270, 'distance_accuracy_value', 'NONE');
#186 = VERTEX_POINT ( 'NONE', #175 ) ;
#187 = ORIENTED_EDGE ( 'NONE', *, *, #69, .F. ) ;
#188 = ORIENTED_EDGE ( 'NONE', *, *, #127, .T. ) ;
#189 = ADVANCED_FACE ( 'NONE', ( #204 ), #102, .T. ) ;
#190 = SURFACE_STYLE_USAGE ( .BOTH. , #115 ) ;
#191 = CARTESIAN_POINT ( 'NONE',  ( 0.0000000000000000000, 0.0000000000000000000, 1.500000000000000222 ) ) ;
#192 = VECTOR ( 'NONE', #5, 39.37007874015748854 ) ;
#193 = DIRECTION ( 'NONE',  ( 1.000000000000000000, 0.0000000000000000000, 0.0000000000000000000 ) ) ;
#194 = CARTESIAN_POINT ( 'NONE',  ( 0.0000000000000000000, 0.0000000000000000000, 1.500000000000000222 ) ) ;
#195 = DIRECTION ( 'NONE',  ( -1.224646799147353454E-16, -0.0000000000000000000, -1.000000000000000000 ) ) ;
#196 = STYLED_ITEM ( 'NONE', ( #278 ), #17 ) ;
#197 = CARTESIAN_POINT ( 'NONE',  ( 0.01998000000000000817, 0.0000000000000000000, 0.1199999999999999956 ) ) ;
#198 = AXIS2_PLACEMENT_3D ( 'NONE', #70, #253, #100 ) ;
#199 =( LENGTH_UNIT ( ) NAMED_UNIT ( * ) SI_UNIT ( $, .METRE. ) );
#200 = ADVANCED_FACE ( 'NONE', ( #132 ), #250, .T. ) ;
#201 = ORIENTED_EDGE ( 'NONE', *, *, #167, .F. ) ;
#202 = CARTESIAN_POINT ( 'NONE',  ( -0.06249999999999997918, 0.0000000000000000000, 0.3611429029701438975 ) ) ;
#203 = EDGE_LOOP ( 'NONE', ( #209, #235, #105, #82 ) ) ;
#204 = FACE_OUTER_BOUND ( 'NONE', #251, .T. ) ;
#205 =( GEOMETRIC_REPRESENTATION_CONTEXT ( 3 ) GLOBAL_UNCERTAINTY_ASSIGNED_CONTEXT ( ( #153 ) ) GLOBAL_UNIT_ASSIGNED_CONTEXT ( ( #248, #130, #152 ) ) REPRESENTATION_CONTEXT ( 'NONE', 'WORKASPACE' ) );
#206 = UNCERTAINTY_MEASURE_WITH_UNIT (LENGTH_MEASURE( 1.000000000000000082E-05 ), #207, 'distance_accuracy_value', 'NONE');
#207 =( CONVERSION_BASED_UNIT ( 'INCH', #112 ) LENGTH_UNIT ( ) NAMED_UNIT ( #225 ) );
#208 = APPLICATION_CONTEXT ( 'automotive_design' ) ;
#209 = ORIENTED_EDGE ( 'NONE', *, *, #93, .F. ) ;
#210 = STYLED_ITEM ( 'NONE', ( #221 ), #226 ) ;
#211 = ORIENTED_EDGE ( 'NONE', *, *, #31, .F. ) ;
#212 = DIRECTION ( 'NONE',  ( 0.0000000000000000000, 0.0000000000000000000, -1.000000000000000000 ) ) ;
#213 = CARTESIAN_POINT ( 'NONE',  ( 0.0000000000000000000, 0.0000000000000000000, 0.0000000000000000000 ) ) ;
#214 = DIRECTION ( 'NONE',  ( 1.000000000000000000, 0.0000000000000000000, 0.0000000000000000000 ) ) ;
#215 = VECTOR ( 'NONE', #39, 39.37007874015748854 ) ;
#216 = DIRECTION ( 'NONE',  ( -1.000000000000000000, 0.0000000000000000000, 1.224646799147353454E-16 ) ) ;
#217 = CARTESIAN_POINT ( 'NONE',  ( 2.996520045758392741E-34, 0.0000000000000000000, 2.446844304696412268E-18 ) ) ;
#218 = CYLINDRICAL_SURFACE ( 'NONE', #288, 0.01998000000000000123 ) ;
#219 = AXIS2_PLACEMENT_3D ( 'NONE', #140, #145, #214 ) ;
#220 = DIRECTION ( 'NONE',  ( -0.0000000000000000000, -0.0000000000000000000, -1.000000000000000000 ) ) ;
#221 = PRESENTATION_STYLE_ASSIGNMENT (( #43 ) ) ;
#222 = DIRECTION ( 'NONE',  ( 1.000000000000000000, 0.0000000000000000000, 0.0000000000000000000 ) ) ;
#223 = EDGE_LOOP ( 'NONE', ( #107, #87, #160, #50 ) ) ;
#224 = AXIS2_PLACEMENT_3D ( 'NONE', #292, #273, #228 ) ;
#225 = DIMENSIONAL_EXPONENTS ( 1.000000000000000000, 0.0000000000000000000, 0.0000000000000000000, 0.0000000000000000000, 0.0000000000000000000, 0.0000000000000000000, 0.0000000000000000000 ) ;
#226 = ADVANCED_BREP_SHAPE_REPRESENTATION ( 'Micro_RME-040-2X', ( #17, #236 ), #3 ) ;
#227 = VERTEX_POINT ( 'NONE', #42 ) ;
#228 = DIRECTION ( 'NONE',  ( 1.000000000000000000, 0.0000000000000000000, -0.0000000000000000000 ) ) ;
#229 = ORIENTED_EDGE ( 'NONE', *, *, #142, .F. ) ;
#230 = DIRECTION ( 'NONE',  ( 1.000000000000000000, 0.0000000000000000000, 0.0000000000000000000 ) ) ;
#231 = CONICAL_SURFACE ( 'NONE', #151, 0.04750000000000064587, 0.7853981633974466137 ) ;
#232 = ORIENTED_EDGE ( 'NONE', *, *, #16, .T. ) ;
#233 = PRODUCT_CONTEXT ( 'NONE', #208, 'mechanical' ) ;
#234 = CARTESIAN_POINT ( 'NONE',  ( 1.469576158976824292E-17, 0.0000000000000000000, 0.1199999999999999956 ) ) ;
#235 = ORIENTED_EDGE ( 'NONE', *, *, #27, .F. ) ;
#236 = AXIS2_PLACEMENT_3D ( 'NONE', #255, #156, #230 ) ;
#237 = EDGE_LOOP ( 'NONE', ( #232, #180, #201, #84 ) ) ;
#238 = FACE_OUTER_BOUND ( 'NONE', #237, .T. ) ;
#239 = DIRECTION ( 'NONE',  ( -1.000000000000000000, 0.0000000000000000000, 0.0000000000000000000 ) ) ;
#240 = CIRCLE ( 'NONE', #108, 0.01997999999999999776 ) ;
#241 = DIRECTION ( 'NONE',  ( -0.0000000000000000000, -0.0000000000000000000, -1.000000000000000000 ) ) ;
#242 = CIRCLE ( 'NONE', #245, 0.04750000000000064587 ) ;
#243 = DIRECTION ( 'NONE',  ( -1.224646799147353454E-16, -0.0000000000000000000, -1.000000000000000000 ) ) ;
#244 = DIRECTION ( 'NONE',  ( -1.000000000000000000, 0.0000000000000000000, 1.224646799147353454E-16 ) ) ;
#245 = AXIS2_PLACEMENT_3D ( 'NONE', #194, #285, #15 ) ;
#246 = SURFACE_STYLE_FILL_AREA ( #148 ) ;
#247 = FACE_OUTER_BOUND ( 'NONE', #271, .T. ) ;
#248 =( CONVERSION_BASED_UNIT ( 'INCH', #20 ) LENGTH_UNIT ( ) NAMED_UNIT ( #256 ) );
#249 = AXIS2_PLACEMENT_3D ( 'NONE', #191, #63, #74 ) ;
#250 = PLANE ( 'NONE',  #224 ) ;
#251 = EDGE_LOOP ( 'NONE', ( #131, #94, #92, #155 ) ) ;
#252 = VERTEX_POINT ( 'NONE', #106 ) ;
#253 = DIRECTION ( 'NONE',  ( 0.0000000000000000000, 0.0000000000000000000, 1.000000000000000000 ) ) ;
#254 = VECTOR ( 'NONE', #121, 39.37007874015748143 ) ;
#255 = CARTESIAN_POINT ( 'NONE',  ( 0.0000000000000000000, 0.0000000000000000000, 0.0000000000000000000 ) ) ;
#256 = DIMENSIONAL_EXPONENTS ( 1.000000000000000000, 0.0000000000000000000, 0.0000000000000000000, 0.0000000000000000000, 0.0000000000000000000, 0.0000000000000000000, 0.0000000000000000000 ) ;
#257 = EDGE_CURVE ( 'NONE', #296, #161, #73, .T. ) ;
#258 = LINE ( 'NONE', #90, #192 ) ;
#259 = EDGE_CURVE ( 'NONE', #154, #186, #269, .T. ) ;
#260 = ORIENTED_EDGE ( 'NONE', *, *, #69, .T. ) ;
#261 = LINE ( 'NONE', #59, #9 ) ;
#262 = CARTESIAN_POINT ( 'NONE',  ( 0.0000000000000000000, 0.0000000000000000000, 1.500000000000000222 ) ) ;
#263 = LINE ( 'NONE', #62, #162 ) ;
#264 = DIRECTION ( 'NONE',  ( 0.0000000000000000000, 0.0000000000000000000, -1.000000000000000000 ) ) ;
#265 = PRODUCT_DEFINITION ( 'UNKNOWN', '', #280, #177 ) ;
#266 = CARTESIAN_POINT ( 'NONE',  ( 0.04750000000000064587, 6.735557395310483192E-18, 1.500000000000000222 ) ) ;
#267 = FILL_AREA_STYLE_COLOUR ( '', #275 ) ;
#268 = ORIENTED_EDGE ( 'NONE', *, *, #259, .T. ) ;
#269 = CIRCLE ( 'NONE', #18, 0.01998000000000000123 ) ;
#270 =( CONVERSION_BASED_UNIT ( 'INCH', #83 ) LENGTH_UNIT ( ) NAMED_UNIT ( #25 ) );
#271 = EDGE_LOOP ( 'NONE', ( #188, #260, #293, #295 ) ) ;
#272 = ADVANCED_FACE ( 'NONE', ( #247 ), #49, .T. ) ;
#273 = DIRECTION ( 'NONE',  ( 0.0000000000000000000, 0.0000000000000000000, 1.000000000000000000 ) ) ;
#274 = AXIS2_PLACEMENT_3D ( 'NONE', #281, #4, #26 ) ;
#275 = COLOUR_RGB ( '',0.7921568627450980005, 0.8196078431372548767, 0.9333333333333333481 ) ;
#276 = DIRECTION ( 'NONE',  ( 1.000000000000000000, 0.0000000000000000000, 0.0000000000000000000 ) ) ;
#277 = ORIENTED_EDGE ( 'NONE', *, *, #13, .T. ) ;
#278 = PRESENTATION_STYLE_ASSIGNMENT (( #190 ) ) ;
#279 = CIRCLE ( 'NONE', #219, 0.06250000000000002776 ) ;
#280 = PRODUCT_DEFINITION_FORMATION_WITH_SPECIFIED_SOURCE ( 'ANY', '', #176, .NOT_KNOWN. ) ;
#281 = CARTESIAN_POINT ( 'NONE',  ( 0.0000000000000000000, 0.0000000000000000000, 1.500000000000000222 ) ) ;
#282 = LINE ( 'NONE', #58, #298 ) ;
#283 = AXIS2_PLACEMENT_3D ( 'NONE', #72, #2, #138 ) ;
#284 = AXIS2_PLACEMENT_3D ( 'NONE', #124, #103, #216 ) ;
#285 = DIRECTION ( 'NONE',  ( 0.0000000000000000000, 0.0000000000000000000, 1.000000000000000000 ) ) ;
#286 = FACE_OUTER_BOUND ( 'NONE', #110, .T. ) ;
#287 = CARTESIAN_POINT ( 'NONE',  ( 0.06250000000000002776, 7.654042494670959086E-18, 1.500000000000000222 ) ) ;
#288 = AXIS2_PLACEMENT_3D ( 'NONE', #213, #139, #33 ) ;
#289 = CARTESIAN_POINT ( 'NONE',  ( 4.422725001571700136E-17, 0.0000000000000000000, 0.3611429029701438975 ) ) ;
#290 = DIRECTION ( 'NONE',  ( 0.1736481776669313581, 0.0000000000000000000, 0.9848077530122077983 ) ) ;
#291 = CARTESIAN_POINT ( 'NONE',  ( 0.0000000000000000000, 0.0000000000000000000, 1.500000000000000222 ) ) ;
#292 = CARTESIAN_POINT ( 'NONE',  ( 0.0000000000000000000, 0.0000000000000000000, 1.500000000000000222 ) ) ;
#293 = ORIENTED_EDGE ( 'NONE', *, *, #257, .F. ) ;
#294 = VECTOR ( 'NONE', #64, 39.37007874015748143 ) ;
#295 = ORIENTED_EDGE ( 'NONE', *, *, #13, .F. ) ;
#296 = VERTEX_POINT ( 'NONE', #202 ) ;
#297 = DIRECTION ( 'NONE',  ( -1.000000000000000000, 0.0000000000000000000, 0.0000000000000000000 ) ) ;
#298 = VECTOR ( 'NONE', #96, 39.37007874015748143 ) ;
#299 = DIRECTION ( 'NONE',  ( 1.000000000000000000, 0.0000000000000000000, 0.0000000000000000000 ) ) ;
ENDSEC;
END-ISO-10303-21;
