ISO-10303-21;
HEADER;
FILE_DESCRIPTION (( 'STEP AP214' ),
    '1' );
FILE_NAME ('Micro_BEM-062-03X.STEP',
    '2021-09-03T12:58:40',
    ( '' ),
    ( '' ),
    'SwSTEP 2.0',
    'SolidWorks 2020',
    '' );
FILE_SCHEMA (( 'AUTOMOTIVE_DESIGN' ));
ENDSEC;

DATA;
#1 = CARTESIAN_POINT ( 'NONE',  ( 0.0000000000000000000, 0.0000000000000000000, 1.500000000000000222 ) ) ;
#2 = AXIS2_PLACEMENT_3D ( 'NONE', #137, #64, #245 ) ;
#3 = ORIENTED_EDGE ( 'NONE', *, *, #26, .F. ) ;
#4 = DIRECTION ( 'NONE',  ( -1.000000000000000000, 1.224646799147353454E-16, 0.0000000000000000000 ) ) ;
#5 = ORIENTED_EDGE ( 'NONE', *, *, #171, .T. ) ;
#6 = CLOSED_SHELL ( 'NONE', ( #122, #211, #146, #169, #298, #65, #200, #116, #269, #143, #305 ) ) ;
#7 = CIRCLE ( 'NONE', #195, 0.03121874999999999997 ) ;
#8 = CARTESIAN_POINT ( 'NONE',  ( 0.0000000000000000000, 0.0000000000000000000, 1.500000000000000222 ) ) ;
#9 = ORIENTED_EDGE ( 'NONE', *, *, #100, .F. ) ;
#10 = CARTESIAN_POINT ( 'NONE',  ( 0.0000000000000000000, 0.0000000000000000000, 1.500000000000000222 ) ) ;
#11 = CARTESIAN_POINT ( 'NONE',  ( 0.0000000000000000000, 0.0000000000000000000, 0.0000000000000000000 ) ) ;
#12 = CARTESIAN_POINT ( 'NONE',  ( 3.823194226088145228E-18, 0.0000000000000000000, 0.03121874999999999997 ) ) ;
#13 = CARTESIAN_POINT ( 'NONE',  ( 0.04750000000000064587, 5.817072295950006528E-18, 1.500000000000000222 ) ) ;
#14 = DIRECTION ( 'NONE',  ( -1.000000000000000000, 0.0000000000000000000, 0.0000000000000000000 ) ) ;
#15 = CYLINDRICAL_SURFACE ( 'NONE', #2, 0.06250000000000002776 ) ;
#16 = DIRECTION ( 'NONE',  ( -1.224646799147353700E-16, -0.0000000000000000000, -1.000000000000000000 ) ) ;
#17 = DIRECTION ( 'NONE',  ( 1.224646799147353700E-16, 0.0000000000000000000, 1.000000000000000000 ) ) ;
#18 = EDGE_CURVE ( 'NONE', #82, #286, #246, .T. ) ;
#19 = DIRECTION ( 'NONE',  ( 1.000000000000000000, 0.0000000000000000000, 0.0000000000000000000 ) ) ;
#20 = ORIENTED_EDGE ( 'NONE', *, *, #90, .F. ) ;
#21 = UNCERTAINTY_MEASURE_WITH_UNIT (LENGTH_MEASURE( 1.000000000000000082E-05 ), #309, 'distance_accuracy_value', 'NONE');
#22 = EDGE_CURVE ( 'NONE', #276, #148, #93, .T. ) ;
#23 = ORIENTED_EDGE ( 'NONE', *, *, #172, .F. ) ;
#24 = VERTEX_POINT ( 'NONE', #69 ) ;
#25 = STYLED_ITEM ( 'NONE', ( #208 ), #144 ) ;
#26 = EDGE_CURVE ( 'NONE', #24, #74, #95, .T. ) ;
#27 = DIRECTION ( 'NONE',  ( 0.0000000000000000000, 0.0000000000000000000, -1.000000000000000000 ) ) ;
#28 = ORIENTED_EDGE ( 'NONE', *, *, #26, .T. ) ;
#29 = FACE_OUTER_BOUND ( 'NONE', #127, .T. ) ;
#30 = EDGE_LOOP ( 'NONE', ( #23, #229, #233, #299 ) ) ;
#31 = FACE_OUTER_BOUND ( 'NONE', #227, .T. ) ;
#32 = STYLED_ITEM ( 'NONE', ( #291 ), #260 ) ;
#33 = CIRCLE ( 'NONE', #225, 0.06250000000000002776 ) ;
#34 = SURFACE_STYLE_USAGE ( .BOTH. , #60 ) ;
#35 = CARTESIAN_POINT ( 'NONE',  ( 0.0000000000000000000, 0.0000000000000000000, 0.0000000000000000000 ) ) ;
#36 = EDGE_CURVE ( 'NONE', #118, #74, #94, .T. ) ;
#37 = DIRECTION ( 'NONE',  ( -1.000000000000000000, 0.0000000000000000000, 0.0000000000000000000 ) ) ;
#38 = APPLICATION_PROTOCOL_DEFINITION ( 'draft international standard', 'automotive_design', 1998, #224 ) ;
#39 = DIRECTION ( 'NONE',  ( 0.0000000000000000000, 1.000000000000000000, 0.0000000000000000000 ) ) ;
#40 = DIRECTION ( 'NONE',  ( -0.7071067811865462405, 0.0000000000000000000, -0.7071067811865486830 ) ) ;
#41 = CIRCLE ( 'NONE', #46, 0.04750000000000064587 ) ;
#42 = CARTESIAN_POINT ( 'NONE',  ( 3.823194226088145228E-18, 0.0000000000000000000, 0.03121874999999999997 ) ) ;
#43 = EDGE_CURVE ( 'NONE', #286, #82, #41, .T. ) ;
#44 = CARTESIAN_POINT ( 'NONE',  ( 0.0000000000000000000, 0.0000000000000000000, 1.500000000000000222 ) ) ;
#45 = ORIENTED_EDGE ( 'NONE', *, *, #43, .F. ) ;
#46 = AXIS2_PLACEMENT_3D ( 'NONE', #44, #131, #290 ) ;
#47 = AXIS2_PLACEMENT_3D ( 'NONE', #11, #288, #240 ) ;
#48 = ORIENTED_EDGE ( 'NONE', *, *, #249, .F. ) ;
#49 = EDGE_CURVE ( 'NONE', #310, #118, #33, .T. ) ;
#50 = VERTEX_POINT ( 'NONE', #210 ) ;
#51 = CARTESIAN_POINT ( 'NONE',  ( -0.03121874999999997916, 3.823194226088143687E-18, 0.1880000000000000282 ) ) ;
#52 = ORIENTED_EDGE ( 'NONE', *, *, #49, .T. ) ;
#53 = CARTESIAN_POINT ( 'NONE',  ( -0.04750000000000064587, 0.0000000000000000000, 1.500000000000000222 ) ) ;
#54 = DIRECTION ( 'NONE',  ( 0.0000000000000000000, 0.0000000000000000000, -1.000000000000000000 ) ) ;
#55 =( NAMED_UNIT ( * ) PLANE_ANGLE_UNIT ( ) SI_UNIT ( $, .RADIAN. ) );
#56 = DIRECTION ( 'NONE',  ( 0.0000000000000000000, 0.0000000000000000000, -1.000000000000000000 ) ) ;
#57 = AXIS2_PLACEMENT_3D ( 'NONE', #166, #16, #185 ) ;
#58 = CARTESIAN_POINT ( 'NONE',  ( 0.06250000000000002776, 7.654042494670959086E-18, 1.485000000000000764 ) ) ;
#59 = FILL_AREA_STYLE_COLOUR ( '', #325 ) ;
#60 = SURFACE_SIDE_STYLE ('',( #155 ) ) ;
#61 = CARTESIAN_POINT ( 'NONE',  ( 2.302335982397025094E-17, 0.0000000000000000000, 0.1880000000000000282 ) ) ;
#62 = DIRECTION ( 'NONE',  ( -1.000000000000000000, 0.0000000000000000000, 0.0000000000000000000 ) ) ;
#63 = AXIS2_PLACEMENT_3D ( 'NONE', #204, #27, #189 ) ;
#64 = DIRECTION ( 'NONE',  ( -0.0000000000000000000, -0.0000000000000000000, -1.000000000000000000 ) ) ;
#65 = ADVANCED_FACE ( 'NONE', ( #157 ), #266, .T. ) ;
#66 = DIRECTION ( 'NONE',  ( 1.000000000000000000, 0.0000000000000000000, 0.0000000000000000000 ) ) ;
#67 = CIRCLE ( 'NONE', #57, 0.03121874999999999997 ) ;
#68 = AXIS2_PLACEMENT_3D ( 'NONE', #35, #115, #244 ) ;
#69 = CARTESIAN_POINT ( 'NONE',  ( -0.06249999999999997918, 0.0000000000000000000, 0.3654047844199156403 ) ) ;
#70 = ORIENTED_EDGE ( 'NONE', *, *, #113, .F. ) ;
#71 = ORIENTED_EDGE ( 'NONE', *, *, #172, .T. ) ;
#72 = EDGE_CURVE ( 'NONE', #310, #24, #182, .T. ) ;
#73 = DIRECTION ( 'NONE',  ( -1.000000000000000000, 0.0000000000000000000, 0.0000000000000000000 ) ) ;
#74 = VERTEX_POINT ( 'NONE', #239 ) ;
#75 = VECTOR ( 'NONE', #134, 39.37007874015748143 ) ;
#76 = CIRCLE ( 'NONE', #178, 0.06250000000000002776 ) ;
#77 = FACE_OUTER_BOUND ( 'NONE', #170, .T. ) ;
#78 = ORIENTED_EDGE ( 'NONE', *, *, #238, .T. ) ;
#79 = PRODUCT_DEFINITION_CONTEXT ( 'detailed design', #224, 'design' ) ;
#80 = DIRECTION ( 'NONE',  ( 1.000000000000000000, 0.0000000000000000000, 0.0000000000000000000 ) ) ;
#81 = DIRECTION ( 'NONE',  ( -0.1736481776669311916, 2.126576849575783316E-17, 0.9848077530122080203 ) ) ;
#82 = VERTEX_POINT ( 'NONE', #53 ) ;
#83 = LINE ( 'NONE', #13, #322 ) ;
#84 = PRODUCT_RELATED_PRODUCT_CATEGORY ( 'part', '', ( #307 ) ) ;
#85 = SPHERICAL_SURFACE ( 'NONE', #317, 0.03121874999999999997 ) ;
#86 = FILL_AREA_STYLE ('',( #267 ) ) ;
#87 = DIRECTION ( 'NONE',  ( 1.000000000000000000, 0.0000000000000000000, 0.0000000000000000000 ) ) ;
#88 = CARTESIAN_POINT ( 'NONE',  ( 3.823194226088145228E-18, 0.0000000000000000000, 0.03121874999999999997 ) ) ;
#89 = PLANE ( 'NONE',  #150 ) ;
#90 = EDGE_CURVE ( 'NONE', #276, #74, #207, .T. ) ;
#91 = DIRECTION ( 'NONE',  ( 1.000000000000000000, 0.0000000000000000000, 0.0000000000000000000 ) ) ;
#92 = CONICAL_SURFACE ( 'NONE', #279, 0.03121874999999999997, 0.1745329251994338915 ) ;
#93 = LINE ( 'NONE', #196, #111 ) ;
#94 = LINE ( 'NONE', #198, #138 ) ;
#95 = CIRCLE ( 'NONE', #278, 0.06250000000000002776 ) ;
#96 = VECTOR ( 'NONE', #40, 39.37007874015748854 ) ;
#97 = APPLICATION_CONTEXT ( 'automotive_design' ) ;
#98 = PRODUCT_DEFINITION_FORMATION_WITH_SPECIFIED_SOURCE ( 'ANY', '', #307, .NOT_KNOWN. ) ;
#99 = ORIENTED_EDGE ( 'NONE', *, *, #171, .F. ) ;
#100 = EDGE_CURVE ( 'NONE', #286, #118, #83, .T. ) ;
#101 = ORIENTED_EDGE ( 'NONE', *, *, #303, .F. ) ;
#102 = SURFACE_STYLE_FILL_AREA ( #128 ) ;
#103 = ORIENTED_EDGE ( 'NONE', *, *, #49, .F. ) ;
#104 = DIRECTION ( 'NONE',  ( 0.1736481776669313859, 0.0000000000000000000, 0.9848077530122077983 ) ) ;
#105 =( LENGTH_UNIT ( ) NAMED_UNIT ( * ) SI_UNIT ( $, .METRE. ) );
#106 = LENGTH_MEASURE_WITH_UNIT ( LENGTH_MEASURE( 0.02539999999999999897 ), #124 );
#107 = DIRECTION ( 'NONE',  ( 1.000000000000000000, 0.0000000000000000000, -0.0000000000000000000 ) ) ;
#108 = CARTESIAN_POINT ( 'NONE',  ( 0.0000000000000000000, 0.0000000000000000000, 1.485000000000000764 ) ) ;
#109 = PRODUCT_CONTEXT ( 'NONE', #97, 'mechanical' ) ;
#110 =( CONVERSION_BASED_UNIT ( 'INCH', #136 ) LENGTH_UNIT ( ) NAMED_UNIT ( #262 ) );
#111 = VECTOR ( 'NONE', #250, 39.37007874015748143 ) ;
#112 = CIRCLE ( 'NONE', #275, 0.03121874999999999997 ) ;
#113 = EDGE_CURVE ( 'NONE', #50, #123, #287, .T. ) ;
#114 = DIRECTION ( 'NONE',  ( 0.0000000000000000000, -1.000000000000000000, 0.0000000000000000000 ) ) ;
#115 = DIRECTION ( 'NONE',  ( -1.224646799147353700E-16, -0.0000000000000000000, -1.000000000000000000 ) ) ;
#116 = ADVANCED_FACE ( 'NONE', ( #31 ), #149, .T. ) ;
#117 = ORIENTED_EDGE ( 'NONE', *, *, #36, .F. ) ;
#118 = VERTEX_POINT ( 'NONE', #58 ) ;
#119 =( GEOMETRIC_REPRESENTATION_CONTEXT ( 3 ) GLOBAL_UNCERTAINTY_ASSIGNED_CONTEXT ( ( #141 ) ) GLOBAL_UNIT_ASSIGNED_CONTEXT ( ( #110, #55, #281 ) ) REPRESENTATION_CONTEXT ( 'NONE', 'WORKASPACE' ) );
#120 = PRESENTATION_LAYER_ASSIGNMENT (  '', '', ( #25 ) ) ;
#121 = ORIENTED_EDGE ( 'NONE', *, *, #230, .F. ) ;
#122 = ADVANCED_FACE ( 'NONE', ( #132 ), #85, .T. ) ;
#123 = VERTEX_POINT ( 'NONE', #183 ) ;
#124 =( LENGTH_UNIT ( ) NAMED_UNIT ( * ) SI_UNIT ( $, .METRE. ) );
#125 = CARTESIAN_POINT ( 'NONE',  ( 3.823194226088145228E-18, 0.0000000000000000000, 0.03121874999999999997 ) ) ;
#126 = DIRECTION ( 'NONE',  ( 0.0000000000000000000, 0.0000000000000000000, 1.000000000000000000 ) ) ;
#127 = EDGE_LOOP ( 'NONE', ( #45, #174, #103, #175 ) ) ;
#128 = FILL_AREA_STYLE ('',( #59 ) ) ;
#129 = ORIENTED_EDGE ( 'NONE', *, *, #249, .T. ) ;
#130 = CIRCLE ( 'NONE', #63, 0.06250000000000002776 ) ;
#131 = DIRECTION ( 'NONE',  ( 0.0000000000000000000, 0.0000000000000000000, 1.000000000000000000 ) ) ;
#132 = FACE_OUTER_BOUND ( 'NONE', #253, .T. ) ;
#133 = DIRECTION ( 'NONE',  ( 1.224646799147353700E-16, 0.0000000000000000000, 1.000000000000000000 ) ) ;
#134 = DIRECTION ( 'NONE',  ( -0.0000000000000000000, -0.0000000000000000000, -1.000000000000000000 ) ) ;
#135 = DIRECTION ( 'NONE',  ( 0.0000000000000000000, 1.000000000000000000, 0.0000000000000000000 ) ) ;
#136 = LENGTH_MEASURE_WITH_UNIT ( LENGTH_MEASURE( 0.02539999999999999897 ), #292 );
#137 = CARTESIAN_POINT ( 'NONE',  ( 0.0000000000000000000, 0.0000000000000000000, 1.500000000000000222 ) ) ;
#138 = VECTOR ( 'NONE', #302, 39.37007874015748143 ) ;
#139 = AXIS2_PLACEMENT_3D ( 'NONE', #295, #164, #91 ) ;
#140 = CARTESIAN_POINT ( 'NONE',  ( 0.0000000000000000000, 0.0000000000000000000, 1.500000000000000222 ) ) ;
#141 = UNCERTAINTY_MEASURE_WITH_UNIT (LENGTH_MEASURE( 1.000000000000000082E-05 ), #110, 'distance_accuracy_value', 'NONE');
#142 = ORIENTED_EDGE ( 'NONE', *, *, #222, .F. ) ;
#143 = ADVANCED_FACE ( 'NONE', ( #312 ), #264, .T. ) ;
#144 = MANIFOLD_SOLID_BREP ( 'Fillet1', #6 ) ;
#145 = ORIENTED_EDGE ( 'NONE', *, *, #203, .T. ) ;
#146 = ADVANCED_FACE ( 'NONE', ( #77 ), #92, .T. ) ;
#147 = ORIENTED_EDGE ( 'NONE', *, *, #22, .F. ) ;
#148 = VERTEX_POINT ( 'NONE', #176 ) ;
#149 = CONICAL_SURFACE ( 'NONE', #167, 0.04750000000000064587, 0.7853981633974466137 ) ;
#150 = AXIS2_PLACEMENT_3D ( 'NONE', #140, #192, #107 ) ;
#151 = EDGE_LOOP ( 'NONE', ( #99, #129, #142 ) ) ;
#152 = EDGE_LOOP ( 'NONE', ( #117, #304, #323, #121 ) ) ;
#153 = DIRECTION ( 'NONE',  ( -1.224646799147353700E-16, -0.0000000000000000000, -1.000000000000000000 ) ) ;
#154 = FACE_OUTER_BOUND ( 'NONE', #236, .T. ) ;
#155 = SURFACE_STYLE_FILL_AREA ( #86 ) ;
#156 = CARTESIAN_POINT ( 'NONE',  ( 5.734791339132217072E-18, 0.0000000000000000000, 0.0000000000000000000 ) ) ;
#157 = FACE_OUTER_BOUND ( 'NONE', #152, .T. ) ;
#158 = DIRECTION ( 'NONE',  ( 1.224646799147353700E-16, 0.0000000000000000000, 1.000000000000000000 ) ) ;
#159 = CARTESIAN_POINT ( 'NONE',  ( 0.0000000000000000000, 0.0000000000000000000, 0.0000000000000000000 ) ) ;
#160 = CYLINDRICAL_SURFACE ( 'NONE', #68, 0.03121874999999999997 ) ;
#161 = EDGE_CURVE ( 'NONE', #118, #310, #130, .T. ) ;
#162 =( CONVERSION_BASED_UNIT ( 'INCH', #106 ) LENGTH_UNIT ( ) NAMED_UNIT ( #283 ) );
#163 = DIRECTION ( 'NONE',  ( 0.0000000000000000000, 0.0000000000000000000, -1.000000000000000000 ) ) ;
#164 = DIRECTION ( 'NONE',  ( 1.224646799147353700E-16, 0.0000000000000000000, 1.000000000000000000 ) ) ;
#165 =( GEOMETRIC_REPRESENTATION_CONTEXT ( 3 ) GLOBAL_UNCERTAINTY_ASSIGNED_CONTEXT ( ( #21 ) ) GLOBAL_UNIT_ASSIGNED_CONTEXT ( ( #309, #315, #212 ) ) REPRESENTATION_CONTEXT ( 'NONE', 'WORKASPACE' ) );
#166 = CARTESIAN_POINT ( 'NONE',  ( 2.302335982397025094E-17, 0.0000000000000000000, 0.1880000000000000282 ) ) ;
#167 = AXIS2_PLACEMENT_3D ( 'NONE', #10, #216, #14 ) ;
#168 = CARTESIAN_POINT ( 'NONE',  ( 4.474917996329785777E-17, 0.0000000000000000000, 0.3654047844199156403 ) ) ;
#169 = ADVANCED_FACE ( 'NONE', ( #29 ), #297, .T. ) ;
#170 = EDGE_LOOP ( 'NONE', ( #101, #71, #28, #20 ) ) ;
#171 = EDGE_CURVE ( 'NONE', #306, #123, #226, .T. ) ;
#172 = EDGE_CURVE ( 'NONE', #50, #24, #284, .T. ) ;
#173 = COLOUR_RGB ( '',0.7921568627450980005, 0.8196078431372548767, 0.9333333333333333481 ) ;
#174 = ORIENTED_EDGE ( 'NONE', *, *, #100, .T. ) ;
#175 = ORIENTED_EDGE ( 'NONE', *, *, #203, .F. ) ;
#176 = CARTESIAN_POINT ( 'NONE',  ( 0.03121875000000000691, 3.823194226088143687E-18, 0.03121874999999999650 ) ) ;
#177 = ORIENTED_EDGE ( 'NONE', *, *, #36, .T. ) ;
#178 = AXIS2_PLACEMENT_3D ( 'NONE', #319, #268, #191 ) ;
#179 = UNCERTAINTY_MEASURE_WITH_UNIT (LENGTH_MEASURE( 1.000000000000000082E-05 ), #162, 'distance_accuracy_value', 'NONE');
#180 = LENGTH_MEASURE_WITH_UNIT ( LENGTH_MEASURE( 0.02539999999999999897 ), #105 );
#181 = ORIENTED_EDGE ( 'NONE', *, *, #294, .F. ) ;
#182 = LINE ( 'NONE', #311, #75 ) ;
#183 = CARTESIAN_POINT ( 'NONE',  ( -0.03121874999999999650, 0.0000000000000000000, 0.03121875000000000691 ) ) ;
#184 =( NAMED_UNIT ( * ) PLANE_ANGLE_UNIT ( ) SI_UNIT ( $, .RADIAN. ) );
#185 = DIRECTION ( 'NONE',  ( -1.000000000000000000, 0.0000000000000000000, 0.0000000000000000000 ) ) ;
#186 = CARTESIAN_POINT ( 'NONE',  ( -0.03121874999999999997, 0.0000000000000000000, 3.823194226088145228E-18 ) ) ;
#187 = DIRECTION ( 'NONE',  ( 1.000000000000000000, 0.0000000000000000000, 0.0000000000000000000 ) ) ;
#188 = MECHANICAL_DESIGN_GEOMETRIC_PRESENTATION_REPRESENTATION (  '', ( #32 ), #255 ) ;
#189 = DIRECTION ( 'NONE',  ( 1.000000000000000000, 0.0000000000000000000, 0.0000000000000000000 ) ) ;
#190 = SHAPE_DEFINITION_REPRESENTATION ( #234, #260 ) ;
#191 = DIRECTION ( 'NONE',  ( 1.000000000000000000, 0.0000000000000000000, 0.0000000000000000000 ) ) ;
#192 = DIRECTION ( 'NONE',  ( 0.0000000000000000000, 0.0000000000000000000, 1.000000000000000000 ) ) ;
#193 = DIRECTION ( 'NONE',  ( -1.224646799147353700E-16, -0.0000000000000000000, -1.000000000000000000 ) ) ;
#194 = AXIS2_PLACEMENT_3D ( 'NONE', #1, #324, #66 ) ;
#195 = AXIS2_PLACEMENT_3D ( 'NONE', #61, #193, #62 ) ;
#196 = CARTESIAN_POINT ( 'NONE',  ( 0.03121874999999999997, 3.823194226088143687E-18, -3.823194226088145228E-18 ) ) ;
#197 = CIRCLE ( 'NONE', #301, 0.03121874999999999997 ) ;
#198 = CARTESIAN_POINT ( 'NONE',  ( 0.06250000000000002776, 7.654042494670959086E-18, 1.500000000000000222 ) ) ;
#199 = VECTOR ( 'NONE', #153, 39.37007874015748143 ) ;
#200 = ADVANCED_FACE ( 'NONE', ( #154 ), #89, .T. ) ;
#201 = EDGE_LOOP ( 'NONE', ( #147, #78, #205, #258 ) ) ;
#202 = EDGE_LOOP ( 'NONE', ( #251, #223, #261, #70 ) ) ;
#203 = EDGE_CURVE ( 'NONE', #82, #310, #248, .T. ) ;
#204 = CARTESIAN_POINT ( 'NONE',  ( 0.0000000000000000000, 0.0000000000000000000, 1.485000000000000764 ) ) ;
#205 = ORIENTED_EDGE ( 'NONE', *, *, #113, .T. ) ;
#206 = VECTOR ( 'NONE', #81, 39.37007874015747433 ) ;
#207 = LINE ( 'NONE', #243, #308 ) ;
#208 = PRESENTATION_STYLE_ASSIGNMENT (( #259 ) ) ;
#209 = EDGE_LOOP ( 'NONE', ( #52, #177, #3, #254 ) ) ;
#210 = CARTESIAN_POINT ( 'NONE',  ( -0.03121874999999997916, 5.738618360379552157E-18, 0.1880000000000000282 ) ) ;
#211 = ADVANCED_FACE ( 'NONE', ( #321 ), #160, .T. ) ;
#212 =( NAMED_UNIT ( * ) SI_UNIT ( $, .STERADIAN. ) SOLID_ANGLE_UNIT ( ) );
#213 =( NAMED_UNIT ( * ) SI_UNIT ( $, .STERADIAN. ) SOLID_ANGLE_UNIT ( ) );
#214 = CARTESIAN_POINT ( 'NONE',  ( 3.823194226088145228E-18, 0.0000000000000000000, 0.03121874999999999997 ) ) ;
#215 = DIRECTION ( 'NONE',  ( 0.7071067811865462405, 8.659560562354916834E-17, -0.7071067811865486830 ) ) ;
#216 = DIRECTION ( 'NONE',  ( 0.0000000000000000000, 0.0000000000000000000, -1.000000000000000000 ) ) ;
#217 = CARTESIAN_POINT ( 'NONE',  ( -0.06250000000000002776, 0.0000000000000000000, 1.485000000000000764 ) ) ;
#218 = AXIS2_PLACEMENT_3D ( 'NONE', #280, #231, #4 ) ;
#219 = FACE_OUTER_BOUND ( 'NONE', #30, .T. ) ;
#220 = FACE_OUTER_BOUND ( 'NONE', #209, .T. ) ;
#221 = AXIS2_PLACEMENT_3D ( 'NONE', #263, #314, #37 ) ;
#222 = EDGE_CURVE ( 'NONE', #123, #148, #197, .T. ) ;
#223 = ORIENTED_EDGE ( 'NONE', *, *, #22, .T. ) ;
#224 = APPLICATION_CONTEXT ( 'automotive_design' ) ;
#225 = AXIS2_PLACEMENT_3D ( 'NONE', #108, #56, #80 ) ;
#226 = CIRCLE ( 'NONE', #218, 0.03121874999999999997 ) ;
#227 = EDGE_LOOP ( 'NONE', ( #9, #277, #145, #282 ) ) ;
#228 = AXIS2_PLACEMENT_3D ( 'NONE', #159, #126, #232 ) ;
#229 = ORIENTED_EDGE ( 'NONE', *, *, #238, .F. ) ;
#230 = EDGE_CURVE ( 'NONE', #74, #24, #76, .T. ) ;
#231 = DIRECTION ( 'NONE',  ( 1.224646799147353207E-16, 1.000000000000000000, -0.0000000000000000000 ) ) ;
#232 = DIRECTION ( 'NONE',  ( 1.000000000000000000, 0.0000000000000000000, 0.0000000000000000000 ) ) ;
#233 = ORIENTED_EDGE ( 'NONE', *, *, #90, .T. ) ;
#234 = PRODUCT_DEFINITION_SHAPE ( 'NONE', 'NONE',  #242 ) ;
#235 = SURFACE_SIDE_STYLE ('',( #102 ) ) ;
#236 = EDGE_LOOP ( 'NONE', ( #274, #313 ) ) ;
#237 = MECHANICAL_DESIGN_GEOMETRIC_PRESENTATION_REPRESENTATION (  '', ( #25 ), #165 ) ;
#238 = EDGE_CURVE ( 'NONE', #276, #50, #7, .T. ) ;
#239 = CARTESIAN_POINT ( 'NONE',  ( 0.06250000000000006939, 7.654042494670963708E-18, 0.3654047844199156403 ) ) ;
#240 = DIRECTION ( 'NONE',  ( -1.000000000000000000, 0.0000000000000000000, 1.224646799147353947E-16 ) ) ;
#241 = CARTESIAN_POINT ( 'NONE',  ( -0.04750000000000064587, 0.0000000000000000000, 1.500000000000000222 ) ) ;
#242 = PRODUCT_DEFINITION ( 'UNKNOWN', '', #98, #79 ) ;
#243 = CARTESIAN_POINT ( 'NONE',  ( 0.03121875000000002426, 0.0000000000000000000, 0.1880000000000000282 ) ) ;
#244 = DIRECTION ( 'NONE',  ( -1.000000000000000000, 0.0000000000000000000, 1.224646799147353947E-16 ) ) ;
#245 = DIRECTION ( 'NONE',  ( -1.000000000000000000, 0.0000000000000000000, 0.0000000000000000000 ) ) ;
#246 = CIRCLE ( 'NONE', #194, 0.04750000000000064587 ) ;
#247 = CONICAL_SURFACE ( 'NONE', #139, 0.03121874999999999997, 0.1745329251994338915 ) ;
#248 = LINE ( 'NONE', #241, #96 ) ;
#249 = EDGE_CURVE ( 'NONE', #306, #148, #272, .T. ) ;
#250 = DIRECTION ( 'NONE',  ( -1.224646799147353700E-16, -0.0000000000000000000, -1.000000000000000000 ) ) ;
#251 = ORIENTED_EDGE ( 'NONE', *, *, #303, .T. ) ;
#252 = AXIS2_PLACEMENT_3D ( 'NONE', #8, #54, #73 ) ;
#253 = EDGE_LOOP ( 'NONE', ( #48, #5, #181 ) ) ;
#254 = ORIENTED_EDGE ( 'NONE', *, *, #72, .F. ) ;
#255 =( GEOMETRIC_REPRESENTATION_CONTEXT ( 3 ) GLOBAL_UNCERTAINTY_ASSIGNED_CONTEXT ( ( #179 ) ) GLOBAL_UNIT_ASSIGNED_CONTEXT ( ( #162, #184, #213 ) ) REPRESENTATION_CONTEXT ( 'NONE', 'WORKASPACE' ) );
#256 = AXIS2_PLACEMENT_3D ( 'NONE', #214, #114, #163 ) ;
#257 = DIMENSIONAL_EXPONENTS ( 1.000000000000000000, 0.0000000000000000000, 0.0000000000000000000, 0.0000000000000000000, 0.0000000000000000000, 0.0000000000000000000, 0.0000000000000000000 ) ;
#258 = ORIENTED_EDGE ( 'NONE', *, *, #222, .T. ) ;
#259 = SURFACE_STYLE_USAGE ( .BOTH. , #235 ) ;
#260 = ADVANCED_BREP_SHAPE_REPRESENTATION ( 'Micro_BEM-062-03X', ( #144, #228 ), #119 ) ;
#261 = ORIENTED_EDGE ( 'NONE', *, *, #294, .T. ) ;
#262 = DIMENSIONAL_EXPONENTS ( 1.000000000000000000, 0.0000000000000000000, 0.0000000000000000000, 0.0000000000000000000, 0.0000000000000000000, 0.0000000000000000000, 0.0000000000000000000 ) ;
#263 = CARTESIAN_POINT ( 'NONE',  ( 0.0000000000000000000, 0.0000000000000000000, 1.500000000000000222 ) ) ;
#264 = CYLINDRICAL_SURFACE ( 'NONE', #47, 0.03121874999999999997 ) ;
#265 = SPHERICAL_SURFACE ( 'NONE', #300, 0.03121874999999999997 ) ;
#266 = CYLINDRICAL_SURFACE ( 'NONE', #221, 0.06250000000000002776 ) ;
#267 = FILL_AREA_STYLE_COLOUR ( '', #173 ) ;
#268 = DIRECTION ( 'NONE',  ( -1.224646799147353700E-16, -0.0000000000000000000, -1.000000000000000000 ) ) ;
#269 = ADVANCED_FACE ( 'NONE', ( #219 ), #247, .T. ) ;
#270 = CARTESIAN_POINT ( 'NONE',  ( 0.03121875000000002426, 0.0000000000000000000, 0.1880000000000000282 ) ) ;
#271 = PRESENTATION_LAYER_ASSIGNMENT (  '', '', ( #32 ) ) ;
#272 = CIRCLE ( 'NONE', #256, 0.03121874999999999997 ) ;
#273 = DIRECTION ( 'NONE',  ( -1.224646799147353700E-16, -0.0000000000000000000, -1.000000000000000000 ) ) ;
#274 = ORIENTED_EDGE ( 'NONE', *, *, #18, .T. ) ;
#275 = AXIS2_PLACEMENT_3D ( 'NONE', #42, #133, #293 ) ;
#276 = VERTEX_POINT ( 'NONE', #270 ) ;
#277 = ORIENTED_EDGE ( 'NONE', *, *, #18, .F. ) ;
#278 = AXIS2_PLACEMENT_3D ( 'NONE', #168, #273, #19 ) ;
#279 = AXIS2_PLACEMENT_3D ( 'NONE', #318, #158, #87 ) ;
#280 = CARTESIAN_POINT ( 'NONE',  ( 3.823194226088145228E-18, 0.0000000000000000000, 0.03121874999999999997 ) ) ;
#281 =( NAMED_UNIT ( * ) SI_UNIT ( $, .STERADIAN. ) SOLID_ANGLE_UNIT ( ) );
#282 = ORIENTED_EDGE ( 'NONE', *, *, #161, .F. ) ;
#283 = DIMENSIONAL_EXPONENTS ( 1.000000000000000000, 0.0000000000000000000, 0.0000000000000000000, 0.0000000000000000000, 0.0000000000000000000, 0.0000000000000000000, 0.0000000000000000000 ) ;
#284 = LINE ( 'NONE', #51, #206 ) ;
#285 = APPLICATION_PROTOCOL_DEFINITION ( 'draft international standard', 'automotive_design', 1998, #97 ) ;
#286 = VERTEX_POINT ( 'NONE', #296 ) ;
#287 = LINE ( 'NONE', #186, #199 ) ;
#288 = DIRECTION ( 'NONE',  ( -1.224646799147353700E-16, -0.0000000000000000000, -1.000000000000000000 ) ) ;
#289 = FACE_OUTER_BOUND ( 'NONE', #151, .T. ) ;
#290 = DIRECTION ( 'NONE',  ( 1.000000000000000000, 0.0000000000000000000, 0.0000000000000000000 ) ) ;
#291 = PRESENTATION_STYLE_ASSIGNMENT (( #34 ) ) ;
#292 =( LENGTH_UNIT ( ) NAMED_UNIT ( * ) SI_UNIT ( $, .METRE. ) );
#293 = DIRECTION ( 'NONE',  ( -1.000000000000000000, 0.0000000000000000000, 1.367291288120251888E-16 ) ) ;
#294 = EDGE_CURVE ( 'NONE', #148, #123, #112, .T. ) ;
#295 = CARTESIAN_POINT ( 'NONE',  ( 2.302335982397025094E-17, 0.0000000000000000000, 0.1880000000000000282 ) ) ;
#296 = CARTESIAN_POINT ( 'NONE',  ( 0.04750000000000064587, 6.735557395310483192E-18, 1.500000000000000222 ) ) ;
#297 = CONICAL_SURFACE ( 'NONE', #252, 0.04750000000000064587, 0.7853981633974466137 ) ;
#298 = ADVANCED_FACE ( 'NONE', ( #220 ), #15, .T. ) ;
#299 = ORIENTED_EDGE ( 'NONE', *, *, #230, .T. ) ;
#300 = AXIS2_PLACEMENT_3D ( 'NONE', #12, #39, #316 ) ;
#301 = AXIS2_PLACEMENT_3D ( 'NONE', #88, #17, #320 ) ;
#302 = DIRECTION ( 'NONE',  ( -0.0000000000000000000, -0.0000000000000000000, -1.000000000000000000 ) ) ;
#303 = EDGE_CURVE ( 'NONE', #50, #276, #67, .T. ) ;
#304 = ORIENTED_EDGE ( 'NONE', *, *, #161, .T. ) ;
#305 = ADVANCED_FACE ( 'NONE', ( #289 ), #265, .T. ) ;
#306 = VERTEX_POINT ( 'NONE', #156 ) ;
#307 = PRODUCT ( 'Micro_BEM-062-03X', 'Micro_BEM-062-03X', '', ( #109 ) ) ;
#308 = VECTOR ( 'NONE', #104, 39.37007874015748143 ) ;
#309 =( CONVERSION_BASED_UNIT ( 'INCH', #180 ) LENGTH_UNIT ( ) NAMED_UNIT ( #257 ) );
#310 = VERTEX_POINT ( 'NONE', #217 ) ;
#311 = CARTESIAN_POINT ( 'NONE',  ( -0.06250000000000002776, 0.0000000000000000000, 1.500000000000000222 ) ) ;
#312 = FACE_OUTER_BOUND ( 'NONE', #201, .T. ) ;
#313 = ORIENTED_EDGE ( 'NONE', *, *, #43, .T. ) ;
#314 = DIRECTION ( 'NONE',  ( -0.0000000000000000000, -0.0000000000000000000, -1.000000000000000000 ) ) ;
#315 =( NAMED_UNIT ( * ) PLANE_ANGLE_UNIT ( ) SI_UNIT ( $, .RADIAN. ) );
#316 = DIRECTION ( 'NONE',  ( 1.000000000000000000, 0.0000000000000000000, 0.0000000000000000000 ) ) ;
#317 = AXIS2_PLACEMENT_3D ( 'NONE', #125, #135, #187 ) ;
#318 = CARTESIAN_POINT ( 'NONE',  ( 2.302335982397025094E-17, 0.0000000000000000000, 0.1880000000000000282 ) ) ;
#319 = CARTESIAN_POINT ( 'NONE',  ( 4.474917996329785777E-17, 0.0000000000000000000, 0.3654047844199156403 ) ) ;
#320 = DIRECTION ( 'NONE',  ( -1.000000000000000000, 0.0000000000000000000, 1.367291288120251888E-16 ) ) ;
#321 = FACE_OUTER_BOUND ( 'NONE', #202, .T. ) ;
#322 = VECTOR ( 'NONE', #215, 39.37007874015748854 ) ;
#323 = ORIENTED_EDGE ( 'NONE', *, *, #72, .T. ) ;
#324 = DIRECTION ( 'NONE',  ( 0.0000000000000000000, 0.0000000000000000000, 1.000000000000000000 ) ) ;
#325 = COLOUR_RGB ( '',0.7921568627450980005, 0.8196078431372548767, 0.9333333333333333481 ) ;
ENDSEC;
END-ISO-10303-21;
