ISO-10303-21;
HEADER;
FILE_DESCRIPTION (( 'STEP AP214' ),
    '1' );
FILE_NAME ('59840.STEP',
    '2023-06-22T23:06:33',
    ( '' ),
    ( '' ),
    'SwSTEP 2.0',
    'SolidWorks 2023',
    '' );
FILE_SCHEMA (( 'AUTOMOTIVE_DESIGN' ));
ENDSEC;

DATA;
#1 = SHAPE_DEFINITION_REPRESENTATION ( #233, #307 ) ;
#2 = LINE ( 'NONE', #267, #56 ) ;
#3 = CIRCLE ( 'NONE', #73, 0.1562500000000000000 ) ;
#4 = DIRECTION ( 'NONE',  ( 0.000000000000000000, 0.000000000000000000, -1.000000000000000000 ) ) ;
#5 =( NAMED_UNIT ( * ) PLANE_ANGLE_UNIT ( ) SI_UNIT ( $, .RADIAN. ) );
#6 = STYLED_ITEM ( 'NONE', ( #51 ), #44 ) ;
#7 = AXIS2_PLACEMENT_3D ( 'NONE', #205, #134, #294 ) ;
#8 = DIRECTION ( 'NONE',  ( 0.000000000000000000, 0.000000000000000000, -1.000000000000000000 ) ) ;
#9 = DIRECTION ( 'NONE',  ( -0.000000000000000000, -1.000000000000000000, -0.000000000000000000 ) ) ;
#10 = EDGE_CURVE ( 'NONE', #299, #166, #30, .T. ) ;
#11 = LENGTH_MEASURE_WITH_UNIT ( LENGTH_MEASURE( 0.02539999999999999897 ), #130 );
#12 = FACE_OUTER_BOUND ( 'NONE', #297, .T. ) ;
#13 = ORIENTED_EDGE ( 'NONE', *, *, #77, .T. ) ;
#14 = CARTESIAN_POINT ( 'NONE',  ( -0.1562500000000001110, 2.500000000000000000, 0.000000000000000000 ) ) ;
#15 = CARTESIAN_POINT ( 'NONE',  ( 0.000000000000000000, 0.8125000000000000000, -0.1562500000000000000 ) ) ;
#16 = VERTEX_POINT ( 'NONE', #171 ) ;
#17 = CARTESIAN_POINT ( 'NONE',  ( 0.000000000000000000, 0.000000000000000000, 0.000000000000000000 ) ) ;
#18 = DIRECTION ( 'NONE',  ( -1.000000000000000000, 0.000000000000000000, 0.000000000000000000 ) ) ;
#19 = PRESENTATION_STYLE_ASSIGNMENT (( #50 ) ) ;
#20 = CIRCLE ( 'NONE', #81, 0.1562500000000000000 ) ;
#21 = CARTESIAN_POINT ( 'NONE',  ( -0.1562500000000000000, 0.8125000000000001110, 0.000000000000000000 ) ) ;
#22 = CARTESIAN_POINT ( 'NONE',  ( 0.000000000000000000, 0.8125000000000000000, 0.000000000000000000 ) ) ;
#23 =( LENGTH_UNIT ( ) NAMED_UNIT ( * ) SI_UNIT ( $, .METRE. ) );
#24 =( NAMED_UNIT ( * ) PLANE_ANGLE_UNIT ( ) SI_UNIT ( $, .RADIAN. ) );
#25 =( NAMED_UNIT ( * ) PLANE_ANGLE_UNIT ( ) SI_UNIT ( $, .RADIAN. ) );
#26 = COLOUR_RGB ( '',1.000000000000000000, 0.000000000000000000, 0.000000000000000000 ) ;
#27 = DIRECTION ( 'NONE',  ( -0.000000000000000000, -1.000000000000000000, -0.000000000000000000 ) ) ;
#28 = LENGTH_MEASURE_WITH_UNIT ( LENGTH_MEASURE( 0.02539999999999999897 ), #220 );
#29 = CARTESIAN_POINT ( 'NONE',  ( 1.913510623667739463E-17, 0.000000000000000000, 0.1562500000000000000 ) ) ;
#30 = CIRCLE ( 'NONE', #295, 0.1562500000000000833 ) ;
#31 =( GEOMETRIC_REPRESENTATION_CONTEXT ( 3 ) GLOBAL_UNCERTAINTY_ASSIGNED_CONTEXT ( ( #212 ) ) GLOBAL_UNIT_ASSIGNED_CONTEXT ( ( #123, #25, #148 ) ) REPRESENTATION_CONTEXT ( 'NONE', 'WORKASPACE' ) );
#32 = UNCERTAINTY_MEASURE_WITH_UNIT (LENGTH_MEASURE( 1.000000000000000082E-05 ), #225, 'distance_accuracy_value', 'NONE');
#33 = CARTESIAN_POINT ( 'NONE',  ( -6.123233995736766036E-17, 2.500000000000000000, 0.000000000000000000 ) ) ;
#34 = ORIENTED_EDGE ( 'NONE', *, *, #247, .F. ) ;
#35 = CARTESIAN_POINT ( 'NONE',  ( 0.000000000000000000, 0.000000000000000000, 0.000000000000000000 ) ) ;
#36 = DIRECTION ( 'NONE',  ( -1.000000000000000000, -3.628583108584750472E-17, 0.000000000000000000 ) ) ;
#37 = VERTEX_POINT ( 'NONE', #21 ) ;
#38 = SURFACE_SIDE_STYLE ('',( #206 ) ) ;
#39 = CARTESIAN_POINT ( 'NONE',  ( 1.028641826242700895E-34, 0.8125000000000000000, 0.000000000000000000 ) ) ;
#40 = EDGE_LOOP ( 'NONE', ( #158, #208 ) ) ;
#41 = PRESENTATION_LAYER_ASSIGNMENT (  '', '', ( #6 ) ) ;
#42 = CARTESIAN_POINT ( 'NONE',  ( -6.123233995736766036E-17, 2.500000000000000000, 0.000000000000000000 ) ) ;
#43 = AXIS2_PLACEMENT_3D ( 'NONE', #17, #304, #110 ) ;
#44 = ADVANCED_FACE ( 'NONE', ( #193 ), #215, .T. ) ;
#45 =( NAMED_UNIT ( * ) SI_UNIT ( $, .STERADIAN. ) SOLID_ANGLE_UNIT ( ) );
#46 =( CONVERSION_BASED_UNIT ( 'INCH', #213 ) LENGTH_UNIT ( ) NAMED_UNIT ( #196 ) );
#47 =( CONVERSION_BASED_UNIT ( 'INCH', #169 ) LENGTH_UNIT ( ) NAMED_UNIT ( #281 ) );
#48 = EDGE_CURVE ( 'NONE', #166, #299, #214, .T. ) ;
#49 =( GEOMETRIC_REPRESENTATION_CONTEXT ( 3 ) GLOBAL_UNCERTAINTY_ASSIGNED_CONTEXT ( ( #235 ) ) GLOBAL_UNIT_ASSIGNED_CONTEXT ( ( #309, #238, #258 ) ) REPRESENTATION_CONTEXT ( 'NONE', 'WORKASPACE' ) );
#50 = SURFACE_STYLE_USAGE ( .BOTH. , #164 ) ;
#51 = PRESENTATION_STYLE_ASSIGNMENT (( #111 ) ) ;
#52 = FILL_AREA_STYLE_COLOUR ( '', #72 ) ;
#53 = ADVANCED_FACE ( 'NONE', ( #170 ), #143, .T. ) ;
#54 = STYLED_ITEM ( 'NONE', ( #142 ), #239 ) ;
#55 =( NAMED_UNIT ( * ) SI_UNIT ( $, .STERADIAN. ) SOLID_ANGLE_UNIT ( ) );
#56 = VECTOR ( 'NONE', #244, 39.37007874015748143 ) ;
#57 = FILL_AREA_STYLE ('',( #298 ) ) ;
#58 = UNCERTAINTY_MEASURE_WITH_UNIT (LENGTH_MEASURE( 1.000000000000000082E-05 ), #76, 'distance_accuracy_value', 'NONE');
#59 = CARTESIAN_POINT ( 'NONE',  ( 0.000000000000000000, 0.8125000000000000000, 0.000000000000000000 ) ) ;
#60 = VECTOR ( 'NONE', #154, 39.37007874015748143 ) ;
#61 = FACE_OUTER_BOUND ( 'NONE', #79, .T. ) ;
#62 = ORIENTED_EDGE ( 'NONE', *, *, #168, .F. ) ;
#63 = CYLINDRICAL_SURFACE ( 'NONE', #43, 0.1562500000000000000 ) ;
#64 = CARTESIAN_POINT ( 'NONE',  ( 0.000000000000000000, 0.000000000000000000, -0.1562500000000000000 ) ) ;
#65 = ORIENTED_EDGE ( 'NONE', *, *, #172, .F. ) ;
#66 = DIRECTION ( 'NONE',  ( -0.000000000000000000, -1.000000000000000000, -0.000000000000000000 ) ) ;
#67 = DIRECTION ( 'NONE',  ( -1.000000000000000000, 0.000000000000000000, 0.000000000000000000 ) ) ;
#68 = EDGE_CURVE ( 'NONE', #163, #166, #2, .T. ) ;
#69 = STYLED_ITEM ( 'NONE', ( #285 ), #53 ) ;
#70 = COLOUR_RGB ( '',0.7921568627450980005, 0.8196078431372548767, 0.9333333333333333481 ) ;
#71 = VERTEX_POINT ( 'NONE', #100 ) ;
#72 = COLOUR_RGB ( '',1.000000000000000000, 0.000000000000000000, 0.000000000000000000 ) ;
#73 = AXIS2_PLACEMENT_3D ( 'NONE', #254, #278, #189 ) ;
#74 = DIRECTION ( 'NONE',  ( 0.000000000000000000, 0.000000000000000000, -1.000000000000000000 ) ) ;
#75 = COLOUR_RGB ( '',0.7921568627450980005, 0.8196078431372548767, 0.9333333333333333481 ) ;
#76 =( CONVERSION_BASED_UNIT ( 'INCH', #11 ) LENGTH_UNIT ( ) NAMED_UNIT ( #89 ) );
#77 = EDGE_CURVE ( 'NONE', #71, #255, #120, .T. ) ;
#78 =( NAMED_UNIT ( * ) PLANE_ANGLE_UNIT ( ) SI_UNIT ( $, .RADIAN. ) );
#79 = EDGE_LOOP ( 'NONE', ( #65, #109 ) ) ;
#80 = SURFACE_STYLE_USAGE ( .BOTH. , #38 ) ;
#81 = AXIS2_PLACEMENT_3D ( 'NONE', #35, #126, #129 ) ;
#82 = ORIENTED_EDGE ( 'NONE', *, *, #141, .T. ) ;
#83 = CARTESIAN_POINT ( 'NONE',  ( 0.1562500000000000000, 2.500000000000000000, 0.000000000000000000 ) ) ;
#84 = DIMENSIONAL_EXPONENTS ( 1.000000000000000000, 0.000000000000000000, 0.000000000000000000, 0.000000000000000000, 0.000000000000000000, 0.000000000000000000, 0.000000000000000000 ) ;
#85 = EDGE_LOOP ( 'NONE', ( #237, #82, #135, #190 ) ) ;
#86 = LENGTH_MEASURE_WITH_UNIT ( LENGTH_MEASURE( 0.02539999999999999897 ), #91 );
#87 =( GEOMETRIC_REPRESENTATION_CONTEXT ( 3 ) GLOBAL_UNCERTAINTY_ASSIGNED_CONTEXT ( ( #133 ) ) GLOBAL_UNIT_ASSIGNED_CONTEXT ( ( #46, #24, #282 ) ) REPRESENTATION_CONTEXT ( 'NONE', 'WORKASPACE' ) );
#88 =( LENGTH_UNIT ( ) NAMED_UNIT ( * ) SI_UNIT ( $, .METRE. ) );
#89 = DIMENSIONAL_EXPONENTS ( 1.000000000000000000, 0.000000000000000000, 0.000000000000000000, 0.000000000000000000, 0.000000000000000000, 0.000000000000000000, 0.000000000000000000 ) ;
#90 = FILL_AREA_STYLE ('',( #52 ) ) ;
#91 =( LENGTH_UNIT ( ) NAMED_UNIT ( * ) SI_UNIT ( $, .METRE. ) );
#92 = COLOUR_RGB ( '',1.000000000000000000, 0.000000000000000000, 0.000000000000000000 ) ;
#93 = AXIS2_PLACEMENT_3D ( 'NONE', #33, #228, #296 ) ;
#94 = SURFACE_STYLE_USAGE ( .BOTH. , #283 ) ;
#95 = ADVANCED_FACE ( 'NONE', ( #243 ), #96, .T. ) ;
#96 = CYLINDRICAL_SURFACE ( 'NONE', #257, 0.1562500000000000000 ) ;
#97 = APPLICATION_PROTOCOL_DEFINITION ( 'draft international standard', 'automotive_design', 1998, #230 ) ;
#98 = AXIS2_PLACEMENT_3D ( 'NONE', #271, #27, #273 ) ;
#99 = APPLICATION_PROTOCOL_DEFINITION ( 'draft international standard', 'automotive_design', 1998, #106 ) ;
#100 = CARTESIAN_POINT ( 'NONE',  ( 1.913510623667739463E-17, 0.8125000000000000000, 0.1562500000000000000 ) ) ;
#101 = STYLED_ITEM ( 'NONE', ( #201 ), #138 ) ;
#102 = PRODUCT_DEFINITION_CONTEXT ( 'detailed design', #106, 'design' ) ;
#103 = FILL_AREA_STYLE_COLOUR ( '', #75 ) ;
#104 = FILL_AREA_STYLE_COLOUR ( '', #234 ) ;
#105 =( NAMED_UNIT ( * ) SI_UNIT ( $, .STERADIAN. ) SOLID_ANGLE_UNIT ( ) );
#106 = APPLICATION_CONTEXT ( 'automotive_design' ) ;
#107 = PRODUCT_DEFINITION_FORMATION_WITH_SPECIFIED_SOURCE ( 'ANY', '', #113, .NOT_KNOWN. ) ;
#108 = FACE_OUTER_BOUND ( 'NONE', #40, .T. ) ;
#109 = ORIENTED_EDGE ( 'NONE', *, *, #141, .F. ) ;
#110 = DIRECTION ( 'NONE',  ( 0.000000000000000000, 0.000000000000000000, -1.000000000000000000 ) ) ;
#111 = SURFACE_STYLE_USAGE ( .BOTH. , #195 ) ;
#112 = AXIS2_PLACEMENT_3D ( 'NONE', #42, #236, #183 ) ;
#113 = PRODUCT ( '59840', '59840', '', ( #289 ) ) ;
#114 = DIRECTION ( 'NONE',  ( 0.000000000000000000, -0.000000000000000000, 1.000000000000000000 ) ) ;
#115 =( LENGTH_UNIT ( ) NAMED_UNIT ( * ) SI_UNIT ( $, .METRE. ) );
#116 = DIRECTION ( 'NONE',  ( -3.628583108584750472E-17, 1.000000000000000000, -0.000000000000000000 ) ) ;
#117 = ADVANCED_FACE ( 'NONE', ( #61 ), #160, .F. ) ;
#118 = DIMENSIONAL_EXPONENTS ( 1.000000000000000000, 0.000000000000000000, 0.000000000000000000, 0.000000000000000000, 0.000000000000000000, 0.000000000000000000, 0.000000000000000000 ) ;
#119 = PRESENTATION_LAYER_ASSIGNMENT (  '', '', ( #101 ) ) ;
#120 = LINE ( 'NONE', #29, #222 ) ;
#121 = ADVANCED_FACE ( 'NONE', ( #127 ), #292, .T. ) ;
#122 =( GEOMETRIC_REPRESENTATION_CONTEXT ( 3 ) GLOBAL_UNCERTAINTY_ASSIGNED_CONTEXT ( ( #32 ) ) GLOBAL_UNIT_ASSIGNED_CONTEXT ( ( #225, #5, #151 ) ) REPRESENTATION_CONTEXT ( 'NONE', 'WORKASPACE' ) );
#123 =( CONVERSION_BASED_UNIT ( 'INCH', #86 ) LENGTH_UNIT ( ) NAMED_UNIT ( #118 ) );
#124 = PRODUCT_RELATED_PRODUCT_CATEGORY ( 'part', '', ( #113 ) ) ;
#125 = DIRECTION ( 'NONE',  ( 3.628583108584750472E-17, -1.000000000000000000, 0.000000000000000000 ) ) ;
#126 = DIRECTION ( 'NONE',  ( -0.000000000000000000, -1.000000000000000000, -0.000000000000000000 ) ) ;
#127 = FACE_OUTER_BOUND ( 'NONE', #85, .T. ) ;
#128 = ORIENTED_EDGE ( 'NONE', *, *, #172, .T. ) ;
#129 = DIRECTION ( 'NONE',  ( 0.000000000000000000, 0.000000000000000000, -1.000000000000000000 ) ) ;
#130 =( LENGTH_UNIT ( ) NAMED_UNIT ( * ) SI_UNIT ( $, .METRE. ) );
#131 = ORIENTED_EDGE ( 'NONE', *, *, #77, .F. ) ;
#132 = SURFACE_STYLE_FILL_AREA ( #253 ) ;
#133 = UNCERTAINTY_MEASURE_WITH_UNIT (LENGTH_MEASURE( 1.000000000000000082E-05 ), #46, 'distance_accuracy_value', 'NONE');
#134 = DIRECTION ( 'NONE',  ( -3.628583108584750472E-17, 1.000000000000000000, -0.000000000000000000 ) ) ;
#135 = ORIENTED_EDGE ( 'NONE', *, *, #168, .T. ) ;
#136 = PRESENTATION_LAYER_ASSIGNMENT (  '', '', ( #268 ) ) ;
#137 = STYLED_ITEM ( 'NONE', ( #19 ), #301 ) ;
#138 = MANIFOLD_SOLID_BREP ( 'Revolve - Cutting Edge', #186 ) ;
#139 = LINE ( 'NONE', #64, #60 ) ;
#140 =( LENGTH_UNIT ( ) NAMED_UNIT ( * ) SI_UNIT ( $, .METRE. ) );
#141 = EDGE_CURVE ( 'NONE', #163, #37, #3, .T. ) ;
#142 = PRESENTATION_STYLE_ASSIGNMENT (( #302 ) ) ;
#143 = PLANE ( 'NONE',  #284 ) ;
#144 = DIMENSIONAL_EXPONENTS ( 1.000000000000000000, 0.000000000000000000, 0.000000000000000000, 0.000000000000000000, 0.000000000000000000, 0.000000000000000000, 0.000000000000000000 ) ;
#145 =( GEOMETRIC_REPRESENTATION_CONTEXT ( 3 ) GLOBAL_UNCERTAINTY_ASSIGNED_CONTEXT ( ( #58 ) ) GLOBAL_UNIT_ASSIGNED_CONTEXT ( ( #76, #78, #105 ) ) REPRESENTATION_CONTEXT ( 'NONE', 'WORKASPACE' ) );
#146 = CARTESIAN_POINT ( 'NONE',  ( -6.123233995736766036E-17, 2.500000000000000000, 0.000000000000000000 ) ) ;
#147 =( CONVERSION_BASED_UNIT ( 'INCH', #194 ) LENGTH_UNIT ( ) NAMED_UNIT ( #260 ) );
#148 =( NAMED_UNIT ( * ) SI_UNIT ( $, .STERADIAN. ) SOLID_ANGLE_UNIT ( ) );
#149 = AXIS2_PLACEMENT_3D ( 'NONE', #39, #274, #36 ) ;
#150 = CARTESIAN_POINT ( 'NONE',  ( 0.000000000000000000, 0.000000000000000000, 0.000000000000000000 ) ) ;
#151 =( NAMED_UNIT ( * ) SI_UNIT ( $, .STERADIAN. ) SOLID_ANGLE_UNIT ( ) );
#152 = CIRCLE ( 'NONE', #7, 0.1562500000000000000 ) ;
#153 = SURFACE_STYLE_USAGE ( .BOTH. , #264 ) ;
#154 = DIRECTION ( 'NONE',  ( -0.000000000000000000, -1.000000000000000000, -0.000000000000000000 ) ) ;
#155 = EDGE_LOOP ( 'NONE', ( #293, #187 ) ) ;
#156 = SURFACE_STYLE_FILL_AREA ( #203 ) ;
#157 = AXIS2_PLACEMENT_3D ( 'NONE', #217, #116, #67 ) ;
#158 = ORIENTED_EDGE ( 'NONE', *, *, #10, .T. ) ;
#159 = EDGE_CURVE ( 'NONE', #185, #16, #139, .T. ) ;
#160 = PLANE ( 'NONE',  #149 ) ;
#161 = DIRECTION ( 'NONE',  ( 0.000000000000000000, 0.000000000000000000, -1.000000000000000000 ) ) ;
#162 = DIRECTION ( 'NONE',  ( -3.628583108584750472E-17, 1.000000000000000000, -0.000000000000000000 ) ) ;
#163 = VERTEX_POINT ( 'NONE', #252 ) ;
#164 = SURFACE_SIDE_STYLE ('',( #132 ) ) ;
#165 = CYLINDRICAL_SURFACE ( 'NONE', #112, 0.1562500000000000278 ) ;
#166 = VERTEX_POINT ( 'NONE', #256 ) ;
#167 = CIRCLE ( 'NONE', #98, 0.1562500000000000000 ) ;
#168 = EDGE_CURVE ( 'NONE', #37, #299, #276, .T. ) ;
#169 = LENGTH_MEASURE_WITH_UNIT ( LENGTH_MEASURE( 0.02539999999999999897 ), #115 );
#170 = FACE_OUTER_BOUND ( 'NONE', #155, .T. ) ;
#171 = CARTESIAN_POINT ( 'NONE',  ( 0.000000000000000000, 0.000000000000000000, -0.1562500000000000000 ) ) ;
#172 = EDGE_CURVE ( 'NONE', #37, #163, #152, .T. ) ;
#173 = PRESENTATION_LAYER_ASSIGNMENT (  '', '', ( #69 ) ) ;
#174 = AXIS2_PLACEMENT_3D ( 'NONE', #83, #125, #249 ) ;
#175 = ORIENTED_EDGE ( 'NONE', *, *, #10, .F. ) ;
#176 = SURFACE_STYLE_FILL_AREA ( #270 ) ;
#177 = AXIS2_PLACEMENT_3D ( 'NONE', #286, #198, #245 ) ;
#178 = FILL_AREA_STYLE_COLOUR ( '', #92 ) ;
#179 = DIRECTION ( 'NONE',  ( -0.000000000000000000, -1.000000000000000000, -0.000000000000000000 ) ) ;
#180 = ADVANCED_FACE ( 'NONE', ( #108 ), #210, .F. ) ;
#181 = DIRECTION ( 'NONE',  ( 0.000000000000000000, -1.000000000000000000, -0.000000000000000000 ) ) ;
#182 = PRESENTATION_LAYER_ASSIGNMENT (  '', '', ( #137 ) ) ;
#183 = DIRECTION ( 'NONE',  ( -1.000000000000000000, 0.000000000000000000, 0.000000000000000000 ) ) ;
#184 = EDGE_CURVE ( 'NONE', #185, #71, #192, .T. ) ;
#185 = VERTEX_POINT ( 'NONE', #15 ) ;
#186 = CLOSED_SHELL ( 'NONE', ( #95, #44, #301, #53 ) ) ;
#187 = ORIENTED_EDGE ( 'NONE', *, *, #259, .T. ) ;
#188 = AXIS2_PLACEMENT_3D ( 'NONE', #59, #66, #8 ) ;
#189 = DIRECTION ( 'NONE',  ( -1.000000000000000000, 0.000000000000000000, 0.000000000000000000 ) ) ;
#190 = ORIENTED_EDGE ( 'NONE', *, *, #48, .F. ) ;
#191 = ORIENTED_EDGE ( 'NONE', *, *, #247, .T. ) ;
#192 = CIRCLE ( 'NONE', #188, 0.1562500000000000000 ) ;
#193 = FACE_OUTER_BOUND ( 'NONE', #251, .T. ) ;
#194 = LENGTH_MEASURE_WITH_UNIT ( LENGTH_MEASURE( 0.02539999999999999897 ), #23 );
#195 = SURFACE_SIDE_STYLE ('',( #218 ) ) ;
#196 = DIMENSIONAL_EXPONENTS ( 1.000000000000000000, 0.000000000000000000, 0.000000000000000000, 0.000000000000000000, 0.000000000000000000, 0.000000000000000000, 0.000000000000000000 ) ;
#197 = ADVANCED_FACE ( 'NONE', ( #291 ), #165, .T. ) ;
#198 = DIRECTION ( 'NONE',  ( 0.000000000000000000, 0.000000000000000000, 1.000000000000000000 ) ) ;
#199 = CLOSED_SHELL ( 'NONE', ( #197, #117, #121, #180 ) ) ;
#200 = PRESENTATION_STYLE_ASSIGNMENT (( #153 ) ) ;
#201 = PRESENTATION_STYLE_ASSIGNMENT (( #80 ) ) ;
#202 = MECHANICAL_DESIGN_GEOMETRIC_PRESENTATION_REPRESENTATION (  '', ( #101 ), #145 ) ;
#203 = FILL_AREA_STYLE ('',( #103 ) ) ;
#204 = ORIENTED_EDGE ( 'NONE', *, *, #68, .T. ) ;
#205 = CARTESIAN_POINT ( 'NONE',  ( 0.000000000000000000, 0.8125000000000001110, 0.000000000000000000 ) ) ;
#206 = SURFACE_STYLE_FILL_AREA ( #57 ) ;
#207 = MECHANICAL_DESIGN_GEOMETRIC_PRESENTATION_REPRESENTATION (  '', ( #6 ), #87 ) ;
#208 = ORIENTED_EDGE ( 'NONE', *, *, #48, .T. ) ;
#209 = PRESENTATION_LAYER_ASSIGNMENT (  '', '', ( #54 ) ) ;
#210 = PLANE ( 'NONE',  #174 ) ;
#211 = ORIENTED_EDGE ( 'NONE', *, *, #159, .F. ) ;
#212 = UNCERTAINTY_MEASURE_WITH_UNIT (LENGTH_MEASURE( 1.000000000000000082E-05 ), #123, 'distance_accuracy_value', 'NONE');
#213 = LENGTH_MEASURE_WITH_UNIT ( LENGTH_MEASURE( 0.02539999999999999897 ), #140 );
#214 = CIRCLE ( 'NONE', #157, 0.1562500000000000833 ) ;
#215 = PLANE ( 'NONE',  #265 ) ;
#216 =( NAMED_UNIT ( * ) PLANE_ANGLE_UNIT ( ) SI_UNIT ( $, .RADIAN. ) );
#217 = CARTESIAN_POINT ( 'NONE',  ( -6.123233995736766036E-17, 2.500000000000000000, 0.000000000000000000 ) ) ;
#218 = SURFACE_STYLE_FILL_AREA ( #240 ) ;
#219 = LENGTH_MEASURE_WITH_UNIT ( LENGTH_MEASURE( 0.02539999999999999897 ), #88 );
#220 =( LENGTH_UNIT ( ) NAMED_UNIT ( * ) SI_UNIT ( $, .METRE. ) );
#221 =( NAMED_UNIT ( * ) PLANE_ANGLE_UNIT ( ) SI_UNIT ( $, .RADIAN. ) );
#222 = VECTOR ( 'NONE', #224, 39.37007874015748143 ) ;
#223 = PRODUCT_DEFINITION ( 'UNKNOWN', '', #107, #102 ) ;
#224 = DIRECTION ( 'NONE',  ( -0.000000000000000000, -1.000000000000000000, -0.000000000000000000 ) ) ;
#225 =( CONVERSION_BASED_UNIT ( 'INCH', #28 ) LENGTH_UNIT ( ) NAMED_UNIT ( #84 ) );
#226 = UNCERTAINTY_MEASURE_WITH_UNIT (LENGTH_MEASURE( 1.000000000000000082E-05 ), #147, 'distance_accuracy_value', 'NONE');
#227 = CARTESIAN_POINT ( 'NONE',  ( 0.000000000000000000, 0.000000000000000000, 0.000000000000000000 ) ) ;
#228 = DIRECTION ( 'NONE',  ( -3.628583108584750472E-17, 1.000000000000000000, -0.000000000000000000 ) ) ;
#229 = EDGE_LOOP ( 'NONE', ( #128, #204, #175, #62 ) ) ;
#230 = APPLICATION_CONTEXT ( 'automotive_design' ) ;
#231 = CARTESIAN_POINT ( 'NONE',  ( -0.1562500000000001388, 2.500000000000000000, 0.000000000000000000 ) ) ;
#232 = ORIENTED_EDGE ( 'NONE', *, *, #184, .F. ) ;
#233 = PRODUCT_DEFINITION_SHAPE ( 'NONE', 'NONE',  #223 ) ;
#234 = COLOUR_RGB ( '',1.000000000000000000, 0.000000000000000000, 0.000000000000000000 ) ;
#235 = UNCERTAINTY_MEASURE_WITH_UNIT (LENGTH_MEASURE( 1.000000000000000082E-05 ), #309, 'distance_accuracy_value', 'NONE');
#236 = DIRECTION ( 'NONE',  ( -3.628583108584750472E-17, 1.000000000000000000, -0.000000000000000000 ) ) ;
#237 = ORIENTED_EDGE ( 'NONE', *, *, #68, .F. ) ;
#238 =( NAMED_UNIT ( * ) PLANE_ANGLE_UNIT ( ) SI_UNIT ( $, .RADIAN. ) );
#239 = MANIFOLD_SOLID_BREP ( 'Revolve - Tool Body (Straight Shanked)', #199 ) ;
#240 = FILL_AREA_STYLE ('',( #263 ) ) ;
#241 = DIRECTION ( 'NONE',  ( -3.628583108584750472E-17, 1.000000000000000000, -0.000000000000000000 ) ) ;
#242 = MECHANICAL_DESIGN_GEOMETRIC_PRESENTATION_REPRESENTATION (  '', ( #137 ), #280 ) ;
#243 = FACE_OUTER_BOUND ( 'NONE', #277, .T. ) ;
#244 = DIRECTION ( 'NONE',  ( -3.628583108584750472E-17, 1.000000000000000000, -0.000000000000000000 ) ) ;
#245 = DIRECTION ( 'NONE',  ( 1.000000000000000000, 0.000000000000000000, 0.000000000000000000 ) ) ;
#246 = ORIENTED_EDGE ( 'NONE', *, *, #259, .F. ) ;
#247 = EDGE_CURVE ( 'NONE', #71, #185, #167, .T. ) ;
#248 = MECHANICAL_DESIGN_GEOMETRIC_PRESENTATION_REPRESENTATION (  '', ( #69 ), #49 ) ;
#249 = DIRECTION ( 'NONE',  ( 1.000000000000000000, 3.628583108584750472E-17, 0.000000000000000000 ) ) ;
#250 = MECHANICAL_DESIGN_GEOMETRIC_PRESENTATION_REPRESENTATION (  '', ( #54 ), #31 ) ;
#251 = EDGE_LOOP ( 'NONE', ( #232, #34 ) ) ;
#252 = CARTESIAN_POINT ( 'NONE',  ( 0.1562500000000000000, 0.8125000000000001110, 1.913510623667739771E-17 ) ) ;
#253 = FILL_AREA_STYLE ('',( #104 ) ) ;
#254 = CARTESIAN_POINT ( 'NONE',  ( 0.000000000000000000, 0.8125000000000001110, 0.000000000000000000 ) ) ;
#255 = VERTEX_POINT ( 'NONE', #275 ) ;
#256 = CARTESIAN_POINT ( 'NONE',  ( 0.1562500000000000000, 2.500000000000000000, 1.913510623667739771E-17 ) ) ;
#257 = AXIS2_PLACEMENT_3D ( 'NONE', #287, #179, #4 ) ;
#258 =( NAMED_UNIT ( * ) SI_UNIT ( $, .STERADIAN. ) SOLID_ANGLE_UNIT ( ) );
#259 = EDGE_CURVE ( 'NONE', #255, #16, #20, .T. ) ;
#260 = DIMENSIONAL_EXPONENTS ( 1.000000000000000000, 0.000000000000000000, 0.000000000000000000, 0.000000000000000000, 0.000000000000000000, 0.000000000000000000, 0.000000000000000000 ) ;
#261 = SURFACE_SIDE_STYLE ('',( #156 ) ) ;
#262 = ORIENTED_EDGE ( 'NONE', *, *, #184, .T. ) ;
#263 = FILL_AREA_STYLE_COLOUR ( '', #26 ) ;
#264 = SURFACE_SIDE_STYLE ('',( #176 ) ) ;
#265 = AXIS2_PLACEMENT_3D ( 'NONE', #22, #305, #114 ) ;
#266 =( GEOMETRIC_REPRESENTATION_CONTEXT ( 3 ) GLOBAL_UNCERTAINTY_ASSIGNED_CONTEXT ( ( #300 ) ) GLOBAL_UNIT_ASSIGNED_CONTEXT ( ( #47, #221, #55 ) ) REPRESENTATION_CONTEXT ( 'NONE', 'WORKASPACE' ) );
#267 = CARTESIAN_POINT ( 'NONE',  ( 0.1562499999999999722, 2.500000000000000000, 1.913510623667739771E-17 ) ) ;
#268 = STYLED_ITEM ( 'NONE', ( #200 ), #95 ) ;
#269 = CIRCLE ( 'NONE', #308, 0.1562500000000000000 ) ;
#270 = FILL_AREA_STYLE ('',( #178 ) ) ;
#271 = CARTESIAN_POINT ( 'NONE',  ( 0.000000000000000000, 0.8125000000000000000, 0.000000000000000000 ) ) ;
#272 = ORIENTED_EDGE ( 'NONE', *, *, #290, .F. ) ;
#273 = DIRECTION ( 'NONE',  ( 0.000000000000000000, 0.000000000000000000, -1.000000000000000000 ) ) ;
#274 = DIRECTION ( 'NONE',  ( -3.628583108584750472E-17, 1.000000000000000000, 0.000000000000000000 ) ) ;
#275 = CARTESIAN_POINT ( 'NONE',  ( 1.913510623667739463E-17, 0.000000000000000000, 0.1562500000000000000 ) ) ;
#276 = LINE ( 'NONE', #14, #288 ) ;
#277 = EDGE_LOOP ( 'NONE', ( #262, #13, #272, #211 ) ) ;
#278 = DIRECTION ( 'NONE',  ( -3.628583108584750472E-17, 1.000000000000000000, -0.000000000000000000 ) ) ;
#279 = ORIENTED_EDGE ( 'NONE', *, *, #159, .T. ) ;
#280 =( GEOMETRIC_REPRESENTATION_CONTEXT ( 3 ) GLOBAL_UNCERTAINTY_ASSIGNED_CONTEXT ( ( #226 ) ) GLOBAL_UNIT_ASSIGNED_CONTEXT ( ( #147, #216, #45 ) ) REPRESENTATION_CONTEXT ( 'NONE', 'WORKASPACE' ) );
#281 = DIMENSIONAL_EXPONENTS ( 1.000000000000000000, 0.000000000000000000, 0.000000000000000000, 0.000000000000000000, 0.000000000000000000, 0.000000000000000000, 0.000000000000000000 ) ;
#282 =( NAMED_UNIT ( * ) SI_UNIT ( $, .STERADIAN. ) SOLID_ANGLE_UNIT ( ) );
#283 = SURFACE_SIDE_STYLE ('',( #303 ) ) ;
#284 = AXIS2_PLACEMENT_3D ( 'NONE', #150, #181, #74 ) ;
#285 = PRESENTATION_STYLE_ASSIGNMENT (( #94 ) ) ;
#286 = CARTESIAN_POINT ( 'NONE',  ( 0.000000000000000000, 0.000000000000000000, 0.000000000000000000 ) ) ;
#287 = CARTESIAN_POINT ( 'NONE',  ( 0.000000000000000000, 0.000000000000000000, 0.000000000000000000 ) ) ;
#288 = VECTOR ( 'NONE', #162, 39.37007874015748143 ) ;
#289 = PRODUCT_CONTEXT ( 'NONE', #230, 'mechanical' ) ;
#290 = EDGE_CURVE ( 'NONE', #16, #255, #269, .T. ) ;
#291 = FACE_OUTER_BOUND ( 'NONE', #229, .T. ) ;
#292 = CYLINDRICAL_SURFACE ( 'NONE', #93, 0.1562500000000000278 ) ;
#293 = ORIENTED_EDGE ( 'NONE', *, *, #290, .T. ) ;
#294 = DIRECTION ( 'NONE',  ( -1.000000000000000000, 0.000000000000000000, 0.000000000000000000 ) ) ;
#295 = AXIS2_PLACEMENT_3D ( 'NONE', #146, #241, #18 ) ;
#296 = DIRECTION ( 'NONE',  ( -1.000000000000000000, 0.000000000000000000, 0.000000000000000000 ) ) ;
#297 = EDGE_LOOP ( 'NONE', ( #131, #191, #279, #246 ) ) ;
#298 = FILL_AREA_STYLE_COLOUR ( '', #70 ) ;
#299 = VERTEX_POINT ( 'NONE', #231 ) ;
#300 = UNCERTAINTY_MEASURE_WITH_UNIT (LENGTH_MEASURE( 1.000000000000000082E-05 ), #47, 'distance_accuracy_value', 'NONE');
#301 = ADVANCED_FACE ( 'NONE', ( #12 ), #63, .T. ) ;
#302 = SURFACE_STYLE_USAGE ( .BOTH. , #261 ) ;
#303 = SURFACE_STYLE_FILL_AREA ( #90 ) ;
#304 = DIRECTION ( 'NONE',  ( -0.000000000000000000, -1.000000000000000000, -0.000000000000000000 ) ) ;
#305 = DIRECTION ( 'NONE',  ( 0.000000000000000000, 1.000000000000000000, 0.000000000000000000 ) ) ;
#306 = MECHANICAL_DESIGN_GEOMETRIC_PRESENTATION_REPRESENTATION (  '', ( #268 ), #122 ) ;
#307 = ADVANCED_BREP_SHAPE_REPRESENTATION ( '59840', ( #138, #239, #177 ), #266 ) ;
#308 = AXIS2_PLACEMENT_3D ( 'NONE', #227, #9, #161 ) ;
#309 =( CONVERSION_BASED_UNIT ( 'INCH', #219 ) LENGTH_UNIT ( ) NAMED_UNIT ( #144 ) );
ENDSEC;
END-ISO-10303-21;
