ISO-10303-21;
HEADER;
FILE_DESCRIPTION (( 'STEP AP214' ),
    '1' );
FILE_NAME ('Micro_SBMM-120-436.STEP',
    '2021-09-02T17:25:34',
    ( '' ),
    ( '' ),
    'SwSTEP 2.0',
    'SolidWorks 2020',
    '' );
FILE_SCHEMA (( 'AUTOMOTIVE_DESIGN' ));
ENDSEC;

DATA;
#1 = DIRECTION ( 'NONE',  ( -0.7071067811865540120, 0.0000000000000000000, -0.7071067811865410224 ) ) ;
#2 = DIRECTION ( 'NONE',  ( -0.0000000000000000000, -0.0000000000000000000, -1.000000000000000000 ) ) ;
#3 = ORIENTED_EDGE ( 'NONE', *, *, #341, .F. ) ;
#4 = DIRECTION ( 'NONE',  ( 1.000000000000000000, 0.0000000000000000000, 0.0000000000000000000 ) ) ;
#5 = ADVANCED_FACE ( 'NONE', ( #239 ), #30, .T. ) ;
#6 = LINE ( 'NONE', #28, #309 ) ;
#7 = AXIS2_PLACEMENT_3D ( 'NONE', #197, #61, #169 ) ;
#8 = CARTESIAN_POINT ( 'NONE',  ( 0.0000000000000000000, 0.0000000000000000000, 3.937007999999999619 ) ) ;
#9 = AXIS2_PLACEMENT_3D ( 'NONE', #238, #243, #254 ) ;
#10 = CARTESIAN_POINT ( 'NONE',  ( 0.0000000000000000000, 0.0000000000000000000, 0.4122875453334601259 ) ) ;
#11 = DIRECTION ( 'NONE',  ( 0.0000000000000000000, 0.0000000000000000000, 1.000000000000000000 ) ) ;
#12 = CARTESIAN_POINT ( 'NONE',  ( 0.0000000000000000000, 0.0000000000000000000, 0.4122875453334601259 ) ) ;
#13 = AXIS2_PLACEMENT_3D ( 'NONE', #56, #2, #34 ) ;
#14 = DIRECTION ( 'NONE',  ( -0.0000000000000000000, -0.0000000000000000000, -1.000000000000000000 ) ) ;
#15 = EDGE_LOOP ( 'NONE', ( #119, #69, #304, #54, #106 ) ) ;
#16 = ADVANCED_FACE ( 'NONE', ( #217 ), #82, .T. ) ;
#17 = VERTEX_POINT ( 'NONE', #107 ) ;
#18 = ORIENTED_EDGE ( 'NONE', *, *, #195, .T. ) ;
#19 = SURFACE_SIDE_STYLE ('',( #100 ) ) ;
#20 = CARTESIAN_POINT ( 'NONE',  ( 0.0000000000000000000, 0.0000000000000000000, 3.937007999999999619 ) ) ;
#21 = ORIENTED_EDGE ( 'NONE', *, *, #27, .F. ) ;
#22 = EDGE_LOOP ( 'NONE', ( #260, #91, #158, #131, #71 ) ) ;
#23 = MECHANICAL_DESIGN_GEOMETRIC_PRESENTATION_REPRESENTATION (  '', ( #284 ), #136 ) ;
#24 = ORIENTED_EDGE ( 'NONE', *, *, #77, .F. ) ;
#25 = CARTESIAN_POINT ( 'NONE',  ( -0.2362204999999999999, 0.0000000000000000000, 2.283465000000000966 ) ) ;
#26 = EDGE_LOOP ( 'NONE', ( #57, #157, #311, #73 ) ) ;
#27 = EDGE_CURVE ( 'NONE', #17, #270, #6, .T. ) ;
#28 = CARTESIAN_POINT ( 'NONE',  ( 0.2598425499999996169, 0.0000000000000000000, 2.543308150001266199 ) ) ;
#29 = LENGTH_MEASURE_WITH_UNIT ( LENGTH_MEASURE( 0.02539999999999999897 ), #214 );
#30 = CONICAL_SURFACE ( 'NONE', #49, 0.2212204999999994870, 0.7853981633974573828 ) ;
#31 = FACE_OUTER_BOUND ( 'NONE', #123, .T. ) ;
#32 = MANIFOLD_SOLID_BREP ( 'Cut-Revolve3', #240 ) ;
#33 = DIRECTION ( 'NONE',  ( 1.000000000000000000, 1.224646799147353207E-16, -0.0000000000000000000 ) ) ;
#34 = DIRECTION ( 'NONE',  ( -1.000000000000000000, 0.0000000000000000000, 0.0000000000000000000 ) ) ;
#35 = DIRECTION ( 'NONE',  ( -1.000000000000000000, 0.0000000000000000000, 0.0000000000000000000 ) ) ;
#36 = ADVANCED_FACE ( 'NONE', ( #223 ), #234, .T. ) ;
#37 = CARTESIAN_POINT ( 'NONE',  ( 0.0000000000000000000, 0.0000000000000000000, 0.2362200000000000133 ) ) ;
#38 = ADVANCED_FACE ( 'NONE', ( #176 ), #181, .T. ) ;
#39 = FACE_OUTER_BOUND ( 'NONE', #198, .T. ) ;
#40 = CARTESIAN_POINT ( 'NONE',  ( 0.0000000000000000000, 0.0000000000000000000, 1.417323000000000333 ) ) ;
#41 =( NAMED_UNIT ( * ) PLANE_ANGLE_UNIT ( ) SI_UNIT ( $, .RADIAN. ) );
#42 = SPHERICAL_SURFACE ( 'NONE', #60, 0.2362199999999999855 ) ;
#43 =( CONVERSION_BASED_UNIT ( 'INCH', #173 ) LENGTH_UNIT ( ) NAMED_UNIT ( #138 ) );
#44 = ORIENTED_EDGE ( 'NONE', *, *, #151, .T. ) ;
#45 = CARTESIAN_POINT ( 'NONE',  ( -0.2212204999999994870, 0.0000000000000000000, 3.937007999999999619 ) ) ;
#46 = APPLICATION_PROTOCOL_DEFINITION ( 'draft international standard', 'automotive_design', 1998, #149 ) ;
#47 = CARTESIAN_POINT ( 'NONE',  ( 0.0000000000000000000, 0.0000000000000000000, 3.937007999999999619 ) ) ;
#48 = AXIS2_PLACEMENT_3D ( 'NONE', #289, #343, #340 ) ;
#49 = AXIS2_PLACEMENT_3D ( 'NONE', #180, #135, #78 ) ;
#50 = CIRCLE ( 'NONE', #310, 0.2362199999999999578 ) ;
#51 = DIRECTION ( 'NONE',  ( -1.000000000000000000, 0.0000000000000000000, 0.0000000000000000000 ) ) ;
#52 = ORIENTED_EDGE ( 'NONE', *, *, #272, .F. ) ;
#53 = EDGE_CURVE ( 'NONE', #62, #270, #248, .T. ) ;
#54 = ORIENTED_EDGE ( 'NONE', *, *, #219, .F. ) ;
#55 = STYLED_ITEM ( 'NONE', ( #163 ), #32 ) ;
#56 = CARTESIAN_POINT ( 'NONE',  ( 0.0000000000000000000, 0.0000000000000000000, 3.937007999999999619 ) ) ;
#57 = ORIENTED_EDGE ( 'NONE', *, *, #286, .T. ) ;
#58 = AXIS2_PLACEMENT_3D ( 'NONE', #75, #128, #70 ) ;
#59 = CARTESIAN_POINT ( 'NONE',  ( -0.2362204999999999999, 0.0000000000000000000, 3.922007999999999495 ) ) ;
#60 = AXIS2_PLACEMENT_3D ( 'NONE', #203, #274, #282 ) ;
#61 = DIRECTION ( 'NONE',  ( 0.0000000000000000000, 0.0000000000000000000, -1.000000000000000000 ) ) ;
#62 = VERTEX_POINT ( 'NONE', #25 ) ;
#63 = DIRECTION ( 'NONE',  ( -0.0000000000000000000, -0.0000000000000000000, -1.000000000000000000 ) ) ;
#64 = LINE ( 'NONE', #170, #338 ) ;
#65 = ORIENTED_EDGE ( 'NONE', *, *, #53, .T. ) ;
#66 = EDGE_CURVE ( 'NONE', #89, #233, #303, .T. ) ;
#67 = ADVANCED_FACE ( 'NONE', ( #101 ), #142, .T. ) ;
#68 = CIRCLE ( 'NONE', #183, 0.1574804999999999122 ) ;
#69 = ORIENTED_EDGE ( 'NONE', *, *, #339, .T. ) ;
#70 = DIRECTION ( 'NONE',  ( -1.000000000000000000, 0.0000000000000000000, 0.0000000000000000000 ) ) ;
#71 = ORIENTED_EDGE ( 'NONE', *, *, #250, .F. ) ;
#72 =( GEOMETRIC_REPRESENTATION_CONTEXT ( 3 ) GLOBAL_UNCERTAINTY_ASSIGNED_CONTEXT ( ( #265 ) ) GLOBAL_UNIT_ASSIGNED_CONTEXT ( ( #110, #321, #143 ) ) REPRESENTATION_CONTEXT ( 'NONE', 'WORKASPACE' ) );
#73 = ORIENTED_EDGE ( 'NONE', *, *, #326, .F. ) ;
#74 = PRODUCT_DEFINITION_CONTEXT ( 'detailed design', #149, 'design' ) ;
#75 = CARTESIAN_POINT ( 'NONE',  ( 0.0000000000000000000, 0.0000000000000000000, 1.417323000000000333 ) ) ;
#76 = CARTESIAN_POINT ( 'NONE',  ( 0.2362204999999999999, 2.892866792179873879E-17, 2.283465000000000966 ) ) ;
#77 = EDGE_CURVE ( 'NONE', #233, #317, #156, .T. ) ;
#78 = DIRECTION ( 'NONE',  ( -1.000000000000000000, 0.0000000000000000000, 0.0000000000000000000 ) ) ;
#79 = CARTESIAN_POINT ( 'NONE',  ( 0.0000000000000000000, 0.0000000000000000000, 0.4122875453334601259 ) ) ;
#80 = VERTEX_POINT ( 'NONE', #262 ) ;
#81 = VECTOR ( 'NONE', #127, 39.37007874015748143 ) ;
#82 = SPHERICAL_SURFACE ( 'NONE', #271, 0.2362199999999999855 ) ;
#83 = EDGE_LOOP ( 'NONE', ( #152, #184, #242, #210 ) ) ;
#84 = PRODUCT_RELATED_PRODUCT_CATEGORY ( 'part', '', ( #154 ) ) ;
#85 = AXIS2_PLACEMENT_3D ( 'NONE', #174, #120, #236 ) ;
#86 = DIRECTION ( 'NONE',  ( 0.0000000000000000000, 0.0000000000000000000, 1.000000000000000000 ) ) ;
#87 = ADVANCED_FACE ( 'NONE', ( #124 ), #132, .T. ) ;
#88 = FACE_OUTER_BOUND ( 'NONE', #26, .T. ) ;
#89 = VERTEX_POINT ( 'NONE', #102 ) ;
#90 = MECHANICAL_DESIGN_GEOMETRIC_PRESENTATION_REPRESENTATION (  '', ( #55 ), #72 ) ;
#91 = ORIENTED_EDGE ( 'NONE', *, *, #114, .T. ) ;
#92 = CARTESIAN_POINT ( 'NONE',  ( -0.2598425499999996169, 3.182153471397855967E-17, 2.543308150001266199 ) ) ;
#93 = ORIENTED_EDGE ( 'NONE', *, *, #231, .T. ) ;
#94 =( NAMED_UNIT ( * ) PLANE_ANGLE_UNIT ( ) SI_UNIT ( $, .RADIAN. ) );
#95 = DIRECTION ( 'NONE',  ( -1.000000000000000000, 0.0000000000000000000, 0.0000000000000000000 ) ) ;
#96 = CARTESIAN_POINT ( 'NONE',  ( 0.0000000000000000000, 0.0000000000000000000, 0.4122875453334601259 ) ) ;
#97 = CIRCLE ( 'NONE', #199, 0.1574804999999999122 ) ;
#98 = ORIENTED_EDGE ( 'NONE', *, *, #112, .F. ) ;
#99 = PRODUCT_CONTEXT ( 'NONE', #111, 'mechanical' ) ;
#100 = SURFACE_STYLE_FILL_AREA ( #312 ) ;
#101 = FACE_OUTER_BOUND ( 'NONE', #160, .T. ) ;
#102 = CARTESIAN_POINT ( 'NONE',  ( 0.2212204999999994870, 2.801018282243818278E-17, 3.937007999999999619 ) ) ;
#103 = AXIS2_PLACEMENT_3D ( 'NONE', #40, #14, #148 ) ;
#104 = VECTOR ( 'NONE', #63, 39.37007874015748143 ) ;
#105 = UNCERTAINTY_MEASURE_WITH_UNIT (LENGTH_MEASURE( 1.000000000000000082E-05 ), #43, 'distance_accuracy_value', 'NONE');
#106 = ORIENTED_EDGE ( 'NONE', *, *, #212, .F. ) ;
#107 = CARTESIAN_POINT ( 'NONE',  ( 0.1574804999999998012, 0.0000000000000000000, 1.417323000000000333 ) ) ;
#108 = ORIENTED_EDGE ( 'NONE', *, *, #195, .F. ) ;
#109 =( GEOMETRIC_REPRESENTATION_CONTEXT ( 3 ) GLOBAL_UNCERTAINTY_ASSIGNED_CONTEXT ( ( #287 ) ) GLOBAL_UNIT_ASSIGNED_CONTEXT ( ( #113, #41, #196 ) ) REPRESENTATION_CONTEXT ( 'NONE', 'WORKASPACE' ) );
#110 =( CONVERSION_BASED_UNIT ( 'INCH', #29 ) LENGTH_UNIT ( ) NAMED_UNIT ( #193 ) );
#111 = APPLICATION_CONTEXT ( 'automotive_design' ) ;
#112 = EDGE_CURVE ( 'NONE', #89, #80, #122, .T. ) ;
#113 =( CONVERSION_BASED_UNIT ( 'INCH', #279 ) LENGTH_UNIT ( ) NAMED_UNIT ( #329 ) );
#114 = EDGE_CURVE ( 'NONE', #17, #281, #207, .T. ) ;
#115 = DIRECTION ( 'NONE',  ( -0.0000000000000000000, -0.0000000000000000000, -1.000000000000000000 ) ) ;
#116 = VECTOR ( 'NONE', #208, 39.37007874015748143 ) ;
#117 = CARTESIAN_POINT ( 'NONE',  ( 0.0000000000000000000, 0.0000000000000000000, 0.2362200000000000133 ) ) ;
#118 = DIRECTION ( 'NONE',  ( -0.0000000000000000000, -0.0000000000000000000, -1.000000000000000000 ) ) ;
#119 = ORIENTED_EDGE ( 'NONE', *, *, #167, .T. ) ;
#120 = DIRECTION ( 'NONE',  ( 0.0000000000000000000, 0.0000000000000000000, 1.000000000000000000 ) ) ;
#121 = PRESENTATION_LAYER_ASSIGNMENT (  '', '', ( #284 ) ) ;
#122 = LINE ( 'NONE', #316, #116 ) ;
#123 = EDGE_LOOP ( 'NONE', ( #150, #295, #264, #65 ) ) ;
#124 = FACE_OUTER_BOUND ( 'NONE', #15, .T. ) ;
#125 = ADVANCED_FACE ( 'NONE', ( #175 ), #213, .T. ) ;
#126 = VERTEX_POINT ( 'NONE', #330 ) ;
#127 = DIRECTION ( 'NONE',  ( -0.09053553870087650834, 1.108740576791097430E-17, 0.9958932253169222593 ) ) ;
#128 = DIRECTION ( 'NONE',  ( -0.0000000000000000000, -0.0000000000000000000, -1.000000000000000000 ) ) ;
#129 = ORIENTED_EDGE ( 'NONE', *, *, #326, .T. ) ;
#130 = AXIS2_PLACEMENT_3D ( 'NONE', #220, #276, #322 ) ;
#131 = ORIENTED_EDGE ( 'NONE', *, *, #151, .F. ) ;
#132 = CYLINDRICAL_SURFACE ( 'NONE', #9, 0.1574804999999998845 ) ;
#133 = EDGE_LOOP ( 'NONE', ( #209, #93, #293, #21 ) ) ;
#134 = ADVANCED_FACE ( 'NONE', ( #88 ), #42, .T. ) ;
#135 = DIRECTION ( 'NONE',  ( 0.0000000000000000000, 0.0000000000000000000, -1.000000000000000000 ) ) ;
#136 =( GEOMETRIC_REPRESENTATION_CONTEXT ( 3 ) GLOBAL_UNCERTAINTY_ASSIGNED_CONTEXT ( ( #105 ) ) GLOBAL_UNIT_ASSIGNED_CONTEXT ( ( #43, #94, #232 ) ) REPRESENTATION_CONTEXT ( 'NONE', 'WORKASPACE' ) );
#137 = CYLINDRICAL_SURFACE ( 'NONE', #13, 0.2362204999999999999 ) ;
#138 = DIMENSIONAL_EXPONENTS ( 1.000000000000000000, 0.0000000000000000000, 0.0000000000000000000, 0.0000000000000000000, 0.0000000000000000000, 0.0000000000000000000, 0.0000000000000000000 ) ;
#139 = DIRECTION ( 'NONE',  ( 1.000000000000000000, 0.0000000000000000000, -0.0000000000000000000 ) ) ;
#140 = DIRECTION ( 'NONE',  ( 0.0000000000000000000, 0.0000000000000000000, 1.000000000000000000 ) ) ;
#141 = CARTESIAN_POINT ( 'NONE',  ( 0.1574804999999999122, 1.928579902531246488E-17, 0.4122875453334601259 ) ) ;
#142 = CONICAL_SURFACE ( 'NONE', #290, 0.2212204999999994870, 0.7853981633974573828 ) ;
#143 =( NAMED_UNIT ( * ) SI_UNIT ( $, .STERADIAN. ) SOLID_ANGLE_UNIT ( ) );
#144 = DIRECTION ( 'NONE',  ( 0.0000000000000000000, 0.0000000000000000000, -1.000000000000000000 ) ) ;
#145 = PLANE ( 'NONE',  #332 ) ;
#146 = CARTESIAN_POINT ( 'NONE',  ( 0.0000000000000000000, 0.0000000000000000000, 0.0000000000000000000 ) ) ;
#147 = AXIS2_PLACEMENT_3D ( 'NONE', #335, #305, #249 ) ;
#148 = DIRECTION ( 'NONE',  ( -1.000000000000000000, 0.0000000000000000000, 0.0000000000000000000 ) ) ;
#149 = APPLICATION_CONTEXT ( 'automotive_design' ) ;
#150 = ORIENTED_EDGE ( 'NONE', *, *, #263, .F. ) ;
#151 = EDGE_CURVE ( 'NONE', #345, #237, #97, .T. ) ;
#152 = ORIENTED_EDGE ( 'NONE', *, *, #231, .F. ) ;
#153 = SHAPE_DEFINITION_REPRESENTATION ( #218, #273 ) ;
#154 = PRODUCT ( 'Micro_SBMM-120-436', 'Micro_SBMM-120-436', '', ( #99 ) ) ;
#155 = EDGE_CURVE ( 'NONE', #317, #80, #283, .T. ) ;
#156 = LINE ( 'NONE', #45, #251 ) ;
#157 = ORIENTED_EDGE ( 'NONE', *, *, #250, .T. ) ;
#158 = ORIENTED_EDGE ( 'NONE', *, *, #212, .T. ) ;
#159 = DIRECTION ( 'NONE',  ( 0.0000000000000000000, 0.0000000000000000000, -1.000000000000000000 ) ) ;
#160 = EDGE_LOOP ( 'NONE', ( #98, #108, #298, #52 ) ) ;
#161 = SURFACE_SIDE_STYLE ('',( #299 ) ) ;
#162 = AXIS2_PLACEMENT_3D ( 'NONE', #191, #140, #229 ) ;
#163 = PRESENTATION_STYLE_ASSIGNMENT (( #266 ) ) ;
#164 = ORIENTED_EDGE ( 'NONE', *, *, #219, .T. ) ;
#165 = AXIS2_PLACEMENT_3D ( 'NONE', #47, #258, #178 ) ;
#166 = CIRCLE ( 'NONE', #235, 0.1574804999999999122 ) ;
#167 = EDGE_CURVE ( 'NONE', #281, #17, #256, .T. ) ;
#168 = DIRECTION ( 'NONE',  ( -0.0000000000000000000, -0.0000000000000000000, -1.000000000000000000 ) ) ;
#169 = DIRECTION ( 'NONE',  ( 1.000000000000000000, 0.0000000000000000000, 0.0000000000000000000 ) ) ;
#170 = CARTESIAN_POINT ( 'NONE',  ( -0.1574804999999998845, 0.0000000000000000000, 0.0000000000000000000 ) ) ;
#171 = PRESENTATION_LAYER_ASSIGNMENT (  '', '', ( #55 ) ) ;
#172 = COLOUR_RGB ( '',0.7921568627450980005, 0.8196078431372548767, 0.9333333333333333481 ) ;
#173 = LENGTH_MEASURE_WITH_UNIT ( LENGTH_MEASURE( 0.02539999999999999897 ), #285 );
#174 = CARTESIAN_POINT ( 'NONE',  ( 0.0000000000000000000, 0.0000000000000000000, 0.0000000000000000000 ) ) ;
#175 = FACE_OUTER_BOUND ( 'NONE', #22, .T. ) ;
#176 = FACE_OUTER_BOUND ( 'NONE', #337, .T. ) ;
#177 = CARTESIAN_POINT ( 'NONE',  ( 0.0000000000000000000, 0.0000000000000000000, 3.922007999999999495 ) ) ;
#178 = DIRECTION ( 'NONE',  ( 1.000000000000000000, 0.0000000000000000000, 0.0000000000000000000 ) ) ;
#179 = ORIENTED_EDGE ( 'NONE', *, *, #112, .T. ) ;
#180 = CARTESIAN_POINT ( 'NONE',  ( 0.0000000000000000000, 0.0000000000000000000, 3.937007999999999619 ) ) ;
#181 = CYLINDRICAL_SURFACE ( 'NONE', #215, 0.2362204999999999999 ) ;
#182 = CARTESIAN_POINT ( 'NONE',  ( -0.1574804999999998012, 2.410723347355559413E-17, 1.417323000000000333 ) ) ;
#183 = AXIS2_PLACEMENT_3D ( 'NONE', #12, #118, #228 ) ;
#184 = ORIENTED_EDGE ( 'NONE', *, *, #114, .F. ) ;
#185 = FILL_AREA_STYLE ('',( #261 ) ) ;
#186 = DIRECTION ( 'NONE',  ( -1.000000000000000000, 0.0000000000000000000, 0.0000000000000000000 ) ) ;
#187 = PRODUCT_DEFINITION ( 'UNKNOWN', '', #325, #74 ) ;
#188 = DIRECTION ( 'NONE',  ( 0.09053553870087650834, 0.0000000000000000000, 0.9958932253169222593 ) ) ;
#189 = CARTESIAN_POINT ( 'NONE',  ( 0.0000000000000000000, 0.1574804999999999122, 0.4122875453334601259 ) ) ;
#190 = COLOUR_RGB ( '',0.7921568627450980005, 0.8196078431372548767, 0.9333333333333333481 ) ;
#191 = CARTESIAN_POINT ( 'NONE',  ( 0.0000000000000000000, 0.0000000000000000000, 2.543308150001266199 ) ) ;
#192 = ADVANCED_FACE ( 'NONE', ( #308 ), #297, .T. ) ;
#193 = DIMENSIONAL_EXPONENTS ( 1.000000000000000000, 0.0000000000000000000, 0.0000000000000000000, 0.0000000000000000000, 0.0000000000000000000, 0.0000000000000000000, 0.0000000000000000000 ) ;
#194 = CARTESIAN_POINT ( 'NONE',  ( 1.928579902531246179E-17, -0.1574804999999999122, 0.4122875453334601259 ) ) ;
#195 = EDGE_CURVE ( 'NONE', #233, #89, #344, .T. ) ;
#196 =( NAMED_UNIT ( * ) SI_UNIT ( $, .STERADIAN. ) SOLID_ANGLE_UNIT ( ) );
#197 = CARTESIAN_POINT ( 'NONE',  ( 0.0000000000000000000, 0.0000000000000000000, 3.922007999999999495 ) ) ;
#198 = EDGE_LOOP ( 'NONE', ( #18, #268 ) ) ;
#199 = AXIS2_PLACEMENT_3D ( 'NONE', #10, #115, #327 ) ;
#200 = DIRECTION ( 'NONE',  ( 1.000000000000000000, 0.0000000000000000000, 0.0000000000000000000 ) ) ;
#201 = DIRECTION ( 'NONE',  ( -0.0000000000000000000, -0.0000000000000000000, -1.000000000000000000 ) ) ;
#202 = CARTESIAN_POINT ( 'NONE',  ( 0.0000000000000000000, 0.0000000000000000000, 3.937007999999999619 ) ) ;
#203 = CARTESIAN_POINT ( 'NONE',  ( 0.0000000000000000000, 0.0000000000000000000, 0.2362200000000000133 ) ) ;
#204 = DIRECTION ( 'NONE',  ( -1.000000000000000000, 0.0000000000000000000, 0.0000000000000000000 ) ) ;
#205 = ORIENTED_EDGE ( 'NONE', *, *, #319, .F. ) ;
#206 = DIRECTION ( 'NONE',  ( -0.0000000000000000000, -0.0000000000000000000, -1.000000000000000000 ) ) ;
#207 = CIRCLE ( 'NONE', #58, 0.1574804999999998012 ) ;
#208 = DIRECTION ( 'NONE',  ( 0.7071067811865540120, 8.659560562355011744E-17, -0.7071067811865410224 ) ) ;
#209 = ORIENTED_EDGE ( 'NONE', *, *, #167, .F. ) ;
#210 = ORIENTED_EDGE ( 'NONE', *, *, #53, .F. ) ;
#211 = ORIENTED_EDGE ( 'NONE', *, *, #263, .T. ) ;
#212 = EDGE_CURVE ( 'NONE', #281, #237, #64, .T. ) ;
#213 = CYLINDRICAL_SURFACE ( 'NONE', #323, 0.1574804999999998845 ) ;
#214 =( LENGTH_UNIT ( ) NAMED_UNIT ( * ) SI_UNIT ( $, .METRE. ) );
#215 = AXIS2_PLACEMENT_3D ( 'NONE', #20, #206, #294 ) ;
#216 = CIRCLE ( 'NONE', #130, 0.2362204999999999999 ) ;
#217 = FACE_OUTER_BOUND ( 'NONE', #255, .T. ) ;
#218 = PRODUCT_DEFINITION_SHAPE ( 'NONE', 'NONE',  #187 ) ;
#219 = EDGE_CURVE ( 'NONE', #237, #267, #68, .T. ) ;
#220 = CARTESIAN_POINT ( 'NONE',  ( 0.0000000000000000000, 0.0000000000000000000, 2.283465000000000966 ) ) ;
#221 = LINE ( 'NONE', #324, #291 ) ;
#222 = AXIS2_PLACEMENT_3D ( 'NONE', #202, #227, #200 ) ;
#223 = FACE_OUTER_BOUND ( 'NONE', #83, .T. ) ;
#224 = DIRECTION ( 'NONE',  ( -1.224646799147353207E-16, 1.000000000000000000, 0.0000000000000000000 ) ) ;
#225 = LINE ( 'NONE', #247, #104 ) ;
#226 = ORIENTED_EDGE ( 'NONE', *, *, #155, .T. ) ;
#227 = DIRECTION ( 'NONE',  ( 0.0000000000000000000, 0.0000000000000000000, 1.000000000000000000 ) ) ;
#228 = DIRECTION ( 'NONE',  ( -1.000000000000000000, 0.0000000000000000000, 0.0000000000000000000 ) ) ;
#229 = DIRECTION ( 'NONE',  ( 1.000000000000000000, 0.0000000000000000000, 0.0000000000000000000 ) ) ;
#230 = FILL_AREA_STYLE_COLOUR ( '', #172 ) ;
#231 = EDGE_CURVE ( 'NONE', #281, #62, #334, .T. ) ;
#232 =( NAMED_UNIT ( * ) SI_UNIT ( $, .STERADIAN. ) SOLID_ANGLE_UNIT ( ) );
#233 = VERTEX_POINT ( 'NONE', #302 ) ;
#234 = CONICAL_SURFACE ( 'NONE', #162, 0.2598425499999996169, 0.09065967900408435087 ) ;
#235 = AXIS2_PLACEMENT_3D ( 'NONE', #79, #245, #186 ) ;
#236 = DIRECTION ( 'NONE',  ( 1.000000000000000000, 0.0000000000000000000, 0.0000000000000000000 ) ) ;
#237 = VERTEX_POINT ( 'NONE', #331 ) ;
#238 = CARTESIAN_POINT ( 'NONE',  ( 0.0000000000000000000, 0.0000000000000000000, 0.0000000000000000000 ) ) ;
#239 = FACE_OUTER_BOUND ( 'NONE', #244, .T. ) ;
#240 = CLOSED_SHELL ( 'NONE', ( #87, #134, #192, #5, #38, #278, #336, #67, #36, #16, #125 ) ) ;
#241 = ORIENTED_EDGE ( 'NONE', *, *, #66, .F. ) ;
#242 = ORIENTED_EDGE ( 'NONE', *, *, #27, .T. ) ;
#243 = DIRECTION ( 'NONE',  ( -0.0000000000000000000, -0.0000000000000000000, -1.000000000000000000 ) ) ;
#244 = EDGE_LOOP ( 'NONE', ( #241, #179, #253, #24 ) ) ;
#245 = DIRECTION ( 'NONE',  ( -0.0000000000000000000, -0.0000000000000000000, -1.000000000000000000 ) ) ;
#246 = AXIS2_PLACEMENT_3D ( 'NONE', #96, #201, #204 ) ;
#247 = CARTESIAN_POINT ( 'NONE',  ( 0.1574804999999998845, 1.928579902531246179E-17, 0.0000000000000000000 ) ) ;
#248 = CIRCLE ( 'NONE', #48, 0.2362204999999999999 ) ;
#249 = DIRECTION ( 'NONE',  ( 1.000000000000000000, 0.0000000000000000000, 0.0000000000000000000 ) ) ;
#250 = EDGE_CURVE ( 'NONE', #342, #345, #320, .T. ) ;
#251 = VECTOR ( 'NONE', #1, 39.37007874015748143 ) ;
#252 = CIRCLE ( 'NONE', #257, 0.2362199999999999855 ) ;
#253 = ORIENTED_EDGE ( 'NONE', *, *, #155, .F. ) ;
#254 = DIRECTION ( 'NONE',  ( -1.000000000000000000, 0.0000000000000000000, 0.0000000000000000000 ) ) ;
#255 = EDGE_LOOP ( 'NONE', ( #205, #44, #164, #129 ) ) ;
#256 = CIRCLE ( 'NONE', #103, 0.1574804999999998012 ) ;
#257 = AXIS2_PLACEMENT_3D ( 'NONE', #117, #33, #224 ) ;
#258 = DIRECTION ( 'NONE',  ( 0.0000000000000000000, 0.0000000000000000000, 1.000000000000000000 ) ) ;
#259 = APPLICATION_PROTOCOL_DEFINITION ( 'draft international standard', 'automotive_design', 1998, #111 ) ;
#260 = ORIENTED_EDGE ( 'NONE', *, *, #339, .F. ) ;
#261 = FILL_AREA_STYLE_COLOUR ( '', #190 ) ;
#262 = CARTESIAN_POINT ( 'NONE',  ( 0.2362204999999999999, 2.892866792179873879E-17, 3.922007999999999495 ) ) ;
#263 = EDGE_CURVE ( 'NONE', #80, #270, #306, .T. ) ;
#264 = ORIENTED_EDGE ( 'NONE', *, *, #341, .T. ) ;
#265 = UNCERTAINTY_MEASURE_WITH_UNIT (LENGTH_MEASURE( 1.000000000000000082E-05 ), #110, 'distance_accuracy_value', 'NONE');
#266 = SURFACE_STYLE_USAGE ( .BOTH. , #161 ) ;
#267 = VERTEX_POINT ( 'NONE', #189 ) ;
#268 = ORIENTED_EDGE ( 'NONE', *, *, #66, .T. ) ;
#269 = DIRECTION ( 'NONE',  ( 0.0000000000000000000, 1.000000000000000000, 0.0000000000000000000 ) ) ;
#270 = VERTEX_POINT ( 'NONE', #76 ) ;
#271 = AXIS2_PLACEMENT_3D ( 'NONE', #296, #4, #269 ) ;
#272 = EDGE_CURVE ( 'NONE', #80, #317, #292, .T. ) ;
#273 = ADVANCED_BREP_SHAPE_REPRESENTATION ( 'Micro_SBMM-120-436', ( #32, #85 ), #109 ) ;
#274 = DIRECTION ( 'NONE',  ( 1.000000000000000000, 0.0000000000000000000, 0.0000000000000000000 ) ) ;
#275 = AXIS2_PLACEMENT_3D ( 'NONE', #177, #144, #318 ) ;
#276 = DIRECTION ( 'NONE',  ( 0.0000000000000000000, 0.0000000000000000000, 1.000000000000000000 ) ) ;
#277 = DIRECTION ( 'NONE',  ( -0.0000000000000000000, -0.0000000000000000000, -1.000000000000000000 ) ) ;
#278 = ADVANCED_FACE ( 'NONE', ( #31 ), #137, .T. ) ;
#279 = LENGTH_MEASURE_WITH_UNIT ( LENGTH_MEASURE( 0.02539999999999999897 ), #301 );
#280 = DIRECTION ( 'NONE',  ( -0.0000000000000000000, -0.0000000000000000000, -1.000000000000000000 ) ) ;
#281 = VERTEX_POINT ( 'NONE', #182 ) ;
#282 = DIRECTION ( 'NONE',  ( 0.0000000000000000000, 1.000000000000000000, 0.0000000000000000000 ) ) ;
#283 = CIRCLE ( 'NONE', #7, 0.2362204999999999999 ) ;
#284 = STYLED_ITEM ( 'NONE', ( #333 ), #273 ) ;
#285 =( LENGTH_UNIT ( ) NAMED_UNIT ( * ) SI_UNIT ( $, .METRE. ) );
#286 = EDGE_CURVE ( 'NONE', #267, #342, #166, .T. ) ;
#287 = UNCERTAINTY_MEASURE_WITH_UNIT (LENGTH_MEASURE( 1.000000000000000082E-05 ), #113, 'distance_accuracy_value', 'NONE');
#288 = SURFACE_STYLE_USAGE ( .BOTH. , #19 ) ;
#289 = CARTESIAN_POINT ( 'NONE',  ( 0.0000000000000000000, 0.0000000000000000000, 2.283465000000000966 ) ) ;
#290 = AXIS2_PLACEMENT_3D ( 'NONE', #313, #159, #51 ) ;
#291 = VECTOR ( 'NONE', #300, 39.37007874015748143 ) ;
#292 = CIRCLE ( 'NONE', #275, 0.2362204999999999999 ) ;
#293 = ORIENTED_EDGE ( 'NONE', *, *, #314, .F. ) ;
#294 = DIRECTION ( 'NONE',  ( -1.000000000000000000, 0.0000000000000000000, 0.0000000000000000000 ) ) ;
#295 = ORIENTED_EDGE ( 'NONE', *, *, #272, .T. ) ;
#296 = CARTESIAN_POINT ( 'NONE',  ( 0.0000000000000000000, 0.0000000000000000000, 0.2362200000000000133 ) ) ;
#297 = CONICAL_SURFACE ( 'NONE', #147, 0.2598425499999996169, 0.09065967900408435087 ) ;
#298 = ORIENTED_EDGE ( 'NONE', *, *, #77, .T. ) ;
#299 = SURFACE_STYLE_FILL_AREA ( #185 ) ;
#300 = DIRECTION ( 'NONE',  ( -0.0000000000000000000, -0.0000000000000000000, -1.000000000000000000 ) ) ;
#301 =( LENGTH_UNIT ( ) NAMED_UNIT ( * ) SI_UNIT ( $, .METRE. ) );
#302 = CARTESIAN_POINT ( 'NONE',  ( -0.2212204999999994870, 0.0000000000000000000, 3.937007999999999619 ) ) ;
#303 = CIRCLE ( 'NONE', #165, 0.2212204999999994870 ) ;
#304 = ORIENTED_EDGE ( 'NONE', *, *, #286, .F. ) ;
#305 = DIRECTION ( 'NONE',  ( 0.0000000000000000000, 0.0000000000000000000, 1.000000000000000000 ) ) ;
#306 = LINE ( 'NONE', #307, #315 ) ;
#307 = CARTESIAN_POINT ( 'NONE',  ( 0.2362204999999999999, 2.892866792179873879E-17, 3.937007999999999619 ) ) ;
#308 = FACE_OUTER_BOUND ( 'NONE', #133, .T. ) ;
#309 = VECTOR ( 'NONE', #188, 39.37007874015748143 ) ;
#310 = AXIS2_PLACEMENT_3D ( 'NONE', #37, #35, #86 ) ;
#311 = ORIENTED_EDGE ( 'NONE', *, *, #319, .T. ) ;
#312 = FILL_AREA_STYLE ('',( #230 ) ) ;
#313 = CARTESIAN_POINT ( 'NONE',  ( 0.0000000000000000000, 0.0000000000000000000, 3.937007999999999619 ) ) ;
#314 = EDGE_CURVE ( 'NONE', #270, #62, #216, .T. ) ;
#315 = VECTOR ( 'NONE', #168, 39.37007874015748143 ) ;
#316 = CARTESIAN_POINT ( 'NONE',  ( 0.2212204999999994870, 2.709169772307763601E-17, 3.937007999999999619 ) ) ;
#317 = VERTEX_POINT ( 'NONE', #59 ) ;
#318 = DIRECTION ( 'NONE',  ( 1.000000000000000000, 0.0000000000000000000, 0.0000000000000000000 ) ) ;
#319 = EDGE_CURVE ( 'NONE', #345, #126, #252, .T. ) ;
#320 = CIRCLE ( 'NONE', #246, 0.1574804999999999122 ) ;
#321 =( NAMED_UNIT ( * ) PLANE_ANGLE_UNIT ( ) SI_UNIT ( $, .RADIAN. ) );
#322 = DIRECTION ( 'NONE',  ( 1.000000000000000000, 0.0000000000000000000, 0.0000000000000000000 ) ) ;
#323 = AXIS2_PLACEMENT_3D ( 'NONE', #146, #277, #95 ) ;
#324 = CARTESIAN_POINT ( 'NONE',  ( -0.2362204999999999999, 0.0000000000000000000, 3.937007999999999619 ) ) ;
#325 = PRODUCT_DEFINITION_FORMATION_WITH_SPECIFIED_SOURCE ( 'ANY', '', #154, .NOT_KNOWN. ) ;
#326 = EDGE_CURVE ( 'NONE', #267, #126, #50, .T. ) ;
#327 = DIRECTION ( 'NONE',  ( -1.000000000000000000, 0.0000000000000000000, 0.0000000000000000000 ) ) ;
#328 = ORIENTED_EDGE ( 'NONE', *, *, #314, .T. ) ;
#329 = DIMENSIONAL_EXPONENTS ( 1.000000000000000000, 0.0000000000000000000, 0.0000000000000000000, 0.0000000000000000000, 0.0000000000000000000, 0.0000000000000000000, 0.0000000000000000000 ) ;
#330 = CARTESIAN_POINT ( 'NONE',  ( 0.0000000000000000000, 1.446430334472938776E-17, 3.414809992080329023E-17 ) ) ;
#331 = CARTESIAN_POINT ( 'NONE',  ( -0.1574804999999999122, 0.0000000000000000000, 0.4122875453334601259 ) ) ;
#332 = AXIS2_PLACEMENT_3D ( 'NONE', #8, #11, #139 ) ;
#333 = PRESENTATION_STYLE_ASSIGNMENT (( #288 ) ) ;
#334 = LINE ( 'NONE', #92, #81 ) ;
#335 = CARTESIAN_POINT ( 'NONE',  ( 0.0000000000000000000, 0.0000000000000000000, 2.543308150001266199 ) ) ;
#336 = ADVANCED_FACE ( 'NONE', ( #39 ), #145, .T. ) ;
#337 = EDGE_LOOP ( 'NONE', ( #226, #211, #328, #3 ) ) ;
#338 = VECTOR ( 'NONE', #280, 39.37007874015748143 ) ;
#339 = EDGE_CURVE ( 'NONE', #17, #342, #225, .T. ) ;
#340 = DIRECTION ( 'NONE',  ( 1.000000000000000000, 0.0000000000000000000, 0.0000000000000000000 ) ) ;
#341 = EDGE_CURVE ( 'NONE', #317, #62, #221, .T. ) ;
#342 = VERTEX_POINT ( 'NONE', #141 ) ;
#343 = DIRECTION ( 'NONE',  ( 0.0000000000000000000, 0.0000000000000000000, 1.000000000000000000 ) ) ;
#344 = CIRCLE ( 'NONE', #222, 0.2212204999999994870 ) ;
#345 = VERTEX_POINT ( 'NONE', #194 ) ;
ENDSEC;
END-ISO-10303-21;
