ISO-10303-21;
HEADER;
FILE_DESCRIPTION (( 'STEP AP214' ),
    '1' );
FILE_NAME ('81830.STEP',
    '2023-06-23T03:21:34',
    ( '' ),
    ( '' ),
    'SwSTEP 2.0',
    'SolidWorks 2023',
    '' );
FILE_SCHEMA (( 'AUTOMOTIVE_DESIGN' ));
ENDSEC;

DATA;
#1 =( GEOMETRIC_REPRESENTATION_CONTEXT ( 3 ) GLOBAL_UNCERTAINTY_ASSIGNED_CONTEXT ( ( #42 ) ) GLOBAL_UNIT_ASSIGNED_CONTEXT ( ( #44, #69, #239 ) ) REPRESENTATION_CONTEXT ( 'NONE', 'WORKASPACE' ) );
#2 = DIRECTION ( 'NONE',  ( 0.000000000000000000, 1.000000000000000000, 0.000000000000000000 ) ) ;
#3 = ORIENTED_EDGE ( 'NONE', *, *, #35, .F. ) ;
#4 = DIMENSIONAL_EXPONENTS ( 1.000000000000000000, 0.000000000000000000, 0.000000000000000000, 0.000000000000000000, 0.000000000000000000, 0.000000000000000000, 0.000000000000000000 ) ;
#5 = FACE_OUTER_BOUND ( 'NONE', #302, .T. ) ;
#6 = CARTESIAN_POINT ( 'NONE',  ( 0.000000000000000000, 0.000000000000000000, 0.000000000000000000 ) ) ;
#7 = UNCERTAINTY_MEASURE_WITH_UNIT (LENGTH_MEASURE( 1.000000000000000082E-05 ), #182, 'distance_accuracy_value', 'NONE');
#8 = EDGE_CURVE ( 'NONE', #252, #301, #28, .T. ) ;
#9 = PRESENTATION_STYLE_ASSIGNMENT (( #12 ) ) ;
#10 = FILL_AREA_STYLE_COLOUR ( '', #287 ) ;
#11 = FILL_AREA_STYLE ('',( #10 ) ) ;
#12 = SURFACE_STYLE_USAGE ( .BOTH. , #105 ) ;
#13 = FILL_AREA_STYLE ('',( #274 ) ) ;
#14 = CARTESIAN_POINT ( 'NONE',  ( -1.224646799147353207E-16, 3.500000000000000000, 0.000000000000000000 ) ) ;
#15 = AXIS2_PLACEMENT_3D ( 'NONE', #97, #185, #119 ) ;
#16 = ORIENTED_EDGE ( 'NONE', *, *, #233, .F. ) ;
#17 = PRESENTATION_LAYER_ASSIGNMENT (  '', '', ( #78 ) ) ;
#18 = CARTESIAN_POINT ( 'NONE',  ( 0.000000000000000000, 0.000000000000000000, -0.2500000000000000000 ) ) ;
#19 = EDGE_LOOP ( 'NONE', ( #30, #68 ) ) ;
#20 =( CONVERSION_BASED_UNIT ( 'INCH', #195 ) LENGTH_UNIT ( ) NAMED_UNIT ( #235 ) );
#21 = FACE_OUTER_BOUND ( 'NONE', #95, .T. ) ;
#22 = STYLED_ITEM ( 'NONE', ( #37 ), #86 ) ;
#23 = AXIS2_PLACEMENT_3D ( 'NONE', #151, #125, #148 ) ;
#24 = LENGTH_MEASURE_WITH_UNIT ( LENGTH_MEASURE( 0.02539999999999999897 ), #211 );
#25 = LINE ( 'NONE', #115, #161 ) ;
#26 =( NAMED_UNIT ( * ) PLANE_ANGLE_UNIT ( ) SI_UNIT ( $, .RADIAN. ) );
#27 = FILL_AREA_STYLE ('',( #309 ) ) ;
#28 = CIRCLE ( 'NONE', #108, 0.2499999999999999722 ) ;
#29 = CARTESIAN_POINT ( 'NONE',  ( 1.516480271171051896E-32, 1.625000000000000000, 0.000000000000000000 ) ) ;
#30 = ORIENTED_EDGE ( 'NONE', *, *, #170, .F. ) ;
#31 =( NAMED_UNIT ( * ) SI_UNIT ( $, .STERADIAN. ) SOLID_ANGLE_UNIT ( ) );
#32 = CARTESIAN_POINT ( 'NONE',  ( 0.000000000000000000, 0.000000000000000000, 0.000000000000000000 ) ) ;
#33 = CARTESIAN_POINT ( 'NONE',  ( 0.000000000000000000, 0.000000000000000000, 0.000000000000000000 ) ) ;
#34 = AXIS2_PLACEMENT_3D ( 'NONE', #32, #130, #168 ) ;
#35 = EDGE_CURVE ( 'NONE', #43, #91, #124, .T. ) ;
#36 = UNCERTAINTY_MEASURE_WITH_UNIT (LENGTH_MEASURE( 1.000000000000000082E-05 ), #246, 'distance_accuracy_value', 'NONE');
#37 = PRESENTATION_STYLE_ASSIGNMENT (( #221 ) ) ;
#38 =( LENGTH_UNIT ( ) NAMED_UNIT ( * ) SI_UNIT ( $, .METRE. ) );
#39 = CARTESIAN_POINT ( 'NONE',  ( 3.061616997868383018E-17, 0.000000000000000000, 0.2500000000000000000 ) ) ;
#40 = DIRECTION ( 'NONE',  ( -0.000000000000000000, -1.000000000000000000, -0.000000000000000000 ) ) ;
#41 = DIRECTION ( 'NONE',  ( -6.531449595452551589E-17, 1.000000000000000000, 0.000000000000000000 ) ) ;
#42 = UNCERTAINTY_MEASURE_WITH_UNIT (LENGTH_MEASURE( 1.000000000000000082E-05 ), #44, 'distance_accuracy_value', 'NONE');
#43 = VERTEX_POINT ( 'NONE', #189 ) ;
#44 =( CONVERSION_BASED_UNIT ( 'INCH', #232 ) LENGTH_UNIT ( ) NAMED_UNIT ( #4 ) );
#45 = VECTOR ( 'NONE', #196, 39.37007874015748143 ) ;
#46 = AXIS2_PLACEMENT_3D ( 'NONE', #14, #61, #149 ) ;
#47 = ORIENTED_EDGE ( 'NONE', *, *, #8, .T. ) ;
#48 =( NAMED_UNIT ( * ) PLANE_ANGLE_UNIT ( ) SI_UNIT ( $, .RADIAN. ) );
#49 = PLANE ( 'NONE',  #214 ) ;
#50 = STYLED_ITEM ( 'NONE', ( #288 ), #131 ) ;
#51 = MECHANICAL_DESIGN_GEOMETRIC_PRESENTATION_REPRESENTATION (  '', ( #78 ), #224 ) ;
#52 = DIRECTION ( 'NONE',  ( 6.531449595452551589E-17, -1.000000000000000000, 0.000000000000000000 ) ) ;
#53 = FILL_AREA_STYLE ('',( #237 ) ) ;
#54 = UNCERTAINTY_MEASURE_WITH_UNIT (LENGTH_MEASURE( 1.000000000000000082E-05 ), #20, 'distance_accuracy_value', 'NONE');
#55 = CARTESIAN_POINT ( 'NONE',  ( 0.2499999999999999722, 3.500000000000000000, 0.000000000000000000 ) ) ;
#56 = EDGE_CURVE ( 'NONE', #282, #43, #306, .T. ) ;
#57 = LENGTH_MEASURE_WITH_UNIT ( LENGTH_MEASURE( 0.02539999999999999897 ), #38 );
#58 = AXIS2_PLACEMENT_3D ( 'NONE', #73, #2, #184 ) ;
#59 = PRESENTATION_STYLE_ASSIGNMENT (( #96 ) ) ;
#60 = AXIS2_PLACEMENT_3D ( 'NONE', #29, #243, #208 ) ;
#61 = DIRECTION ( 'NONE',  ( -6.531449595452551589E-17, 1.000000000000000000, -0.000000000000000000 ) ) ;
#62 =( NAMED_UNIT ( * ) SI_UNIT ( $, .STERADIAN. ) SOLID_ANGLE_UNIT ( ) );
#63 = VECTOR ( 'NONE', #137, 39.37007874015748143 ) ;
#64 = SURFACE_SIDE_STYLE ('',( #122 ) ) ;
#65 = DIRECTION ( 'NONE',  ( -6.531449595452551589E-17, 1.000000000000000000, -0.000000000000000000 ) ) ;
#66 = ORIENTED_EDGE ( 'NONE', *, *, #139, .T. ) ;
#67 = AXIS2_PLACEMENT_3D ( 'NONE', #299, #41, #132 ) ;
#68 = ORIENTED_EDGE ( 'NONE', *, *, #56, .F. ) ;
#69 =( NAMED_UNIT ( * ) PLANE_ANGLE_UNIT ( ) SI_UNIT ( $, .RADIAN. ) );
#70 = CLOSED_SHELL ( 'NONE', ( #253, #289, #266, #89 ) ) ;
#71 = AXIS2_PLACEMENT_3D ( 'NONE', #154, #65, #250 ) ;
#72 = LINE ( 'NONE', #284, #63 ) ;
#73 = CARTESIAN_POINT ( 'NONE',  ( 0.000000000000000000, 1.625000000000000000, 0.000000000000000000 ) ) ;
#74 = ORIENTED_EDGE ( 'NONE', *, *, #283, .T. ) ;
#75 = FACE_OUTER_BOUND ( 'NONE', #230, .T. ) ;
#76 =( LENGTH_UNIT ( ) NAMED_UNIT ( * ) SI_UNIT ( $, .METRE. ) );
#77 = DIRECTION ( 'NONE',  ( 0.000000000000000000, -1.000000000000000000, -0.000000000000000000 ) ) ;
#78 = STYLED_ITEM ( 'NONE', ( #59 ), #205 ) ;
#79 = CARTESIAN_POINT ( 'NONE',  ( 0.000000000000000000, 1.625000000000000000, 0.000000000000000000 ) ) ;
#80 =( NAMED_UNIT ( * ) PLANE_ANGLE_UNIT ( ) SI_UNIT ( $, .RADIAN. ) );
#81 = PLANE ( 'NONE',  #58 ) ;
#82 =( NAMED_UNIT ( * ) SI_UNIT ( $, .STERADIAN. ) SOLID_ANGLE_UNIT ( ) );
#83 = CYLINDRICAL_SURFACE ( 'NONE', #71, 0.2500000000000000555 ) ;
#84 = COLOUR_RGB ( '',0.7921568627450980005, 0.8196078431372548767, 0.9333333333333333481 ) ;
#85 = AXIS2_PLACEMENT_3D ( 'NONE', #118, #160, #142 ) ;
#86 = ADVANCED_FACE ( 'NONE', ( #292 ), #81, .T. ) ;
#87 = SURFACE_STYLE_USAGE ( .BOTH. , #107 ) ;
#88 = AXIS2_PLACEMENT_3D ( 'NONE', #33, #226, #271 ) ;
#89 = ADVANCED_FACE ( 'NONE', ( #21 ), #49, .F. ) ;
#90 = MANIFOLD_SOLID_BREP ( 'Revolve - Cutting Edge', #275 ) ;
#91 = VERTEX_POINT ( 'NONE', #169 ) ;
#92 = FACE_OUTER_BOUND ( 'NONE', #19, .T. ) ;
#93 = ORIENTED_EDGE ( 'NONE', *, *, #187, .T. ) ;
#94 = SURFACE_STYLE_FILL_AREA ( #27 ) ;
#95 = EDGE_LOOP ( 'NONE', ( #66, #93 ) ) ;
#96 = SURFACE_STYLE_USAGE ( .BOTH. , #268 ) ;
#97 = CARTESIAN_POINT ( 'NONE',  ( -1.224646799147353207E-16, 3.500000000000000000, 0.000000000000000000 ) ) ;
#98 = FILL_AREA_STYLE_COLOUR ( '', #203 ) ;
#99 = SURFACE_STYLE_USAGE ( .BOTH. , #220 ) ;
#100 = DIRECTION ( 'NONE',  ( -6.531449595452551589E-17, 1.000000000000000000, -0.000000000000000000 ) ) ;
#101 = MECHANICAL_DESIGN_GEOMETRIC_PRESENTATION_REPRESENTATION (  '', ( #50 ), #262 ) ;
#102 =( LENGTH_UNIT ( ) NAMED_UNIT ( * ) SI_UNIT ( $, .METRE. ) );
#103 = LENGTH_MEASURE_WITH_UNIT ( LENGTH_MEASURE( 0.02539999999999999897 ), #273 );
#104 = EDGE_CURVE ( 'NONE', #260, #242, #254, .T. ) ;
#105 = SURFACE_SIDE_STYLE ('',( #167 ) ) ;
#106 = PRODUCT_DEFINITION_SHAPE ( 'NONE', 'NONE',  #123 ) ;
#107 = SURFACE_SIDE_STYLE ('',( #231 ) ) ;
#108 = AXIS2_PLACEMENT_3D ( 'NONE', #79, #40, #218 ) ;
#109 = PRESENTATION_LAYER_ASSIGNMENT (  '', '', ( #176 ) ) ;
#110 = ORIENTED_EDGE ( 'NONE', *, *, #56, .T. ) ;
#111 = DIRECTION ( 'NONE',  ( 1.000000000000000000, 6.531449595452551589E-17, 0.000000000000000000 ) ) ;
#112 = AXIS2_PLACEMENT_3D ( 'NONE', #141, #143, #121 ) ;
#113 =( NAMED_UNIT ( * ) PLANE_ANGLE_UNIT ( ) SI_UNIT ( $, .RADIAN. ) );
#114 = ORIENTED_EDGE ( 'NONE', *, *, #187, .F. ) ;
#115 = CARTESIAN_POINT ( 'NONE',  ( 3.061616997868383018E-17, 0.000000000000000000, 0.2500000000000000000 ) ) ;
#116 =( NAMED_UNIT ( * ) SI_UNIT ( $, .STERADIAN. ) SOLID_ANGLE_UNIT ( ) );
#117 = ADVANCED_BREP_SHAPE_REPRESENTATION ( '81830', ( #90, #294, #23 ), #245 ) ;
#118 = CARTESIAN_POINT ( 'NONE',  ( 0.000000000000000000, 0.000000000000000000, 0.000000000000000000 ) ) ;
#119 = DIRECTION ( 'NONE',  ( -1.000000000000000000, 0.000000000000000000, 0.000000000000000000 ) ) ;
#120 =( CONVERSION_BASED_UNIT ( 'INCH', #103 ) LENGTH_UNIT ( ) NAMED_UNIT ( #304 ) );
#121 = DIRECTION ( 'NONE',  ( 0.000000000000000000, 0.000000000000000000, -1.000000000000000000 ) ) ;
#122 = SURFACE_STYLE_FILL_AREA ( #13 ) ;
#123 = PRODUCT_DEFINITION ( 'UNKNOWN', '', #281, #295 ) ;
#124 = LINE ( 'NONE', #247, #45 ) ;
#125 = DIRECTION ( 'NONE',  ( 0.000000000000000000, 0.000000000000000000, 1.000000000000000000 ) ) ;
#126 = AXIS2_PLACEMENT_3D ( 'NONE', #171, #100, #223 ) ;
#127 = CIRCLE ( 'NONE', #133, 0.2499999999999999722 ) ;
#128 =( LENGTH_UNIT ( ) NAMED_UNIT ( * ) SI_UNIT ( $, .METRE. ) );
#129 = CARTESIAN_POINT ( 'NONE',  ( 0.000000000000000000, 1.625000000000000000, 0.000000000000000000 ) ) ;
#130 = DIRECTION ( 'NONE',  ( -0.000000000000000000, -1.000000000000000000, -0.000000000000000000 ) ) ;
#131 = ADVANCED_FACE ( 'NONE', ( #5 ), #285, .T. ) ;
#132 = DIRECTION ( 'NONE',  ( -1.000000000000000000, -6.531449595452551589E-17, 0.000000000000000000 ) ) ;
#133 = AXIS2_PLACEMENT_3D ( 'NONE', #129, #150, #193 ) ;
#134 = COLOUR_RGB ( '',1.000000000000000000, 0.000000000000000000, 0.000000000000000000 ) ;
#135 = AXIS2_PLACEMENT_3D ( 'NONE', #6, #77, #172 ) ;
#136 = EDGE_LOOP ( 'NONE', ( #147, #251, #244, #3 ) ) ;
#137 = DIRECTION ( 'NONE',  ( -6.531449595452551589E-17, 1.000000000000000000, -0.000000000000000000 ) ) ;
#138 = SURFACE_STYLE_USAGE ( .BOTH. , #181 ) ;
#139 = EDGE_CURVE ( 'NONE', #91, #280, #173, .T. ) ;
#140 = DIRECTION ( 'NONE',  ( -6.531449595452551589E-17, 1.000000000000000000, -0.000000000000000000 ) ) ;
#141 = CARTESIAN_POINT ( 'NONE',  ( 0.000000000000000000, 0.000000000000000000, 0.000000000000000000 ) ) ;
#142 = DIRECTION ( 'NONE',  ( 0.000000000000000000, 0.000000000000000000, -1.000000000000000000 ) ) ;
#143 = DIRECTION ( 'NONE',  ( -0.000000000000000000, -1.000000000000000000, -0.000000000000000000 ) ) ;
#144 = PRESENTATION_LAYER_ASSIGNMENT (  '', '', ( #257 ) ) ;
#145 =( NAMED_UNIT ( * ) SI_UNIT ( $, .STERADIAN. ) SOLID_ANGLE_UNIT ( ) );
#146 = EDGE_CURVE ( 'NONE', #282, #280, #72, .T. ) ;
#147 = ORIENTED_EDGE ( 'NONE', *, *, #170, .T. ) ;
#148 = DIRECTION ( 'NONE',  ( 1.000000000000000000, 0.000000000000000000, 0.000000000000000000 ) ) ;
#149 = DIRECTION ( 'NONE',  ( -1.000000000000000000, 0.000000000000000000, 0.000000000000000000 ) ) ;
#150 = DIRECTION ( 'NONE',  ( -0.000000000000000000, -1.000000000000000000, -0.000000000000000000 ) ) ;
#151 = CARTESIAN_POINT ( 'NONE',  ( 0.000000000000000000, 0.000000000000000000, 0.000000000000000000 ) ) ;
#152 = UNCERTAINTY_MEASURE_WITH_UNIT (LENGTH_MEASURE( 1.000000000000000082E-05 ), #120, 'distance_accuracy_value', 'NONE');
#153 = CIRCLE ( 'NONE', #210, 0.2500000000000001110 ) ;
#154 = CARTESIAN_POINT ( 'NONE',  ( -1.224646799147353207E-16, 3.500000000000000000, 0.000000000000000000 ) ) ;
#155 = SHAPE_DEFINITION_REPRESENTATION ( #106, #117 ) ;
#156 = FILL_AREA_STYLE ('',( #278 ) ) ;
#157 = PRESENTATION_LAYER_ASSIGNMENT (  '', '', ( #50 ) ) ;
#158 = APPLICATION_PROTOCOL_DEFINITION ( 'draft international standard', 'automotive_design', 1998, #225 ) ;
#159 = ORIENTED_EDGE ( 'NONE', *, *, #194, .T. ) ;
#160 = DIRECTION ( 'NONE',  ( -0.000000000000000000, -1.000000000000000000, -0.000000000000000000 ) ) ;
#161 = VECTOR ( 'NONE', #216, 39.37007874015748143 ) ;
#162 = ORIENTED_EDGE ( 'NONE', *, *, #8, .F. ) ;
#163 = CARTESIAN_POINT ( 'NONE',  ( -1.224646799147353207E-16, 3.500000000000000000, 0.000000000000000000 ) ) ;
#164 = SURFACE_STYLE_FILL_AREA ( #53 ) ;
#165 = MECHANICAL_DESIGN_GEOMETRIC_PRESENTATION_REPRESENTATION (  '', ( #176 ), #215 ) ;
#166 = APPLICATION_PROTOCOL_DEFINITION ( 'draft international standard', 'automotive_design', 1998, #183 ) ;
#167 = SURFACE_STYLE_FILL_AREA ( #190 ) ;
#168 = DIRECTION ( 'NONE',  ( 0.000000000000000000, 0.000000000000000000, -1.000000000000000000 ) ) ;
#169 = CARTESIAN_POINT ( 'NONE',  ( -0.2500000000000002220, 3.500000000000000000, 0.000000000000000000 ) ) ;
#170 = EDGE_CURVE ( 'NONE', #43, #282, #240, .T. ) ;
#171 = CARTESIAN_POINT ( 'NONE',  ( 1.516480271171051896E-32, 1.625000000000000000, 0.000000000000000000 ) ) ;
#172 = DIRECTION ( 'NONE',  ( 0.000000000000000000, 0.000000000000000000, -1.000000000000000000 ) ) ;
#173 = CIRCLE ( 'NONE', #15, 0.2500000000000001110 ) ;
#174 = PLANE ( 'NONE',  #67 ) ;
#175 = MECHANICAL_DESIGN_GEOMETRIC_PRESENTATION_REPRESENTATION (  '', ( #22 ), #1 ) ;
#176 = STYLED_ITEM ( 'NONE', ( #256 ), #294 ) ;
#177 = CARTESIAN_POINT ( 'NONE',  ( 0.2500000000000000000, 1.625000000000000000, 3.061616997868384251E-17 ) ) ;
#178 = ORIENTED_EDGE ( 'NONE', *, *, #194, .F. ) ;
#179 = ORIENTED_EDGE ( 'NONE', *, *, #146, .F. ) ;
#180 = DIMENSIONAL_EXPONENTS ( 1.000000000000000000, 0.000000000000000000, 0.000000000000000000, 0.000000000000000000, 0.000000000000000000, 0.000000000000000000, 0.000000000000000000 ) ;
#181 = SURFACE_SIDE_STYLE ('',( #94 ) ) ;
#182 =( CONVERSION_BASED_UNIT ( 'INCH', #24 ) LENGTH_UNIT ( ) NAMED_UNIT ( #296 ) );
#183 = APPLICATION_CONTEXT ( 'automotive_design' ) ;
#184 = DIRECTION ( 'NONE',  ( 0.000000000000000000, -0.000000000000000000, 1.000000000000000000 ) ) ;
#185 = DIRECTION ( 'NONE',  ( -6.531449595452551589E-17, 1.000000000000000000, -0.000000000000000000 ) ) ;
#186 =( CONVERSION_BASED_UNIT ( 'INCH', #264 ) LENGTH_UNIT ( ) NAMED_UNIT ( #219 ) );
#187 = EDGE_CURVE ( 'NONE', #280, #91, #153, .T. ) ;
#188 = EDGE_LOOP ( 'NONE', ( #204, #267 ) ) ;
#189 = CARTESIAN_POINT ( 'NONE',  ( -0.2499999999999999722, 1.625000000000000000, 0.000000000000000000 ) ) ;
#190 = FILL_AREA_STYLE ('',( #98 ) ) ;
#191 = COLOUR_RGB ( '',0.7921568627450980005, 0.8196078431372548767, 0.9333333333333333481 ) ;
#192 = FACE_OUTER_BOUND ( 'NONE', #136, .T. ) ;
#193 = DIRECTION ( 'NONE',  ( 0.000000000000000000, 0.000000000000000000, -1.000000000000000000 ) ) ;
#194 = EDGE_CURVE ( 'NONE', #301, #260, #25, .T. ) ;
#195 = LENGTH_MEASURE_WITH_UNIT ( LENGTH_MEASURE( 0.02539999999999999897 ), #128 );
#196 = DIRECTION ( 'NONE',  ( -6.531449595452551589E-17, 1.000000000000000000, -0.000000000000000000 ) ) ;
#197 = CARTESIAN_POINT ( 'NONE',  ( 3.061616997868382402E-17, 1.625000000000000000, 0.2499999999999999722 ) ) ;
#198 = PRODUCT ( '81830', '81830', '', ( #300 ) ) ;
#199 = CARTESIAN_POINT ( 'NONE',  ( 0.000000000000000000, 0.000000000000000000, -0.2500000000000000000 ) ) ;
#200 = PRESENTATION_LAYER_ASSIGNMENT (  '', '', ( #22 ) ) ;
#201 = UNCERTAINTY_MEASURE_WITH_UNIT (LENGTH_MEASURE( 1.000000000000000082E-05 ), #186, 'distance_accuracy_value', 'NONE');
#202 = PRODUCT_RELATED_PRODUCT_CATEGORY ( 'part', '', ( #198 ) ) ;
#203 = COLOUR_RGB ( '',1.000000000000000000, 0.000000000000000000, 0.000000000000000000 ) ;
#204 = ORIENTED_EDGE ( 'NONE', *, *, #233, .T. ) ;
#205 = ADVANCED_FACE ( 'NONE', ( #75 ), #213, .T. ) ;
#206 = EDGE_LOOP ( 'NONE', ( #179, #110, #308, #114 ) ) ;
#207 = EDGE_LOOP ( 'NONE', ( #162, #249 ) ) ;
#208 = DIRECTION ( 'NONE',  ( -1.000000000000000000, 0.000000000000000000, 0.000000000000000000 ) ) ;
#209 =( GEOMETRIC_REPRESENTATION_CONTEXT ( 3 ) GLOBAL_UNCERTAINTY_ASSIGNED_CONTEXT ( ( #201 ) ) GLOBAL_UNIT_ASSIGNED_CONTEXT ( ( #186, #26, #116 ) ) REPRESENTATION_CONTEXT ( 'NONE', 'WORKASPACE' ) );
#210 = AXIS2_PLACEMENT_3D ( 'NONE', #163, #140, #265 ) ;
#211 =( LENGTH_UNIT ( ) NAMED_UNIT ( * ) SI_UNIT ( $, .METRE. ) );
#212 =( NAMED_UNIT ( * ) SI_UNIT ( $, .STERADIAN. ) SOLID_ANGLE_UNIT ( ) );
#213 = CYLINDRICAL_SURFACE ( 'NONE', #34, 0.2500000000000000000 ) ;
#214 = AXIS2_PLACEMENT_3D ( 'NONE', #55, #52, #111 ) ;
#215 =( GEOMETRIC_REPRESENTATION_CONTEXT ( 3 ) GLOBAL_UNCERTAINTY_ASSIGNED_CONTEXT ( ( #7 ) ) GLOBAL_UNIT_ASSIGNED_CONTEXT ( ( #182, #48, #82 ) ) REPRESENTATION_CONTEXT ( 'NONE', 'WORKASPACE' ) );
#216 = DIRECTION ( 'NONE',  ( -0.000000000000000000, -1.000000000000000000, -0.000000000000000000 ) ) ;
#217 = EDGE_CURVE ( 'NONE', #301, #252, #127, .T. ) ;
#218 = DIRECTION ( 'NONE',  ( 0.000000000000000000, 0.000000000000000000, -1.000000000000000000 ) ) ;
#219 = DIMENSIONAL_EXPONENTS ( 1.000000000000000000, 0.000000000000000000, 0.000000000000000000, 0.000000000000000000, 0.000000000000000000, 0.000000000000000000, 0.000000000000000000 ) ;
#220 = SURFACE_SIDE_STYLE ('',( #272 ) ) ;
#221 = SURFACE_STYLE_USAGE ( .BOTH. , #64 ) ;
#222 = FACE_OUTER_BOUND ( 'NONE', #188, .T. ) ;
#223 = DIRECTION ( 'NONE',  ( -1.000000000000000000, 0.000000000000000000, 0.000000000000000000 ) ) ;
#224 =( GEOMETRIC_REPRESENTATION_CONTEXT ( 3 ) GLOBAL_UNCERTAINTY_ASSIGNED_CONTEXT ( ( #291 ) ) GLOBAL_UNIT_ASSIGNED_CONTEXT ( ( #277, #290, #62 ) ) REPRESENTATION_CONTEXT ( 'NONE', 'WORKASPACE' ) );
#225 = APPLICATION_CONTEXT ( 'automotive_design' ) ;
#226 = DIRECTION ( 'NONE',  ( -0.000000000000000000, -1.000000000000000000, -0.000000000000000000 ) ) ;
#227 =( NAMED_UNIT ( * ) PLANE_ANGLE_UNIT ( ) SI_UNIT ( $, .RADIAN. ) );
#228 = CYLINDRICAL_SURFACE ( 'NONE', #46, 0.2500000000000000555 ) ;
#229 = VECTOR ( 'NONE', #303, 39.37007874015748143 ) ;
#230 = EDGE_LOOP ( 'NONE', ( #47, #159, #16, #259 ) ) ;
#231 = SURFACE_STYLE_FILL_AREA ( #156 ) ;
#232 = LENGTH_MEASURE_WITH_UNIT ( LENGTH_MEASURE( 0.02539999999999999897 ), #76 );
#233 = EDGE_CURVE ( 'NONE', #242, #260, #307, .T. ) ;
#234 = COLOUR_RGB ( '',1.000000000000000000, 0.000000000000000000, 0.000000000000000000 ) ;
#235 = DIMENSIONAL_EXPONENTS ( 1.000000000000000000, 0.000000000000000000, 0.000000000000000000, 0.000000000000000000, 0.000000000000000000, 0.000000000000000000, 0.000000000000000000 ) ;
#236 = ORIENTED_EDGE ( 'NONE', *, *, #104, .F. ) ;
#237 = FILL_AREA_STYLE_COLOUR ( '', #234 ) ;
#238 = ADVANCED_FACE ( 'NONE', ( #222 ), #286, .T. ) ;
#239 =( NAMED_UNIT ( * ) SI_UNIT ( $, .STERADIAN. ) SOLID_ANGLE_UNIT ( ) );
#240 = CIRCLE ( 'NONE', #60, 0.2499999999999999722 ) ;
#241 =( LENGTH_UNIT ( ) NAMED_UNIT ( * ) SI_UNIT ( $, .METRE. ) );
#242 = VERTEX_POINT ( 'NONE', #199 ) ;
#243 = DIRECTION ( 'NONE',  ( -6.531449595452551589E-17, 1.000000000000000000, -0.000000000000000000 ) ) ;
#244 = ORIENTED_EDGE ( 'NONE', *, *, #139, .F. ) ;
#245 =( GEOMETRIC_REPRESENTATION_CONTEXT ( 3 ) GLOBAL_UNCERTAINTY_ASSIGNED_CONTEXT ( ( #36 ) ) GLOBAL_UNIT_ASSIGNED_CONTEXT ( ( #246, #227, #31 ) ) REPRESENTATION_CONTEXT ( 'NONE', 'WORKASPACE' ) );
#246 =( CONVERSION_BASED_UNIT ( 'INCH', #57 ) LENGTH_UNIT ( ) NAMED_UNIT ( #180 ) );
#247 = CARTESIAN_POINT ( 'NONE',  ( -0.2500000000000001665, 3.500000000000000000, 0.000000000000000000 ) ) ;
#248 = LENGTH_MEASURE_WITH_UNIT ( LENGTH_MEASURE( 0.02539999999999999897 ), #102 );
#249 = ORIENTED_EDGE ( 'NONE', *, *, #217, .F. ) ;
#250 = DIRECTION ( 'NONE',  ( -1.000000000000000000, 0.000000000000000000, 0.000000000000000000 ) ) ;
#251 = ORIENTED_EDGE ( 'NONE', *, *, #146, .T. ) ;
#252 = VERTEX_POINT ( 'NONE', #293 ) ;
#253 = ADVANCED_FACE ( 'NONE', ( #192 ), #83, .T. ) ;
#254 = CIRCLE ( 'NONE', #112, 0.2500000000000000000 ) ;
#255 = STYLED_ITEM ( 'NONE', ( #9 ), #238 ) ;
#256 = PRESENTATION_STYLE_ASSIGNMENT (( #87 ) ) ;
#257 = STYLED_ITEM ( 'NONE', ( #261 ), #90 ) ;
#258 = LINE ( 'NONE', #18, #229 ) ;
#259 = ORIENTED_EDGE ( 'NONE', *, *, #283, .F. ) ;
#260 = VERTEX_POINT ( 'NONE', #39 ) ;
#261 = PRESENTATION_STYLE_ASSIGNMENT (( #138 ) ) ;
#262 =( GEOMETRIC_REPRESENTATION_CONTEXT ( 3 ) GLOBAL_UNCERTAINTY_ASSIGNED_CONTEXT ( ( #54 ) ) GLOBAL_UNIT_ASSIGNED_CONTEXT ( ( #20, #113, #212 ) ) REPRESENTATION_CONTEXT ( 'NONE', 'WORKASPACE' ) );
#263 = MECHANICAL_DESIGN_GEOMETRIC_PRESENTATION_REPRESENTATION (  '', ( #255 ), #298 ) ;
#264 = LENGTH_MEASURE_WITH_UNIT ( LENGTH_MEASURE( 0.02539999999999999897 ), #241 );
#265 = DIRECTION ( 'NONE',  ( -1.000000000000000000, 0.000000000000000000, 0.000000000000000000 ) ) ;
#266 = ADVANCED_FACE ( 'NONE', ( #270 ), #228, .T. ) ;
#267 = ORIENTED_EDGE ( 'NONE', *, *, #104, .T. ) ;
#268 = SURFACE_SIDE_STYLE ('',( #164 ) ) ;
#269 = MECHANICAL_DESIGN_GEOMETRIC_PRESENTATION_REPRESENTATION (  '', ( #257 ), #209 ) ;
#270 = FACE_OUTER_BOUND ( 'NONE', #206, .T. ) ;
#271 = DIRECTION ( 'NONE',  ( 0.000000000000000000, 0.000000000000000000, -1.000000000000000000 ) ) ;
#272 = SURFACE_STYLE_FILL_AREA ( #11 ) ;
#273 =( LENGTH_UNIT ( ) NAMED_UNIT ( * ) SI_UNIT ( $, .METRE. ) );
#274 = FILL_AREA_STYLE_COLOUR ( '', #134 ) ;
#275 = CLOSED_SHELL ( 'NONE', ( #205, #86, #131, #238 ) ) ;
#276 = PRESENTATION_LAYER_ASSIGNMENT (  '', '', ( #255 ) ) ;
#277 =( CONVERSION_BASED_UNIT ( 'INCH', #248 ) LENGTH_UNIT ( ) NAMED_UNIT ( #297 ) );
#278 = FILL_AREA_STYLE_COLOUR ( '', #191 ) ;
#279 = CARTESIAN_POINT ( 'NONE',  ( 0.2500000000000000000, 3.500000000000000000, 3.061616997868384251E-17 ) ) ;
#280 = VERTEX_POINT ( 'NONE', #279 ) ;
#281 = PRODUCT_DEFINITION_FORMATION_WITH_SPECIFIED_SOURCE ( 'ANY', '', #198, .NOT_KNOWN. ) ;
#282 = VERTEX_POINT ( 'NONE', #177 ) ;
#283 = EDGE_CURVE ( 'NONE', #252, #242, #258, .T. ) ;
#284 = CARTESIAN_POINT ( 'NONE',  ( 0.2499999999999998890, 3.500000000000000000, 3.061616997868383634E-17 ) ) ;
#285 = CYLINDRICAL_SURFACE ( 'NONE', #85, 0.2500000000000000000 ) ;
#286 = PLANE ( 'NONE',  #135 ) ;
#287 = COLOUR_RGB ( '',1.000000000000000000, 0.000000000000000000, 0.000000000000000000 ) ;
#288 = PRESENTATION_STYLE_ASSIGNMENT (( #99 ) ) ;
#289 = ADVANCED_FACE ( 'NONE', ( #92 ), #174, .F. ) ;
#290 =( NAMED_UNIT ( * ) PLANE_ANGLE_UNIT ( ) SI_UNIT ( $, .RADIAN. ) );
#291 = UNCERTAINTY_MEASURE_WITH_UNIT (LENGTH_MEASURE( 1.000000000000000082E-05 ), #277, 'distance_accuracy_value', 'NONE');
#292 = FACE_OUTER_BOUND ( 'NONE', #207, .T. ) ;
#293 = CARTESIAN_POINT ( 'NONE',  ( 0.000000000000000000, 1.625000000000000000, -0.2499999999999999722 ) ) ;
#294 = MANIFOLD_SOLID_BREP ( 'Revolve - Tool Body (Straight Shanked)', #70 ) ;
#295 = PRODUCT_DEFINITION_CONTEXT ( 'detailed design', #225, 'design' ) ;
#296 = DIMENSIONAL_EXPONENTS ( 1.000000000000000000, 0.000000000000000000, 0.000000000000000000, 0.000000000000000000, 0.000000000000000000, 0.000000000000000000, 0.000000000000000000 ) ;
#297 = DIMENSIONAL_EXPONENTS ( 1.000000000000000000, 0.000000000000000000, 0.000000000000000000, 0.000000000000000000, 0.000000000000000000, 0.000000000000000000, 0.000000000000000000 ) ;
#298 =( GEOMETRIC_REPRESENTATION_CONTEXT ( 3 ) GLOBAL_UNCERTAINTY_ASSIGNED_CONTEXT ( ( #152 ) ) GLOBAL_UNIT_ASSIGNED_CONTEXT ( ( #120, #80, #145 ) ) REPRESENTATION_CONTEXT ( 'NONE', 'WORKASPACE' ) );
#299 = CARTESIAN_POINT ( 'NONE',  ( 5.332479227242161866E-34, 1.625000000000000000, 0.000000000000000000 ) ) ;
#300 = PRODUCT_CONTEXT ( 'NONE', #183, 'mechanical' ) ;
#301 = VERTEX_POINT ( 'NONE', #197 ) ;
#302 = EDGE_LOOP ( 'NONE', ( #178, #305, #74, #236 ) ) ;
#303 = DIRECTION ( 'NONE',  ( -0.000000000000000000, -1.000000000000000000, -0.000000000000000000 ) ) ;
#304 = DIMENSIONAL_EXPONENTS ( 1.000000000000000000, 0.000000000000000000, 0.000000000000000000, 0.000000000000000000, 0.000000000000000000, 0.000000000000000000, 0.000000000000000000 ) ;
#305 = ORIENTED_EDGE ( 'NONE', *, *, #217, .T. ) ;
#306 = CIRCLE ( 'NONE', #126, 0.2499999999999999722 ) ;
#307 = CIRCLE ( 'NONE', #88, 0.2500000000000000000 ) ;
#308 = ORIENTED_EDGE ( 'NONE', *, *, #35, .T. ) ;
#309 = FILL_AREA_STYLE_COLOUR ( '', #84 ) ;
ENDSEC;
END-ISO-10303-21;
