ISO-10303-21;
HEADER;
FILE_DESCRIPTION (( 'STEP AP214' ),
    '1' );
FILE_NAME ('Micro_SME-029-2.STEP',
    '2021-09-02T11:31:18',
    ( '' ),
    ( '' ),
    'SwSTEP 2.0',
    'SolidWorks 2020',
    '' );
FILE_SCHEMA (( 'AUTOMOTIVE_DESIGN' ));
ENDSEC;

DATA;
#1 = VECTOR ( 'NONE', #236, 39.37007874015748143 ) ;
#2 = DIRECTION ( 'NONE',  ( -1.000000000000000000, 0.0000000000000000000, 1.224646799147353700E-16 ) ) ;
#3 = PRODUCT_DEFINITION_SHAPE ( 'NONE', 'NONE',  #123 ) ;
#4 = DIRECTION ( 'NONE',  ( -1.224646799147353700E-16, -0.0000000000000000000, -1.000000000000000000 ) ) ;
#5 = DIRECTION ( 'NONE',  ( -1.000000000000000000, 0.0000000000000000000, 1.224646799147353700E-16 ) ) ;
#6 = DIRECTION ( 'NONE',  ( 0.0000000000000000000, 0.0000000000000000000, -1.000000000000000000 ) ) ;
#7 = CARTESIAN_POINT ( 'NONE',  ( -0.04750000000000064587, 0.0000000000000000000, 1.500000000000000222 ) ) ;
#8 = DIRECTION ( 'NONE',  ( -1.224646799147353700E-16, -0.0000000000000000000, -1.000000000000000000 ) ) ;
#9 = FACE_OUTER_BOUND ( 'NONE', #59, .T. ) ;
#10 = ORIENTED_EDGE ( 'NONE', *, *, #245, .T. ) ;
#11 = ORIENTED_EDGE ( 'NONE', *, *, #64, .T. ) ;
#12 =( NAMED_UNIT ( * ) PLANE_ANGLE_UNIT ( ) SI_UNIT ( $, .RADIAN. ) );
#13 = AXIS2_PLACEMENT_3D ( 'NONE', #211, #74, #5 ) ;
#14 = ORIENTED_EDGE ( 'NONE', *, *, #245, .F. ) ;
#15 = ADVANCED_FACE ( 'NONE', ( #65 ), #202, .T. ) ;
#16 = AXIS2_PLACEMENT_3D ( 'NONE', #206, #252, #20 ) ;
#17 =( GEOMETRIC_REPRESENTATION_CONTEXT ( 3 ) GLOBAL_UNCERTAINTY_ASSIGNED_CONTEXT ( ( #269 ) ) GLOBAL_UNIT_ASSIGNED_CONTEXT ( ( #143, #97, #24 ) ) REPRESENTATION_CONTEXT ( 'NONE', 'WORKASPACE' ) );
#18 = AXIS2_PLACEMENT_3D ( 'NONE', #201, #86, #90 ) ;
#19 = FILL_AREA_STYLE ('',( #224 ) ) ;
#20 = DIRECTION ( 'NONE',  ( -1.000000000000000000, 0.0000000000000000000, 0.0000000000000000000 ) ) ;
#21 = CIRCLE ( 'NONE', #172, 0.06250000000000002776 ) ;
#22 = CARTESIAN_POINT ( 'NONE',  ( 0.0000000000000000000, 0.0000000000000000000, 0.0000000000000000000 ) ) ;
#23 = ADVANCED_FACE ( 'NONE', ( #93 ), #176, .T. ) ;
#24 =( NAMED_UNIT ( * ) SI_UNIT ( $, .STERADIAN. ) SOLID_ANGLE_UNIT ( ) );
#25 = LINE ( 'NONE', #279, #100 ) ;
#26 = VERTEX_POINT ( 'NONE', #136 ) ;
#27 = CARTESIAN_POINT ( 'NONE',  ( 0.01448550000000000185, 0.0000000000000000000, 0.04300000000000000350 ) ) ;
#28 = ORIENTED_EDGE ( 'NONE', *, *, #45, .T. ) ;
#29 = DIRECTION ( 'NONE',  ( -1.000000000000000000, 0.0000000000000000000, 0.0000000000000000000 ) ) ;
#30 = ORIENTED_EDGE ( 'NONE', *, *, #40, .T. ) ;
#31 = CARTESIAN_POINT ( 'NONE',  ( 0.0000000000000000000, 0.0000000000000000000, 1.500000000000000222 ) ) ;
#32 = ORIENTED_EDGE ( 'NONE', *, *, #265, .T. ) ;
#33 = VERTEX_POINT ( 'NONE', #299 ) ;
#34 = CARTESIAN_POINT ( 'NONE',  ( 0.0000000000000000000, 0.0000000000000000000, 1.485000000000000764 ) ) ;
#35 = CIRCLE ( 'NONE', #278, 0.04750000000000064587 ) ;
#36 = APPLICATION_CONTEXT ( 'automotive_design' ) ;
#37 =( LENGTH_UNIT ( ) NAMED_UNIT ( * ) SI_UNIT ( $, .METRE. ) );
#38 = DIMENSIONAL_EXPONENTS ( 1.000000000000000000, 0.0000000000000000000, 0.0000000000000000000, 0.0000000000000000000, 0.0000000000000000000, 0.0000000000000000000, 0.0000000000000000000 ) ;
#39 = APPLICATION_CONTEXT ( 'automotive_design' ) ;
#40 = EDGE_CURVE ( 'NONE', #104, #283, #177, .T. ) ;
#41 = CARTESIAN_POINT ( 'NONE',  ( 3.861357415796382760E-17, 0.0000000000000000000, 0.3153037609280331943 ) ) ;
#42 = MECHANICAL_DESIGN_GEOMETRIC_PRESENTATION_REPRESENTATION (  '', ( #55 ), #17 ) ;
#43 = PRODUCT_DEFINITION_FORMATION_WITH_SPECIFIED_SOURCE ( 'ANY', '', #164, .NOT_KNOWN. ) ;
#44 = CARTESIAN_POINT ( 'NONE',  ( -0.01448549999999999838, 0.0000000000000000000, 3.547924241809798328E-18 ) ) ;
#45 = EDGE_CURVE ( 'NONE', #52, #33, #72, .T. ) ;
#46 = FACE_OUTER_BOUND ( 'NONE', #57, .T. ) ;
#47 = ADVANCED_FACE ( 'NONE', ( #91 ), #277, .T. ) ;
#48 = DIRECTION ( 'NONE',  ( 1.224646799147353700E-16, 0.0000000000000000000, 1.000000000000000000 ) ) ;
#49 = CIRCLE ( 'NONE', #259, 0.06250000000000002776 ) ;
#50 = CARTESIAN_POINT ( 'NONE',  ( -0.04750000000000064587, 0.0000000000000000000, 1.500000000000000222 ) ) ;
#51 = CYLINDRICAL_SURFACE ( 'NONE', #157, 0.01448549999999999838 ) ;
#52 = VERTEX_POINT ( 'NONE', #44 ) ;
#53 = LENGTH_MEASURE_WITH_UNIT ( LENGTH_MEASURE( 0.02539999999999999897 ), #109 );
#54 = AXIS2_PLACEMENT_3D ( 'NONE', #117, #180, #276 ) ;
#55 = STYLED_ITEM ( 'NONE', ( #158 ), #84 ) ;
#56 = DIRECTION ( 'NONE',  ( 1.000000000000000000, 0.0000000000000000000, 0.0000000000000000000 ) ) ;
#57 = EDGE_LOOP ( 'NONE', ( #145, #30, #75, #242 ) ) ;
#58 = VERTEX_POINT ( 'NONE', #179 ) ;
#59 = EDGE_LOOP ( 'NONE', ( #197, #82, #32, #226 ) ) ;
#60 = STYLED_ITEM ( 'NONE', ( #133 ), #254 ) ;
#61 = PRODUCT_DEFINITION_CONTEXT ( 'detailed design', #36, 'design' ) ;
#62 = CARTESIAN_POINT ( 'NONE',  ( 0.0000000000000000000, 0.0000000000000000000, 1.500000000000000222 ) ) ;
#63 = SURFACE_STYLE_USAGE ( .BOTH. , #113 ) ;
#64 = EDGE_CURVE ( 'NONE', #205, #58, #21, .T. ) ;
#65 = FACE_OUTER_BOUND ( 'NONE', #131, .T. ) ;
#66 = EDGE_CURVE ( 'NONE', #104, #52, #114, .T. ) ;
#67 = EDGE_LOOP ( 'NONE', ( #153, #128, #297, #286 ) ) ;
#68 = VECTOR ( 'NONE', #173, 39.37007874015748143 ) ;
#69 = DIRECTION ( 'NONE',  ( 0.0000000000000000000, 0.0000000000000000000, 1.000000000000000000 ) ) ;
#70 = FACE_OUTER_BOUND ( 'NONE', #266, .T. ) ;
#71 = CARTESIAN_POINT ( 'NONE',  ( 2.172477033174835496E-34, 0.0000000000000000000, 1.773962120904899164E-18 ) ) ;
#72 = CIRCLE ( 'NONE', #189, 0.01448549999999999838 ) ;
#73 = AXIS2_PLACEMENT_3D ( 'NONE', #31, #268, #29 ) ;
#74 = DIRECTION ( 'NONE',  ( -1.224646799147353700E-16, -0.0000000000000000000, -1.000000000000000000 ) ) ;
#75 = ORIENTED_EDGE ( 'NONE', *, *, #85, .T. ) ;
#76 = DIRECTION ( 'NONE',  ( 0.0000000000000000000, 0.0000000000000000000, 1.000000000000000000 ) ) ;
#77 = EDGE_CURVE ( 'NONE', #138, #33, #223, .T. ) ;
#78 = PRESENTATION_LAYER_ASSIGNMENT (  '', '', ( #55 ) ) ;
#79 = ORIENTED_EDGE ( 'NONE', *, *, #66, .F. ) ;
#80 = DIRECTION ( 'NONE',  ( 1.224646799147353700E-16, 0.0000000000000000000, 1.000000000000000000 ) ) ;
#81 =( CONVERSION_BASED_UNIT ( 'INCH', #154 ) LENGTH_UNIT ( ) NAMED_UNIT ( #227 ) );
#82 = ORIENTED_EDGE ( 'NONE', *, *, #233, .F. ) ;
#83 = LINE ( 'NONE', #152, #1 ) ;
#84 = MANIFOLD_SOLID_BREP ( 'Cut-Revolve1', #225 ) ;
#85 = EDGE_CURVE ( 'NONE', #283, #26, #249, .T. ) ;
#86 = DIRECTION ( 'NONE',  ( 0.0000000000000000000, 0.0000000000000000000, 1.000000000000000000 ) ) ;
#87 = COLOUR_RGB ( '',0.7921568627450980005, 0.8196078431372548767, 0.9333333333333333481 ) ;
#88 = EDGE_CURVE ( 'NONE', #193, #58, #25, .T. ) ;
#89 = DIRECTION ( 'NONE',  ( -1.224646799147353700E-16, -0.0000000000000000000, -1.000000000000000000 ) ) ;
#90 = DIRECTION ( 'NONE',  ( 1.000000000000000000, 0.0000000000000000000, 0.0000000000000000000 ) ) ;
#91 = FACE_OUTER_BOUND ( 'NONE', #115, .T. ) ;
#92 = CIRCLE ( 'NONE', #270, 0.01448549999999999664 ) ;
#93 = FACE_OUTER_BOUND ( 'NONE', #130, .T. ) ;
#94 = EDGE_LOOP ( 'NONE', ( #14, #151, #263, #107 ) ) ;
#95 = DIRECTION ( 'NONE',  ( 1.000000000000000000, 0.0000000000000000000, 0.0000000000000000000 ) ) ;
#96 = VECTOR ( 'NONE', #167, 39.37007874015748143 ) ;
#97 =( NAMED_UNIT ( * ) PLANE_ANGLE_UNIT ( ) SI_UNIT ( $, .RADIAN. ) );
#98 = DIRECTION ( 'NONE',  ( -1.000000000000000000, 0.0000000000000000000, 0.0000000000000000000 ) ) ;
#99 = FACE_OUTER_BOUND ( 'NONE', #199, .T. ) ;
#100 = VECTOR ( 'NONE', #120, 39.37007874015748854 ) ;
#101 = ORIENTED_EDGE ( 'NONE', *, *, #293, .F. ) ;
#102 = EDGE_CURVE ( 'NONE', #193, #218, #288, .T. ) ;
#103 = FACE_OUTER_BOUND ( 'NONE', #214, .T. ) ;
#104 = VERTEX_POINT ( 'NONE', #261 ) ;
#105 = DIRECTION ( 'NONE',  ( -1.224646799147353700E-16, -0.0000000000000000000, -1.000000000000000000 ) ) ;
#106 = CONICAL_SURFACE ( 'NONE', #207, 0.01448549999999999664, 0.1745329251994338637 ) ;
#107 = ORIENTED_EDGE ( 'NONE', *, *, #148, .F. ) ;
#108 = DIRECTION ( 'NONE',  ( 1.000000000000000000, 0.0000000000000000000, 0.0000000000000000000 ) ) ;
#109 =( LENGTH_UNIT ( ) NAMED_UNIT ( * ) SI_UNIT ( $, .METRE. ) );
#110 = AXIS2_PLACEMENT_3D ( 'NONE', #71, #8, #228 ) ;
#111 = DIRECTION ( 'NONE',  ( -1.224646799147353700E-16, -0.0000000000000000000, -1.000000000000000000 ) ) ;
#112 =( GEOMETRIC_REPRESENTATION_CONTEXT ( 3 ) GLOBAL_UNCERTAINTY_ASSIGNED_CONTEXT ( ( #132 ) ) GLOBAL_UNIT_ASSIGNED_CONTEXT ( ( #146, #175, #275 ) ) REPRESENTATION_CONTEXT ( 'NONE', 'WORKASPACE' ) );
#113 = SURFACE_SIDE_STYLE ('',( #159 ) ) ;
#114 = LINE ( 'NONE', #274, #178 ) ;
#115 = EDGE_LOOP ( 'NONE', ( #11, #10, #181, #149 ) ) ;
#116 =( GEOMETRIC_REPRESENTATION_CONTEXT ( 3 ) GLOBAL_UNCERTAINTY_ASSIGNED_CONTEXT ( ( #243 ) ) GLOBAL_UNIT_ASSIGNED_CONTEXT ( ( #81, #12, #198 ) ) REPRESENTATION_CONTEXT ( 'NONE', 'WORKASPACE' ) );
#117 = CARTESIAN_POINT ( 'NONE',  ( 0.0000000000000000000, 0.0000000000000000000, 1.500000000000000222 ) ) ;
#118 = DIRECTION ( 'NONE',  ( 0.0000000000000000000, 0.0000000000000000000, 1.000000000000000000 ) ) ;
#119 = AXIS2_PLACEMENT_3D ( 'NONE', #41, #4, #95 ) ;
#120 = DIRECTION ( 'NONE',  ( 0.7071067811865462405, 8.659560562354916834E-17, -0.7071067811865486830 ) ) ;
#121 = ADVANCED_FACE ( 'NONE', ( #70 ), #122, .F. ) ;
#122 = PLANE ( 'NONE',  #126 ) ;
#123 = PRODUCT_DEFINITION ( 'UNKNOWN', '', #43, #61 ) ;
#124 = ORIENTED_EDGE ( 'NONE', *, *, #240, .T. ) ;
#125 = CARTESIAN_POINT ( 'NONE',  ( -0.06250000000000002776, 0.0000000000000000000, 1.500000000000000222 ) ) ;
#126 = AXIS2_PLACEMENT_3D ( 'NONE', #22, #69, #141 ) ;
#127 = ORIENTED_EDGE ( 'NONE', *, *, #134, .F. ) ;
#128 = ORIENTED_EDGE ( 'NONE', *, *, #88, .T. ) ;
#129 = DIRECTION ( 'NONE',  ( -1.224646799147353700E-16, -0.0000000000000000000, -1.000000000000000000 ) ) ;
#130 = EDGE_LOOP ( 'NONE', ( #251, #190 ) ) ;
#131 = EDGE_LOOP ( 'NONE', ( #267, #101, #208, #204 ) ) ;
#132 = UNCERTAINTY_MEASURE_WITH_UNIT (LENGTH_MEASURE( 1.000000000000000082E-05 ), #146, 'distance_accuracy_value', 'NONE');
#133 = PRESENTATION_STYLE_ASSIGNMENT (( #221 ) ) ;
#134 = EDGE_CURVE ( 'NONE', #33, #52, #135, .T. ) ;
#135 = CIRCLE ( 'NONE', #110, 0.01448549999999999838 ) ;
#136 = CARTESIAN_POINT ( 'NONE',  ( 0.06250000000000006939, 7.654042494670963708E-18, 0.3153037609280331943 ) ) ;
#137 = PRODUCT_RELATED_PRODUCT_CATEGORY ( 'part', '', ( #164 ) ) ;
#138 = VERTEX_POINT ( 'NONE', #27 ) ;
#139 = DIRECTION ( 'NONE',  ( 1.000000000000000000, 0.0000000000000000000, 0.0000000000000000000 ) ) ;
#140 = CIRCLE ( 'NONE', #237, 0.06250000000000002776 ) ;
#141 = DIRECTION ( 'NONE',  ( 1.000000000000000000, 0.0000000000000000000, -0.0000000000000000000 ) ) ;
#142 = CARTESIAN_POINT ( 'NONE',  ( 5.265981236333620997E-18, 0.0000000000000000000, 0.04300000000000000350 ) ) ;
#143 =( CONVERSION_BASED_UNIT ( 'INCH', #282 ) LENGTH_UNIT ( ) NAMED_UNIT ( #38 ) );
#144 = DIRECTION ( 'NONE',  ( 1.000000000000000000, 0.0000000000000000000, 0.0000000000000000000 ) ) ;
#145 = ORIENTED_EDGE ( 'NONE', *, *, #240, .F. ) ;
#146 =( CONVERSION_BASED_UNIT ( 'INCH', #53 ) LENGTH_UNIT ( ) NAMED_UNIT ( #290 ) );
#147 = MECHANICAL_DESIGN_GEOMETRIC_PRESENTATION_REPRESENTATION (  '', ( #60 ), #112 ) ;
#148 = EDGE_CURVE ( 'NONE', #26, #283, #49, .T. ) ;
#149 = ORIENTED_EDGE ( 'NONE', *, *, #161, .F. ) ;
#150 = CARTESIAN_POINT ( 'NONE',  ( 5.265981236333620997E-18, 0.0000000000000000000, 0.04300000000000000350 ) ) ;
#151 = ORIENTED_EDGE ( 'NONE', *, *, #291, .T. ) ;
#152 = CARTESIAN_POINT ( 'NONE',  ( 0.01448550000000000185, 0.0000000000000000000, 0.04300000000000000350 ) ) ;
#153 = ORIENTED_EDGE ( 'NONE', *, *, #102, .F. ) ;
#154 = LENGTH_MEASURE_WITH_UNIT ( LENGTH_MEASURE( 0.02539999999999999897 ), #37 );
#155 = CARTESIAN_POINT ( 'NONE',  ( 0.0000000000000000000, 0.0000000000000000000, 1.485000000000000764 ) ) ;
#156 = DIRECTION ( 'NONE',  ( -0.1736481776669311639, 2.126576849575783008E-17, 0.9848077530122080203 ) ) ;
#157 = AXIS2_PLACEMENT_3D ( 'NONE', #257, #255, #260 ) ;
#158 = PRESENTATION_STYLE_ASSIGNMENT (( #63 ) ) ;
#159 = SURFACE_STYLE_FILL_AREA ( #19 ) ;
#160 = DIRECTION ( 'NONE',  ( -0.0000000000000000000, -0.0000000000000000000, -1.000000000000000000 ) ) ;
#161 = EDGE_CURVE ( 'NONE', #205, #283, #192, .T. ) ;
#162 = CARTESIAN_POINT ( 'NONE',  ( 0.0000000000000000000, 0.0000000000000000000, 1.500000000000000222 ) ) ;
#163 = AXIS2_PLACEMENT_3D ( 'NONE', #162, #118, #144 ) ;
#164 = PRODUCT ( 'Micro_SME-029-2', 'Micro_SME-029-2', '', ( #296 ) ) ;
#165 = DIRECTION ( 'NONE',  ( 1.000000000000000000, 0.0000000000000000000, 0.0000000000000000000 ) ) ;
#166 = ADVANCED_FACE ( 'NONE', ( #103 ), #51, .T. ) ;
#167 = DIRECTION ( 'NONE',  ( -0.0000000000000000000, -0.0000000000000000000, -1.000000000000000000 ) ) ;
#168 = VECTOR ( 'NONE', #111, 39.37007874015748143 ) ;
#169 = DIRECTION ( 'NONE',  ( 1.000000000000000000, 0.0000000000000000000, 0.0000000000000000000 ) ) ;
#170 = FILL_AREA_STYLE ('',( #195 ) ) ;
#171 = VECTOR ( 'NONE', #156, 39.37007874015747433 ) ;
#172 = AXIS2_PLACEMENT_3D ( 'NONE', #155, #272, #139 ) ;
#173 = DIRECTION ( 'NONE',  ( -0.0000000000000000000, -0.0000000000000000000, -1.000000000000000000 ) ) ;
#174 = CONICAL_SURFACE ( 'NONE', #220, 0.01448549999999999664, 0.1745329251994338637 ) ;
#175 =( NAMED_UNIT ( * ) PLANE_ANGLE_UNIT ( ) SI_UNIT ( $, .RADIAN. ) );
#176 = PLANE ( 'NONE',  #54 ) ;
#177 = LINE ( 'NONE', #298, #171 ) ;
#178 = VECTOR ( 'NONE', #89, 39.37007874015748143 ) ;
#179 = CARTESIAN_POINT ( 'NONE',  ( 0.06250000000000002776, 7.654042494670959086E-18, 1.485000000000000764 ) ) ;
#180 = DIRECTION ( 'NONE',  ( 0.0000000000000000000, 0.0000000000000000000, 1.000000000000000000 ) ) ;
#181 = ORIENTED_EDGE ( 'NONE', *, *, #85, .F. ) ;
#182 = AXIS2_PLACEMENT_3D ( 'NONE', #232, #6, #98 ) ;
#183 = DIRECTION ( 'NONE',  ( -1.224646799147353700E-16, -0.0000000000000000000, -1.000000000000000000 ) ) ;
#184 = ADVANCED_FACE ( 'NONE', ( #46 ), #174, .T. ) ;
#185 = FACE_OUTER_BOUND ( 'NONE', #67, .T. ) ;
#186 = ADVANCED_FACE ( 'NONE', ( #99 ), #229, .T. ) ;
#187 = CARTESIAN_POINT ( 'NONE',  ( -0.06250000000000002776, 0.0000000000000000000, 1.485000000000000764 ) ) ;
#188 = CARTESIAN_POINT ( 'NONE',  ( 0.04750000000000064587, 6.735557395310483192E-18, 1.500000000000000222 ) ) ;
#189 = AXIS2_PLACEMENT_3D ( 'NONE', #209, #250, #2 ) ;
#190 = ORIENTED_EDGE ( 'NONE', *, *, #102, .T. ) ;
#191 = ADVANCED_FACE ( 'NONE', ( #185 ), #196, .T. ) ;
#192 = LINE ( 'NONE', #125, #96 ) ;
#193 = VERTEX_POINT ( 'NONE', #188 ) ;
#194 = CARTESIAN_POINT ( 'NONE',  ( 0.06250000000000002776, 7.654042494670959086E-18, 1.500000000000000222 ) ) ;
#195 = FILL_AREA_STYLE_COLOUR ( '', #87 ) ;
#196 = CONICAL_SURFACE ( 'NONE', #182, 0.04750000000000064587, 0.7853981633974466137 ) ;
#197 = ORIENTED_EDGE ( 'NONE', *, *, #40, .F. ) ;
#198 =( NAMED_UNIT ( * ) SI_UNIT ( $, .STERADIAN. ) SOLID_ANGLE_UNIT ( ) );
#199 = EDGE_LOOP ( 'NONE', ( #235, #284, #271, #127 ) ) ;
#200 = FACE_OUTER_BOUND ( 'NONE', #94, .T. ) ;
#201 = CARTESIAN_POINT ( 'NONE',  ( 0.0000000000000000000, 0.0000000000000000000, 0.0000000000000000000 ) ) ;
#202 = CONICAL_SURFACE ( 'NONE', #16, 0.04750000000000064587, 0.7853981633974466137 ) ;
#203 = SHAPE_DEFINITION_REPRESENTATION ( #3, #254 ) ;
#204 = ORIENTED_EDGE ( 'NONE', *, *, #291, .F. ) ;
#205 = VERTEX_POINT ( 'NONE', #187 ) ;
#206 = CARTESIAN_POINT ( 'NONE',  ( 0.0000000000000000000, 0.0000000000000000000, 1.500000000000000222 ) ) ;
#207 = AXIS2_PLACEMENT_3D ( 'NONE', #241, #80, #285 ) ;
#208 = ORIENTED_EDGE ( 'NONE', *, *, #212, .T. ) ;
#209 = CARTESIAN_POINT ( 'NONE',  ( 2.172477033174835496E-34, 0.0000000000000000000, 1.773962120904899164E-18 ) ) ;
#210 = COLOUR_RGB ( '',0.7921568627450980005, 0.8196078431372548767, 0.9333333333333333481 ) ;
#211 = CARTESIAN_POINT ( 'NONE',  ( 0.0000000000000000000, 0.0000000000000000000, 0.0000000000000000000 ) ) ;
#212 = EDGE_CURVE ( 'NONE', #218, #205, #213, .T. ) ;
#213 = LINE ( 'NONE', #7, #281 ) ;
#214 = EDGE_LOOP ( 'NONE', ( #124, #246, #238, #79 ) ) ;
#215 = PRESENTATION_LAYER_ASSIGNMENT (  '', '', ( #60 ) ) ;
#216 = DIRECTION ( 'NONE',  ( -1.000000000000000000, 0.0000000000000000000, 0.0000000000000000000 ) ) ;
#217 = DIRECTION ( 'NONE',  ( -1.000000000000000000, 0.0000000000000000000, 0.0000000000000000000 ) ) ;
#218 = VERTEX_POINT ( 'NONE', #50 ) ;
#219 = CARTESIAN_POINT ( 'NONE',  ( -0.06249999999999997918, 0.0000000000000000000, 0.3153037609280331943 ) ) ;
#220 = AXIS2_PLACEMENT_3D ( 'NONE', #142, #48, #169 ) ;
#221 = SURFACE_STYLE_USAGE ( .BOTH. , #287 ) ;
#222 = LINE ( 'NONE', #194, #68 ) ;
#223 = LINE ( 'NONE', #248, #168 ) ;
#224 = FILL_AREA_STYLE_COLOUR ( '', #210 ) ;
#225 = CLOSED_SHELL ( 'NONE', ( #166, #184, #191, #47, #273, #23, #15, #256, #186, #121 ) ) ;
#226 = ORIENTED_EDGE ( 'NONE', *, *, #148, .T. ) ;
#227 = DIMENSIONAL_EXPONENTS ( 1.000000000000000000, 0.0000000000000000000, 0.0000000000000000000, 0.0000000000000000000, 0.0000000000000000000, 0.0000000000000000000, 0.0000000000000000000 ) ;
#228 = DIRECTION ( 'NONE',  ( -1.000000000000000000, 0.0000000000000000000, 1.224646799147353700E-16 ) ) ;
#229 = CYLINDRICAL_SURFACE ( 'NONE', #13, 0.01448549999999999838 ) ;
#230 = CIRCLE ( 'NONE', #294, 0.01448549999999999664 ) ;
#231 =( LENGTH_UNIT ( ) NAMED_UNIT ( * ) SI_UNIT ( $, .METRE. ) );
#232 = CARTESIAN_POINT ( 'NONE',  ( 0.0000000000000000000, 0.0000000000000000000, 1.500000000000000222 ) ) ;
#233 = EDGE_CURVE ( 'NONE', #138, #104, #230, .T. ) ;
#234 = CARTESIAN_POINT ( 'NONE',  ( 5.265981236333620997E-18, 0.0000000000000000000, 0.04300000000000000350 ) ) ;
#235 = ORIENTED_EDGE ( 'NONE', *, *, #77, .F. ) ;
#236 = DIRECTION ( 'NONE',  ( 0.1736481776669313581, 0.0000000000000000000, 0.9848077530122077983 ) ) ;
#237 = AXIS2_PLACEMENT_3D ( 'NONE', #34, #262, #108 ) ;
#238 = ORIENTED_EDGE ( 'NONE', *, *, #45, .F. ) ;
#239 = ORIENTED_EDGE ( 'NONE', *, *, #134, .T. ) ;
#240 = EDGE_CURVE ( 'NONE', #104, #138, #92, .T. ) ;
#241 = CARTESIAN_POINT ( 'NONE',  ( 5.265981236333620997E-18, 0.0000000000000000000, 0.04300000000000000350 ) ) ;
#242 = ORIENTED_EDGE ( 'NONE', *, *, #265, .F. ) ;
#243 = UNCERTAINTY_MEASURE_WITH_UNIT (LENGTH_MEASURE( 1.000000000000000082E-05 ), #81, 'distance_accuracy_value', 'NONE');
#244 = SURFACE_STYLE_FILL_AREA ( #170 ) ;
#245 = EDGE_CURVE ( 'NONE', #58, #26, #222, .T. ) ;
#246 = ORIENTED_EDGE ( 'NONE', *, *, #77, .T. ) ;
#247 = APPLICATION_PROTOCOL_DEFINITION ( 'draft international standard', 'automotive_design', 1998, #36 ) ;
#248 = CARTESIAN_POINT ( 'NONE',  ( 0.01448549999999999838, 1.773962120904898394E-18, -1.773962120904899164E-18 ) ) ;
#249 = CIRCLE ( 'NONE', #119, 0.06250000000000002776 ) ;
#250 = DIRECTION ( 'NONE',  ( -1.224646799147353700E-16, -0.0000000000000000000, -1.000000000000000000 ) ) ;
#251 = ORIENTED_EDGE ( 'NONE', *, *, #293, .T. ) ;
#252 = DIRECTION ( 'NONE',  ( 0.0000000000000000000, 0.0000000000000000000, -1.000000000000000000 ) ) ;
#253 = AXIS2_PLACEMENT_3D ( 'NONE', #62, #160, #295 ) ;
#254 = ADVANCED_BREP_SHAPE_REPRESENTATION ( 'Micro_SME-029-2', ( #84, #18 ), #116 ) ;
#255 = DIRECTION ( 'NONE',  ( -1.224646799147353700E-16, -0.0000000000000000000, -1.000000000000000000 ) ) ;
#256 = ADVANCED_FACE ( 'NONE', ( #9 ), #106, .T. ) ;
#257 = CARTESIAN_POINT ( 'NONE',  ( 0.0000000000000000000, 0.0000000000000000000, 0.0000000000000000000 ) ) ;
#258 = CARTESIAN_POINT ( 'NONE',  ( 3.861357415796382760E-17, 0.0000000000000000000, 0.3153037609280331943 ) ) ;
#259 = AXIS2_PLACEMENT_3D ( 'NONE', #258, #183, #165 ) ;
#260 = DIRECTION ( 'NONE',  ( -1.000000000000000000, 0.0000000000000000000, 1.224646799147353700E-16 ) ) ;
#261 = CARTESIAN_POINT ( 'NONE',  ( -0.01448549999999999317, 4.714002307787929895E-18, 0.04300000000000000350 ) ) ;
#262 = DIRECTION ( 'NONE',  ( 0.0000000000000000000, 0.0000000000000000000, -1.000000000000000000 ) ) ;
#263 = ORIENTED_EDGE ( 'NONE', *, *, #161, .T. ) ;
#264 = CARTESIAN_POINT ( 'NONE',  ( 0.0000000000000000000, 0.0000000000000000000, 1.500000000000000222 ) ) ;
#265 = EDGE_CURVE ( 'NONE', #138, #26, #83, .T. ) ;
#266 = EDGE_LOOP ( 'NONE', ( #28, #239 ) ) ;
#267 = ORIENTED_EDGE ( 'NONE', *, *, #88, .F. ) ;
#268 = DIRECTION ( 'NONE',  ( -0.0000000000000000000, -0.0000000000000000000, -1.000000000000000000 ) ) ;
#269 = UNCERTAINTY_MEASURE_WITH_UNIT (LENGTH_MEASURE( 1.000000000000000082E-05 ), #143, 'distance_accuracy_value', 'NONE');
#270 = AXIS2_PLACEMENT_3D ( 'NONE', #150, #105, #217 ) ;
#271 = ORIENTED_EDGE ( 'NONE', *, *, #66, .T. ) ;
#272 = DIRECTION ( 'NONE',  ( 0.0000000000000000000, 0.0000000000000000000, -1.000000000000000000 ) ) ;
#273 = ADVANCED_FACE ( 'NONE', ( #200 ), #289, .T. ) ;
#274 = CARTESIAN_POINT ( 'NONE',  ( -0.01448549999999999838, 0.0000000000000000000, 1.773962120904899164E-18 ) ) ;
#275 =( NAMED_UNIT ( * ) SI_UNIT ( $, .STERADIAN. ) SOLID_ANGLE_UNIT ( ) );
#276 = DIRECTION ( 'NONE',  ( 1.000000000000000000, 0.0000000000000000000, -0.0000000000000000000 ) ) ;
#277 = CYLINDRICAL_SURFACE ( 'NONE', #253, 0.06250000000000002776 ) ;
#278 = AXIS2_PLACEMENT_3D ( 'NONE', #264, #76, #56 ) ;
#279 = CARTESIAN_POINT ( 'NONE',  ( 0.04750000000000064587, 5.817072295950006528E-18, 1.500000000000000222 ) ) ;
#280 = DIRECTION ( 'NONE',  ( -0.7071067811865462405, 0.0000000000000000000, -0.7071067811865486830 ) ) ;
#281 = VECTOR ( 'NONE', #280, 39.37007874015748854 ) ;
#282 = LENGTH_MEASURE_WITH_UNIT ( LENGTH_MEASURE( 0.02539999999999999897 ), #231 );
#283 = VERTEX_POINT ( 'NONE', #219 ) ;
#284 = ORIENTED_EDGE ( 'NONE', *, *, #233, .T. ) ;
#285 = DIRECTION ( 'NONE',  ( 1.000000000000000000, 0.0000000000000000000, 0.0000000000000000000 ) ) ;
#286 = ORIENTED_EDGE ( 'NONE', *, *, #212, .F. ) ;
#287 = SURFACE_SIDE_STYLE ('',( #244 ) ) ;
#288 = CIRCLE ( 'NONE', #163, 0.04750000000000064587 ) ;
#289 = CYLINDRICAL_SURFACE ( 'NONE', #73, 0.06250000000000002776 ) ;
#290 = DIMENSIONAL_EXPONENTS ( 1.000000000000000000, 0.0000000000000000000, 0.0000000000000000000, 0.0000000000000000000, 0.0000000000000000000, 0.0000000000000000000, 0.0000000000000000000 ) ;
#291 = EDGE_CURVE ( 'NONE', #58, #205, #140, .T. ) ;
#292 = APPLICATION_PROTOCOL_DEFINITION ( 'draft international standard', 'automotive_design', 1998, #39 ) ;
#293 = EDGE_CURVE ( 'NONE', #218, #193, #35, .T. ) ;
#294 = AXIS2_PLACEMENT_3D ( 'NONE', #234, #129, #216 ) ;
#295 = DIRECTION ( 'NONE',  ( -1.000000000000000000, 0.0000000000000000000, 0.0000000000000000000 ) ) ;
#296 = PRODUCT_CONTEXT ( 'NONE', #39, 'mechanical' ) ;
#297 = ORIENTED_EDGE ( 'NONE', *, *, #64, .F. ) ;
#298 = CARTESIAN_POINT ( 'NONE',  ( -0.01448549999999999317, 1.773962120904898008E-18, 0.04300000000000000350 ) ) ;
#299 = CARTESIAN_POINT ( 'NONE',  ( 0.01448549999999999838, 1.773962120904898394E-18, 0.0000000000000000000 ) ) ;
ENDSEC;
END-ISO-10303-21;
