ISO-10303-21;
HEADER;
FILE_DESCRIPTION (( 'STEP AP214' ),
    '1' );
FILE_NAME ('86070.STEP',
    '2023-06-23T16:27:34',
    ( '' ),
    ( '' ),
    'SwSTEP 2.0',
    'SolidWorks 2023',
    '' );
FILE_SCHEMA (( 'AUTOMOTIVE_DESIGN' ));
ENDSEC;

DATA;
#1 = PRODUCT_RELATED_PRODUCT_CATEGORY ( 'part', '', ( #278 ) ) ;
#2 = AXIS2_PLACEMENT_3D ( 'NONE', #246, #268, #220 ) ;
#3 = VERTEX_POINT ( 'NONE', #99 ) ;
#4 = UNCERTAINTY_MEASURE_WITH_UNIT (LENGTH_MEASURE( 1.000000000000000082E-05 ), #101, 'distance_accuracy_value', 'NONE');
#5 = LENGTH_MEASURE_WITH_UNIT ( LENGTH_MEASURE( 0.02539999999999999897 ), #68 );
#6 = SURFACE_SIDE_STYLE ('',( #72 ) ) ;
#7 = CARTESIAN_POINT ( 'NONE',  ( 0.000000000000000000, 0.000000000000000000, 0.000000000000000000 ) ) ;
#8 = MANIFOLD_SOLID_BREP ( 'Revolve - Cutting Edge', #259 ) ;
#9 = UNCERTAINTY_MEASURE_WITH_UNIT (LENGTH_MEASURE( 1.000000000000000082E-05 ), #267, 'distance_accuracy_value', 'NONE');
#10 = PRESENTATION_STYLE_ASSIGNMENT (( #102 ) ) ;
#11 = SURFACE_STYLE_FILL_AREA ( #107 ) ;
#12 = FACE_OUTER_BOUND ( 'NONE', #262, .T. ) ;
#13 = FACE_OUTER_BOUND ( 'NONE', #257, .T. ) ;
#14 = VERTEX_POINT ( 'NONE', #169 ) ;
#15 =( GEOMETRIC_REPRESENTATION_CONTEXT ( 3 ) GLOBAL_UNCERTAINTY_ASSIGNED_CONTEXT ( ( #71 ) ) GLOBAL_UNIT_ASSIGNED_CONTEXT ( ( #178, #109, #56 ) ) REPRESENTATION_CONTEXT ( 'NONE', 'WORKASPACE' ) );
#16 = MECHANICAL_DESIGN_GEOMETRIC_PRESENTATION_REPRESENTATION (  '', ( #235 ), #88 ) ;
#17 = DIRECTION ( 'NONE',  ( -5.156407575357281462E-17, 1.000000000000000000, -0.000000000000000000 ) ) ;
#18 = EDGE_LOOP ( 'NONE', ( #128, #130, #215, #65 ) ) ;
#19 = DIRECTION ( 'NONE',  ( -0.000000000000000000, -1.000000000000000000, -0.000000000000000000 ) ) ;
#20 = PRESENTATION_LAYER_ASSIGNMENT (  '', '', ( #294 ) ) ;
#21 =( NAMED_UNIT ( * ) PLANE_ANGLE_UNIT ( ) SI_UNIT ( $, .RADIAN. ) );
#22 = DIMENSIONAL_EXPONENTS ( 1.000000000000000000, 0.000000000000000000, 0.000000000000000000, 0.000000000000000000, 0.000000000000000000, 0.000000000000000000, 0.000000000000000000 ) ;
#23 = CARTESIAN_POINT ( 'NONE',  ( 0.000000000000000000, 3.625000000000000444, 0.000000000000000000 ) ) ;
#24 = PRESENTATION_LAYER_ASSIGNMENT (  '', '', ( #172 ) ) ;
#25 = PLANE ( 'NONE',  #146 ) ;
#26 =( GEOMETRIC_REPRESENTATION_CONTEXT ( 3 ) GLOBAL_UNCERTAINTY_ASSIGNED_CONTEXT ( ( #4 ) ) GLOBAL_UNIT_ASSIGNED_CONTEXT ( ( #101, #224, #243 ) ) REPRESENTATION_CONTEXT ( 'NONE', 'WORKASPACE' ) );
#27 = LENGTH_MEASURE_WITH_UNIT ( LENGTH_MEASURE( 0.02539999999999999897 ), #199 );
#28 = DIRECTION ( 'NONE',  ( -1.000000000000000000, 0.000000000000000000, 0.000000000000000000 ) ) ;
#29 = SURFACE_STYLE_FILL_AREA ( #124 ) ;
#30 = EDGE_CURVE ( 'NONE', #309, #14, #132, .T. ) ;
#31 = ORIENTED_EDGE ( 'NONE', *, *, #198, .F. ) ;
#32 = CIRCLE ( 'NONE', #70, 0.2500000000000000000 ) ;
#33 = CARTESIAN_POINT ( 'NONE',  ( 0.000000000000000000, 3.625000000000000444, 0.000000000000000000 ) ) ;
#34 = FACE_OUTER_BOUND ( 'NONE', #60, .T. ) ;
#35 = VECTOR ( 'NONE', #133, 39.37007874015748143 ) ;
#36 = PRODUCT_DEFINITION ( 'UNKNOWN', '', #306, #81 ) ;
#37 = LENGTH_MEASURE_WITH_UNIT ( LENGTH_MEASURE( 0.02539999999999999897 ), #160 );
#38 = CYLINDRICAL_SURFACE ( 'NONE', #196, 0.2500000000000000000 ) ;
#39 = ORIENTED_EDGE ( 'NONE', *, *, #61, .T. ) ;
#40 = LINE ( 'NONE', #164, #108 ) ;
#41 = DIMENSIONAL_EXPONENTS ( 1.000000000000000000, 0.000000000000000000, 0.000000000000000000, 0.000000000000000000, 0.000000000000000000, 0.000000000000000000, 0.000000000000000000 ) ;
#42 = VERTEX_POINT ( 'NONE', #291 ) ;
#43 = ADVANCED_FACE ( 'NONE', ( #242 ), #175, .T. ) ;
#44 = APPLICATION_PROTOCOL_DEFINITION ( 'draft international standard', 'automotive_design', 1998, #203 ) ;
#45 = CARTESIAN_POINT ( 'NONE',  ( 0.000000000000000000, 0.000000000000000000, 0.000000000000000000 ) ) ;
#46 = PRESENTATION_STYLE_ASSIGNMENT (( #219 ) ) ;
#47 = MECHANICAL_DESIGN_GEOMETRIC_PRESENTATION_REPRESENTATION (  '', ( #266 ), #57 ) ;
#48 = DIRECTION ( 'NONE',  ( -1.000000000000000000, -5.156407575357281462E-17, 0.000000000000000000 ) ) ;
#49 =( NAMED_UNIT ( * ) PLANE_ANGLE_UNIT ( ) SI_UNIT ( $, .RADIAN. ) );
#50 =( NAMED_UNIT ( * ) PLANE_ANGLE_UNIT ( ) SI_UNIT ( $, .RADIAN. ) );
#51 =( LENGTH_UNIT ( ) NAMED_UNIT ( * ) SI_UNIT ( $, .METRE. ) );
#52 = CARTESIAN_POINT ( 'NONE',  ( -0.2500000000000002220, 6.000000000000000888, 0.000000000000000000 ) ) ;
#53 = AXIS2_PLACEMENT_3D ( 'NONE', #64, #282, #161 ) ;
#54 = EDGE_CURVE ( 'NONE', #97, #42, #32, .T. ) ;
#55 = CARTESIAN_POINT ( 'NONE',  ( 0.000000000000000000, 3.625000000000000444, 0.000000000000000000 ) ) ;
#56 =( NAMED_UNIT ( * ) SI_UNIT ( $, .STERADIAN. ) SOLID_ANGLE_UNIT ( ) );
#57 =( GEOMETRIC_REPRESENTATION_CONTEXT ( 3 ) GLOBAL_UNCERTAINTY_ASSIGNED_CONTEXT ( ( #250 ) ) GLOBAL_UNIT_ASSIGNED_CONTEXT ( ( #179, #206, #202 ) ) REPRESENTATION_CONTEXT ( 'NONE', 'WORKASPACE' ) );
#58 =( NAMED_UNIT ( * ) PLANE_ANGLE_UNIT ( ) SI_UNIT ( $, .RADIAN. ) );
#59 =( CONVERSION_BASED_UNIT ( 'INCH', #111 ) LENGTH_UNIT ( ) NAMED_UNIT ( #186 ) );
#60 = EDGE_LOOP ( 'NONE', ( #119, #117 ) ) ;
#61 = EDGE_CURVE ( 'NONE', #144, #3, #166, .T. ) ;
#62 = FACE_OUTER_BOUND ( 'NONE', #18, .T. ) ;
#63 = AXIS2_PLACEMENT_3D ( 'NONE', #218, #76, #195 ) ;
#64 = CARTESIAN_POINT ( 'NONE',  ( -1.224646799147354440E-16, 6.000000000000000888, 0.000000000000000000 ) ) ;
#65 = ORIENTED_EDGE ( 'NONE', *, *, #300, .F. ) ;
#66 = CYLINDRICAL_SURFACE ( 'NONE', #53, 0.2500000000000000555 ) ;
#67 = EDGE_LOOP ( 'NONE', ( #265, #113 ) ) ;
#68 =( LENGTH_UNIT ( ) NAMED_UNIT ( * ) SI_UNIT ( $, .METRE. ) );
#69 = PRESENTATION_STYLE_ASSIGNMENT (( #165 ) ) ;
#70 = AXIS2_PLACEMENT_3D ( 'NONE', #7, #157, #296 ) ;
#71 = UNCERTAINTY_MEASURE_WITH_UNIT (LENGTH_MEASURE( 1.000000000000000082E-05 ), #178, 'distance_accuracy_value', 'NONE');
#72 = SURFACE_STYLE_FILL_AREA ( #288 ) ;
#73 = DIRECTION ( 'NONE',  ( -5.156407575357281462E-17, 1.000000000000000000, -0.000000000000000000 ) ) ;
#74 =( NAMED_UNIT ( * ) SI_UNIT ( $, .STERADIAN. ) SOLID_ANGLE_UNIT ( ) );
#75 = MECHANICAL_DESIGN_GEOMETRIC_PRESENTATION_REPRESENTATION (  '', ( #222 ), #15 ) ;
#76 = DIRECTION ( 'NONE',  ( 0.000000000000000000, 0.000000000000000000, 1.000000000000000000 ) ) ;
#77 = AXIS2_PLACEMENT_3D ( 'NONE', #238, #123, #121 ) ;
#78 =( CONVERSION_BASED_UNIT ( 'INCH', #27 ) LENGTH_UNIT ( ) NAMED_UNIT ( #299 ) );
#79 = DIRECTION ( 'NONE',  ( -5.156407575357281462E-17, 1.000000000000000000, -0.000000000000000000 ) ) ;
#80 = MECHANICAL_DESIGN_GEOMETRIC_PRESENTATION_REPRESENTATION (  '', ( #172 ), #239 ) ;
#81 = PRODUCT_DEFINITION_CONTEXT ( 'detailed design', #203, 'design' ) ;
#82 = SURFACE_STYLE_FILL_AREA ( #205 ) ;
#83 = AXIS2_PLACEMENT_3D ( 'NONE', #135, #176, #229 ) ;
#84 = LENGTH_MEASURE_WITH_UNIT ( LENGTH_MEASURE( 0.02539999999999999897 ), #201 );
#85 = SURFACE_SIDE_STYLE ('',( #82 ) ) ;
#86 = DIRECTION ( 'NONE',  ( -5.156407575357281462E-17, 1.000000000000000000, -0.000000000000000000 ) ) ;
#87 = COLOUR_RGB ( '',0.7921568627450980005, 0.8196078431372548767, 0.9333333333333333481 ) ;
#88 =( GEOMETRIC_REPRESENTATION_CONTEXT ( 3 ) GLOBAL_UNCERTAINTY_ASSIGNED_CONTEXT ( ( #290 ) ) GLOBAL_UNIT_ASSIGNED_CONTEXT ( ( #59, #21, #143 ) ) REPRESENTATION_CONTEXT ( 'NONE', 'WORKASPACE' ) );
#89 = FACE_OUTER_BOUND ( 'NONE', #277, .T. ) ;
#90 =( CONVERSION_BASED_UNIT ( 'INCH', #37 ) LENGTH_UNIT ( ) NAMED_UNIT ( #180 ) );
#91 = ORIENTED_EDGE ( 'NONE', *, *, #198, .T. ) ;
#92 = AXIS2_PLACEMENT_3D ( 'NONE', #33, #139, #256 ) ;
#93 = SURFACE_SIDE_STYLE ('',( #232 ) ) ;
#94 = EDGE_CURVE ( 'NONE', #210, #42, #207, .T. ) ;
#95 = CARTESIAN_POINT ( 'NONE',  ( 0.000000000000000000, 0.000000000000000000, -0.2500000000000000000 ) ) ;
#96 = DIRECTION ( 'NONE',  ( 0.000000000000000000, 0.000000000000000000, -1.000000000000000000 ) ) ;
#97 = VERTEX_POINT ( 'NONE', #104 ) ;
#98 = CARTESIAN_POINT ( 'NONE',  ( -1.224646799147354440E-16, 6.000000000000000888, 0.000000000000000000 ) ) ;
#99 = CARTESIAN_POINT ( 'NONE',  ( -0.2500000000000000000, 3.625000000000000444, 0.000000000000000000 ) ) ;
#100 = CARTESIAN_POINT ( 'NONE',  ( 0.000000000000000000, 3.625000000000000444, -0.2500000000000000000 ) ) ;
#101 =( CONVERSION_BASED_UNIT ( 'INCH', #5 ) LENGTH_UNIT ( ) NAMED_UNIT ( #208 ) );
#102 = SURFACE_STYLE_USAGE ( .BOTH. , #105 ) ;
#103 = ADVANCED_FACE ( 'NONE', ( #34 ), #136, .T. ) ;
#104 = CARTESIAN_POINT ( 'NONE',  ( 0.000000000000000000, 0.000000000000000000, -0.2500000000000000000 ) ) ;
#105 = SURFACE_SIDE_STYLE ('',( #11 ) ) ;
#106 = PRESENTATION_LAYER_ASSIGNMENT (  '', '', ( #266 ) ) ;
#107 = FILL_AREA_STYLE ('',( #138 ) ) ;
#108 = VECTOR ( 'NONE', #86, 39.37007874015748143 ) ;
#109 =( NAMED_UNIT ( * ) PLANE_ANGLE_UNIT ( ) SI_UNIT ( $, .RADIAN. ) );
#110 = SURFACE_SIDE_STYLE ('',( #279 ) ) ;
#111 = LENGTH_MEASURE_WITH_UNIT ( LENGTH_MEASURE( 0.02539999999999999897 ), #182 );
#112 = AXIS2_PLACEMENT_3D ( 'NONE', #55, #274, #275 ) ;
#113 = ORIENTED_EDGE ( 'NONE', *, *, #61, .F. ) ;
#114 = EDGE_CURVE ( 'NONE', #3, #309, #230, .T. ) ;
#115 = MANIFOLD_SOLID_BREP ( 'Revolve - Tool Body (Straight Shanked)', #223 ) ;
#116 = FILL_AREA_STYLE ('',( #184 ) ) ;
#117 = ORIENTED_EDGE ( 'NONE', *, *, #225, .F. ) ;
#118 = DIRECTION ( 'NONE',  ( -1.000000000000000000, 0.000000000000000000, 0.000000000000000000 ) ) ;
#119 = ORIENTED_EDGE ( 'NONE', *, *, #134, .F. ) ;
#120 = AXIS2_PLACEMENT_3D ( 'NONE', #303, #284, #283 ) ;
#121 = DIRECTION ( 'NONE',  ( 0.000000000000000000, 0.000000000000000000, -1.000000000000000000 ) ) ;
#122 = ORIENTED_EDGE ( 'NONE', *, *, #264, .T. ) ;
#123 = DIRECTION ( 'NONE',  ( -0.000000000000000000, -1.000000000000000000, -0.000000000000000000 ) ) ;
#124 = FILL_AREA_STYLE ('',( #150 ) ) ;
#125 = PRESENTATION_LAYER_ASSIGNMENT (  '', '', ( #222 ) ) ;
#126 = VECTOR ( 'NONE', #308, 39.37007874015748143 ) ;
#127 = CYLINDRICAL_SURFACE ( 'NONE', #273, 0.2500000000000000555 ) ;
#128 = ORIENTED_EDGE ( 'NONE', *, *, #94, .F. ) ;
#129 = DIRECTION ( 'NONE',  ( -5.156407575357281462E-17, 1.000000000000000000, 0.000000000000000000 ) ) ;
#130 = ORIENTED_EDGE ( 'NONE', *, *, #225, .T. ) ;
#131 = DIRECTION ( 'NONE',  ( -1.000000000000000000, 0.000000000000000000, 0.000000000000000000 ) ) ;
#132 = CIRCLE ( 'NONE', #156, 0.2500000000000001110 ) ;
#133 = DIRECTION ( 'NONE',  ( -0.000000000000000000, -1.000000000000000000, -0.000000000000000000 ) ) ;
#134 = EDGE_CURVE ( 'NONE', #302, #210, #233, .T. ) ;
#135 = CARTESIAN_POINT ( 'NONE',  ( 0.000000000000000000, 3.625000000000000444, 0.000000000000000000 ) ) ;
#136 = PLANE ( 'NONE',  #112 ) ;
#137 =( GEOMETRIC_REPRESENTATION_CONTEXT ( 3 ) GLOBAL_UNCERTAINTY_ASSIGNED_CONTEXT ( ( #204 ) ) GLOBAL_UNIT_ASSIGNED_CONTEXT ( ( #90, #58, #187 ) ) REPRESENTATION_CONTEXT ( 'NONE', 'WORKASPACE' ) );
#138 = FILL_AREA_STYLE_COLOUR ( '', #87 ) ;
#139 = DIRECTION ( 'NONE',  ( -0.000000000000000000, -1.000000000000000000, -0.000000000000000000 ) ) ;
#140 = CARTESIAN_POINT ( 'NONE',  ( 0.000000000000000000, 0.000000000000000000, 0.000000000000000000 ) ) ;
#141 = CIRCLE ( 'NONE', #167, 0.2500000000000000000 ) ;
#142 = CARTESIAN_POINT ( 'NONE',  ( 0.2500000000000000555, 3.625000000000000444, 3.061616997868384251E-17 ) ) ;
#143 =( NAMED_UNIT ( * ) SI_UNIT ( $, .STERADIAN. ) SOLID_ANGLE_UNIT ( ) );
#144 = VERTEX_POINT ( 'NONE', #142 ) ;
#145 = APPLICATION_CONTEXT ( 'automotive_design' ) ;
#146 = AXIS2_PLACEMENT_3D ( 'NONE', #170, #129, #48 ) ;
#147 = LENGTH_MEASURE_WITH_UNIT ( LENGTH_MEASURE( 0.02539999999999999897 ), #286 );
#148 = MECHANICAL_DESIGN_GEOMETRIC_PRESENTATION_REPRESENTATION (  '', ( #177 ), #305 ) ;
#149 = LINE ( 'NONE', #95, #126 ) ;
#150 = FILL_AREA_STYLE_COLOUR ( '', #189 ) ;
#151 = PRESENTATION_LAYER_ASSIGNMENT (  '', '', ( #177 ) ) ;
#152 = PRESENTATION_LAYER_ASSIGNMENT (  '', '', ( #235 ) ) ;
#153 = ADVANCED_FACE ( 'NONE', ( #62 ), #38, .T. ) ;
#154 = SURFACE_STYLE_USAGE ( .BOTH. , #85 ) ;
#155 = DIMENSIONAL_EXPONENTS ( 1.000000000000000000, 0.000000000000000000, 0.000000000000000000, 0.000000000000000000, 0.000000000000000000, 0.000000000000000000, 0.000000000000000000 ) ;
#156 = AXIS2_PLACEMENT_3D ( 'NONE', #171, #244, #131 ) ;
#157 = DIRECTION ( 'NONE',  ( -0.000000000000000000, -1.000000000000000000, -0.000000000000000000 ) ) ;
#158 = ADVANCED_FACE ( 'NONE', ( #89 ), #307, .F. ) ;
#159 = ORIENTED_EDGE ( 'NONE', *, *, #114, .F. ) ;
#160 =( LENGTH_UNIT ( ) NAMED_UNIT ( * ) SI_UNIT ( $, .METRE. ) );
#161 = DIRECTION ( 'NONE',  ( -1.000000000000000000, 0.000000000000000000, 0.000000000000000000 ) ) ;
#162 = ORIENTED_EDGE ( 'NONE', *, *, #181, .T. ) ;
#163 = ADVANCED_BREP_SHAPE_REPRESENTATION ( '86070', ( #8, #115, #63 ), #26 ) ;
#164 = CARTESIAN_POINT ( 'NONE',  ( 0.2499999999999999167, 6.000000000000000888, 3.061616997868383634E-17 ) ) ;
#165 = SURFACE_STYLE_USAGE ( .BOTH. , #6 ) ;
#166 = CIRCLE ( 'NONE', #83, 0.2500000000000000000 ) ;
#167 = AXIS2_PLACEMENT_3D ( 'NONE', #23, #226, #28 ) ;
#168 = CARTESIAN_POINT ( 'NONE',  ( 0.000000000000000000, 3.625000000000000444, 0.000000000000000000 ) ) ;
#169 = CARTESIAN_POINT ( 'NONE',  ( 0.2500000000000000555, 6.000000000000000888, 3.061616997868384251E-17 ) ) ;
#170 = CARTESIAN_POINT ( 'NONE',  ( 3.323567385400245093E-34, 3.625000000000000444, 0.000000000000000000 ) ) ;
#171 = CARTESIAN_POINT ( 'NONE',  ( -1.224646799147354440E-16, 6.000000000000000888, 0.000000000000000000 ) ) ;
#172 = STYLED_ITEM ( 'NONE', ( #69 ), #8 ) ;
#173 = ADVANCED_FACE ( 'NONE', ( #13 ), #66, .T. ) ;
#174 = PRODUCT_CONTEXT ( 'NONE', #145, 'mechanical' ) ;
#175 = PLANE ( 'NONE',  #276 ) ;
#176 = DIRECTION ( 'NONE',  ( -5.156407575357281462E-17, 1.000000000000000000, -0.000000000000000000 ) ) ;
#177 = STYLED_ITEM ( 'NONE', ( #46 ), #43 ) ;
#178 =( CONVERSION_BASED_UNIT ( 'INCH', #84 ) LENGTH_UNIT ( ) NAMED_UNIT ( #22 ) );
#179 =( CONVERSION_BASED_UNIT ( 'INCH', #252 ) LENGTH_UNIT ( ) NAMED_UNIT ( #155 ) );
#180 = DIMENSIONAL_EXPONENTS ( 1.000000000000000000, 0.000000000000000000, 0.000000000000000000, 0.000000000000000000, 0.000000000000000000, 0.000000000000000000, 0.000000000000000000 ) ;
#181 = EDGE_CURVE ( 'NONE', #14, #309, #214, .T. ) ;
#182 =( LENGTH_UNIT ( ) NAMED_UNIT ( * ) SI_UNIT ( $, .METRE. ) );
#183 = ORIENTED_EDGE ( 'NONE', *, *, #181, .F. ) ;
#184 = FILL_AREA_STYLE_COLOUR ( '', #295 ) ;
#185 = ORIENTED_EDGE ( 'NONE', *, *, #54, .T. ) ;
#186 = DIMENSIONAL_EXPONENTS ( 1.000000000000000000, 0.000000000000000000, 0.000000000000000000, 0.000000000000000000, 0.000000000000000000, 0.000000000000000000, 0.000000000000000000 ) ;
#187 =( NAMED_UNIT ( * ) SI_UNIT ( $, .STERADIAN. ) SOLID_ANGLE_UNIT ( ) );
#188 = PRESENTATION_STYLE_ASSIGNMENT (( #261 ) ) ;
#189 = COLOUR_RGB ( '',1.000000000000000000, 0.000000000000000000, 0.000000000000000000 ) ;
#190 = CIRCLE ( 'NONE', #260, 0.2500000000000000000 ) ;
#191 = ORIENTED_EDGE ( 'NONE', *, *, #134, .T. ) ;
#192 = FILL_AREA_STYLE_COLOUR ( '', #271 ) ;
#193 = ORIENTED_EDGE ( 'NONE', *, *, #30, .F. ) ;
#194 = CARTESIAN_POINT ( 'NONE',  ( -0.2500000000000002776, 6.000000000000000888, 0.000000000000000000 ) ) ;
#195 = DIRECTION ( 'NONE',  ( 1.000000000000000000, 0.000000000000000000, 0.000000000000000000 ) ) ;
#196 = AXIS2_PLACEMENT_3D ( 'NONE', #140, #19, #234 ) ;
#197 = ORIENTED_EDGE ( 'NONE', *, *, #300, .T. ) ;
#198 = EDGE_CURVE ( 'NONE', #144, #14, #40, .T. ) ;
#199 =( LENGTH_UNIT ( ) NAMED_UNIT ( * ) SI_UNIT ( $, .METRE. ) );
#200 = MECHANICAL_DESIGN_GEOMETRIC_PRESENTATION_REPRESENTATION (  '', ( #294 ), #137 ) ;
#201 =( LENGTH_UNIT ( ) NAMED_UNIT ( * ) SI_UNIT ( $, .METRE. ) );
#202 =( NAMED_UNIT ( * ) SI_UNIT ( $, .STERADIAN. ) SOLID_ANGLE_UNIT ( ) );
#203 = APPLICATION_CONTEXT ( 'automotive_design' ) ;
#204 = UNCERTAINTY_MEASURE_WITH_UNIT (LENGTH_MEASURE( 1.000000000000000082E-05 ), #90, 'distance_accuracy_value', 'NONE');
#205 = FILL_AREA_STYLE ('',( #297 ) ) ;
#206 =( NAMED_UNIT ( * ) PLANE_ANGLE_UNIT ( ) SI_UNIT ( $, .RADIAN. ) );
#207 = LINE ( 'NONE', #254, #35 ) ;
#208 = DIMENSIONAL_EXPONENTS ( 1.000000000000000000, 0.000000000000000000, 0.000000000000000000, 0.000000000000000000, 0.000000000000000000, 0.000000000000000000, 0.000000000000000000 ) ;
#209 = COLOUR_RGB ( '',0.7921568627450980005, 0.8196078431372548767, 0.9333333333333333481 ) ;
#210 = VERTEX_POINT ( 'NONE', #213 ) ;
#211 = ORIENTED_EDGE ( 'NONE', *, *, #54, .F. ) ;
#212 = SURFACE_STYLE_USAGE ( .BOTH. , #110 ) ;
#213 = CARTESIAN_POINT ( 'NONE',  ( 3.061616997868383018E-17, 3.625000000000000444, 0.2500000000000000000 ) ) ;
#214 = CIRCLE ( 'NONE', #249, 0.2500000000000001110 ) ;
#215 = ORIENTED_EDGE ( 'NONE', *, *, #280, .T. ) ;
#216 = DIRECTION ( 'NONE',  ( -0.000000000000000000, -1.000000000000000000, -0.000000000000000000 ) ) ;
#217 = ADVANCED_FACE ( 'NONE', ( #12 ), #263, .T. ) ;
#218 = CARTESIAN_POINT ( 'NONE',  ( 0.000000000000000000, 0.000000000000000000, 0.000000000000000000 ) ) ;
#219 = SURFACE_STYLE_USAGE ( .BOTH. , #269 ) ;
#220 = DIRECTION ( 'NONE',  ( 0.000000000000000000, 0.000000000000000000, -1.000000000000000000 ) ) ;
#221 = DIRECTION ( 'NONE',  ( 0.000000000000000000, -1.000000000000000000, -0.000000000000000000 ) ) ;
#222 = STYLED_ITEM ( 'NONE', ( #298 ), #103 ) ;
#223 = CLOSED_SHELL ( 'NONE', ( #258, #231, #173, #158 ) ) ;
#224 =( NAMED_UNIT ( * ) PLANE_ANGLE_UNIT ( ) SI_UNIT ( $, .RADIAN. ) );
#225 = EDGE_CURVE ( 'NONE', #210, #302, #190, .T. ) ;
#226 = DIRECTION ( 'NONE',  ( -5.156407575357281462E-17, 1.000000000000000000, -0.000000000000000000 ) ) ;
#227 = FILL_AREA_STYLE_COLOUR ( '', #209 ) ;
#228 = VECTOR ( 'NONE', #79, 39.37007874015748143 ) ;
#229 = DIRECTION ( 'NONE',  ( -1.000000000000000000, 0.000000000000000000, 0.000000000000000000 ) ) ;
#230 = LINE ( 'NONE', #52, #228 ) ;
#231 = ADVANCED_FACE ( 'NONE', ( #287 ), #25, .F. ) ;
#232 = SURFACE_STYLE_FILL_AREA ( #237 ) ;
#233 = CIRCLE ( 'NONE', #92, 0.2500000000000000000 ) ;
#234 = DIRECTION ( 'NONE',  ( 0.000000000000000000, 0.000000000000000000, -1.000000000000000000 ) ) ;
#235 = STYLED_ITEM ( 'NONE', ( #301 ), #217 ) ;
#236 = CARTESIAN_POINT ( 'NONE',  ( -1.224646799147354440E-16, 6.000000000000000888, 0.000000000000000000 ) ) ;
#237 = FILL_AREA_STYLE ('',( #192 ) ) ;
#238 = CARTESIAN_POINT ( 'NONE',  ( 0.000000000000000000, 0.000000000000000000, 0.000000000000000000 ) ) ;
#239 =( GEOMETRIC_REPRESENTATION_CONTEXT ( 3 ) GLOBAL_UNCERTAINTY_ASSIGNED_CONTEXT ( ( #9 ) ) GLOBAL_UNIT_ASSIGNED_CONTEXT ( ( #267, #49, #247 ) ) REPRESENTATION_CONTEXT ( 'NONE', 'WORKASPACE' ) );
#240 = ORIENTED_EDGE ( 'NONE', *, *, #280, .F. ) ;
#241 = ORIENTED_EDGE ( 'NONE', *, *, #114, .T. ) ;
#242 = FACE_OUTER_BOUND ( 'NONE', #281, .T. ) ;
#243 =( NAMED_UNIT ( * ) SI_UNIT ( $, .STERADIAN. ) SOLID_ANGLE_UNIT ( ) );
#244 = DIRECTION ( 'NONE',  ( -5.156407575357281462E-17, 1.000000000000000000, -0.000000000000000000 ) ) ;
#245 = COLOUR_RGB ( '',1.000000000000000000, 0.000000000000000000, 0.000000000000000000 ) ;
#246 = CARTESIAN_POINT ( 'NONE',  ( 0.000000000000000000, 0.000000000000000000, 0.000000000000000000 ) ) ;
#247 =( NAMED_UNIT ( * ) SI_UNIT ( $, .STERADIAN. ) SOLID_ANGLE_UNIT ( ) );
#248 = DIRECTION ( 'NONE',  ( 0.000000000000000000, 0.000000000000000000, -1.000000000000000000 ) ) ;
#249 = AXIS2_PLACEMENT_3D ( 'NONE', #236, #17, #118 ) ;
#250 = UNCERTAINTY_MEASURE_WITH_UNIT (LENGTH_MEASURE( 1.000000000000000082E-05 ), #179, 'distance_accuracy_value', 'NONE');
#251 = PRODUCT_DEFINITION_SHAPE ( 'NONE', 'NONE',  #36 ) ;
#252 = LENGTH_MEASURE_WITH_UNIT ( LENGTH_MEASURE( 0.02539999999999999897 ), #51 );
#253 = CIRCLE ( 'NONE', #2, 0.2500000000000000000 ) ;
#254 = CARTESIAN_POINT ( 'NONE',  ( 3.061616997868383018E-17, 0.000000000000000000, 0.2500000000000000000 ) ) ;
#255 = ORIENTED_EDGE ( 'NONE', *, *, #94, .T. ) ;
#256 = DIRECTION ( 'NONE',  ( 0.000000000000000000, 0.000000000000000000, -1.000000000000000000 ) ) ;
#257 = EDGE_LOOP ( 'NONE', ( #31, #39, #241, #183 ) ) ;
#258 = ADVANCED_FACE ( 'NONE', ( #289 ), #127, .T. ) ;
#259 = CLOSED_SHELL ( 'NONE', ( #217, #103, #153, #43 ) ) ;
#260 = AXIS2_PLACEMENT_3D ( 'NONE', #168, #216, #96 ) ;
#261 = SURFACE_STYLE_USAGE ( .BOTH. , #93 ) ;
#262 = EDGE_LOOP ( 'NONE', ( #191, #255, #211, #240 ) ) ;
#263 = CYLINDRICAL_SURFACE ( 'NONE', #77, 0.2500000000000000000 ) ;
#264 = EDGE_CURVE ( 'NONE', #3, #144, #141, .T. ) ;
#265 = ORIENTED_EDGE ( 'NONE', *, *, #264, .F. ) ;
#266 = STYLED_ITEM ( 'NONE', ( #10 ), #115 ) ;
#267 =( CONVERSION_BASED_UNIT ( 'INCH', #147 ) LENGTH_UNIT ( ) NAMED_UNIT ( #41 ) );
#268 = DIRECTION ( 'NONE',  ( -0.000000000000000000, -1.000000000000000000, -0.000000000000000000 ) ) ;
#269 = SURFACE_SIDE_STYLE ('',( #29 ) ) ;
#270 = ORIENTED_EDGE ( 'NONE', *, *, #30, .T. ) ;
#271 = COLOUR_RGB ( '',1.000000000000000000, 0.000000000000000000, 0.000000000000000000 ) ;
#272 = SHAPE_DEFINITION_REPRESENTATION ( #251, #163 ) ;
#273 = AXIS2_PLACEMENT_3D ( 'NONE', #98, #73, #285 ) ;
#274 = DIRECTION ( 'NONE',  ( 0.000000000000000000, 1.000000000000000000, 0.000000000000000000 ) ) ;
#275 = DIRECTION ( 'NONE',  ( 0.000000000000000000, -0.000000000000000000, 1.000000000000000000 ) ) ;
#276 = AXIS2_PLACEMENT_3D ( 'NONE', #45, #221, #248 ) ;
#277 = EDGE_LOOP ( 'NONE', ( #270, #162 ) ) ;
#278 = PRODUCT ( '86070', '86070', '', ( #174 ) ) ;
#279 = SURFACE_STYLE_FILL_AREA ( #116 ) ;
#280 = EDGE_CURVE ( 'NONE', #302, #97, #149, .T. ) ;
#281 = EDGE_LOOP ( 'NONE', ( #185, #197 ) ) ;
#282 = DIRECTION ( 'NONE',  ( -5.156407575357281462E-17, 1.000000000000000000, -0.000000000000000000 ) ) ;
#283 = DIRECTION ( 'NONE',  ( 1.000000000000000000, 5.156407575357281462E-17, 0.000000000000000000 ) ) ;
#284 = DIRECTION ( 'NONE',  ( 5.156407575357281462E-17, -1.000000000000000000, 0.000000000000000000 ) ) ;
#285 = DIRECTION ( 'NONE',  ( -1.000000000000000000, 0.000000000000000000, 0.000000000000000000 ) ) ;
#286 =( LENGTH_UNIT ( ) NAMED_UNIT ( * ) SI_UNIT ( $, .METRE. ) );
#287 = FACE_OUTER_BOUND ( 'NONE', #67, .T. ) ;
#288 = FILL_AREA_STYLE ('',( #227 ) ) ;
#289 = FACE_OUTER_BOUND ( 'NONE', #304, .T. ) ;
#290 = UNCERTAINTY_MEASURE_WITH_UNIT (LENGTH_MEASURE( 1.000000000000000082E-05 ), #59, 'distance_accuracy_value', 'NONE');
#291 = CARTESIAN_POINT ( 'NONE',  ( 3.061616997868383018E-17, 0.000000000000000000, 0.2500000000000000000 ) ) ;
#292 = APPLICATION_PROTOCOL_DEFINITION ( 'draft international standard', 'automotive_design', 1998, #145 ) ;
#293 = UNCERTAINTY_MEASURE_WITH_UNIT (LENGTH_MEASURE( 1.000000000000000082E-05 ), #78, 'distance_accuracy_value', 'NONE');
#294 = STYLED_ITEM ( 'NONE', ( #188 ), #153 ) ;
#295 = COLOUR_RGB ( '',1.000000000000000000, 0.000000000000000000, 0.000000000000000000 ) ;
#296 = DIRECTION ( 'NONE',  ( 0.000000000000000000, 0.000000000000000000, -1.000000000000000000 ) ) ;
#297 = FILL_AREA_STYLE_COLOUR ( '', #245 ) ;
#298 = PRESENTATION_STYLE_ASSIGNMENT (( #154 ) ) ;
#299 = DIMENSIONAL_EXPONENTS ( 1.000000000000000000, 0.000000000000000000, 0.000000000000000000, 0.000000000000000000, 0.000000000000000000, 0.000000000000000000, 0.000000000000000000 ) ;
#300 = EDGE_CURVE ( 'NONE', #42, #97, #253, .T. ) ;
#301 = PRESENTATION_STYLE_ASSIGNMENT (( #212 ) ) ;
#302 = VERTEX_POINT ( 'NONE', #100 ) ;
#303 = CARTESIAN_POINT ( 'NONE',  ( 0.2500000000000000000, 6.000000000000000888, 0.000000000000000000 ) ) ;
#304 = EDGE_LOOP ( 'NONE', ( #122, #91, #193, #159 ) ) ;
#305 =( GEOMETRIC_REPRESENTATION_CONTEXT ( 3 ) GLOBAL_UNCERTAINTY_ASSIGNED_CONTEXT ( ( #293 ) ) GLOBAL_UNIT_ASSIGNED_CONTEXT ( ( #78, #50, #74 ) ) REPRESENTATION_CONTEXT ( 'NONE', 'WORKASPACE' ) );
#306 = PRODUCT_DEFINITION_FORMATION_WITH_SPECIFIED_SOURCE ( 'ANY', '', #278, .NOT_KNOWN. ) ;
#307 = PLANE ( 'NONE',  #120 ) ;
#308 = DIRECTION ( 'NONE',  ( -0.000000000000000000, -1.000000000000000000, -0.000000000000000000 ) ) ;
#309 = VERTEX_POINT ( 'NONE', #194 ) ;
ENDSEC;
END-ISO-10303-21;
