ISO-10303-21;
HEADER;
FILE_DESCRIPTION (( 'STEP AP214' ),
    '1' );
FILE_NAME ('84782.STEP',
    '2023-07-05T16:26:32',
    ( '' ),
    ( '' ),
    'SwSTEP 2.0',
    'SolidWorks 2023',
    '' );
FILE_SCHEMA (( 'AUTOMOTIVE_DESIGN' ));
ENDSEC;

DATA;
#1 = AXIS2_PLACEMENT_3D ( 'NONE', #153, #76, #247 ) ;
#2 = EDGE_CURVE ( 'NONE', #7, #235, #252, .T. ) ;
#3 = CARTESIAN_POINT ( 'NONE',  ( -6.123233995736770966E-17, 3.000000000000000444, 0.000000000000000000 ) ) ;
#4 =( LENGTH_UNIT ( ) NAMED_UNIT ( * ) SI_UNIT ( $, .METRE. ) );
#5 = SURFACE_STYLE_FILL_AREA ( #93 ) ;
#6 = EDGE_LOOP ( 'NONE', ( #211, #66, #233 ) ) ;
#7 = VERTEX_POINT ( 'NONE', #52 ) ;
#8 = DIRECTION ( 'NONE',  ( 1.000000000000000000, 1.277530704499805038E-16, 0.000000000000000000 ) ) ;
#9 = LINE ( 'NONE', #65, #237 ) ;
#10 = AXIS2_PLACEMENT_3D ( 'NONE', #3, #147, #25 ) ;
#11 = ORIENTED_EDGE ( 'NONE', *, *, #161, .T. ) ;
#12 =( NAMED_UNIT ( * ) PLANE_ANGLE_UNIT ( ) SI_UNIT ( $, .RADIAN. ) );
#13 = LENGTH_MEASURE_WITH_UNIT ( LENGTH_MEASURE( 0.02539999999999999897 ), #51 );
#14 = DIMENSIONAL_EXPONENTS ( 1.000000000000000000, 0.000000000000000000, 0.000000000000000000, 0.000000000000000000, 0.000000000000000000, 0.000000000000000000, 0.000000000000000000 ) ;
#15 = CARTESIAN_POINT ( 'NONE',  ( 0.3124999999999999445, 0.5412658773652724298, 3.827021247335477694E-17 ) ) ;
#16 = PRODUCT_DEFINITION_SHAPE ( 'NONE', 'NONE',  #250 ) ;
#17 = STYLED_ITEM ( 'NONE', ( #144 ), #50 ) ;
#18 = CYLINDRICAL_SURFACE ( 'NONE', #28, 0.3124999999999998890 ) ;
#19 = FACE_OUTER_BOUND ( 'NONE', #6, .T. ) ;
#20 = ADVANCED_FACE ( 'NONE', ( #19 ), #107, .T. ) ;
#21 = SHAPE_DEFINITION_REPRESENTATION ( #16, #246 ) ;
#22 = FACE_OUTER_BOUND ( 'NONE', #236, .T. ) ;
#23 = SURFACE_STYLE_USAGE ( .BOTH. , #222 ) ;
#24 = LENGTH_MEASURE_WITH_UNIT ( LENGTH_MEASURE( 0.02539999999999999897 ), #4 );
#25 = DIRECTION ( 'NONE',  ( -1.000000000000000000, 0.000000000000000000, 0.000000000000000000 ) ) ;
#26 =( NAMED_UNIT ( * ) PLANE_ANGLE_UNIT ( ) SI_UNIT ( $, .RADIAN. ) );
#27 = CLOSED_SHELL ( 'NONE', ( #87, #242, #74, #231 ) ) ;
#28 = AXIS2_PLACEMENT_3D ( 'NONE', #219, #92, #131 ) ;
#29 = DIRECTION ( 'NONE',  ( 1.000000000000000000, 0.000000000000000000, 0.000000000000000000 ) ) ;
#30 = DIRECTION ( 'NONE',  ( 0.000000000000000000, -0.000000000000000000, 1.000000000000000000 ) ) ;
#31 = ORIENTED_EDGE ( 'NONE', *, *, #146, .F. ) ;
#32 = COLOUR_RGB ( '',1.000000000000000000, 0.000000000000000000, 0.000000000000000000 ) ;
#33 = DIRECTION ( 'NONE',  ( -1.000000000000000000, -1.277530704499805038E-16, 0.000000000000000000 ) ) ;
#34 = DIRECTION ( 'NONE',  ( -1.277530704499805038E-16, 1.000000000000000000, -0.000000000000000000 ) ) ;
#35 = ORIENTED_EDGE ( 'NONE', *, *, #124, .T. ) ;
#36 =( CONVERSION_BASED_UNIT ( 'INCH', #97 ) LENGTH_UNIT ( ) NAMED_UNIT ( #82 ) );
#37 = DIRECTION ( 'NONE',  ( 0.000000000000000000, 0.000000000000000000, 1.000000000000000000 ) ) ;
#38 = STYLED_ITEM ( 'NONE', ( #261 ), #20 ) ;
#39 = UNCERTAINTY_MEASURE_WITH_UNIT (LENGTH_MEASURE( 1.000000000000000082E-05 ), #60, 'distance_accuracy_value', 'NONE');
#40 = CARTESIAN_POINT ( 'NONE',  ( 0.000000000000000000, 0.5412658773652724298, 0.3124999999999998890 ) ) ;
#41 =( NAMED_UNIT ( * ) SI_UNIT ( $, .STERADIAN. ) SOLID_ANGLE_UNIT ( ) );
#42 = LENGTH_MEASURE_WITH_UNIT ( LENGTH_MEASURE( 0.02539999999999999897 ), #177 );
#43 = CARTESIAN_POINT ( 'NONE',  ( 0.000000000000000000, 39.37007874015748143, 0.000000000000000000 ) ) ;
#44 =( NAMED_UNIT ( * ) PLANE_ANGLE_UNIT ( ) SI_UNIT ( $, .RADIAN. ) );
#45 = ORIENTED_EDGE ( 'NONE', *, *, #243, .T. ) ;
#46 = FACE_OUTER_BOUND ( 'NONE', #138, .T. ) ;
#47 = ORIENTED_EDGE ( 'NONE', *, *, #146, .T. ) ;
#48 = DIRECTION ( 'NONE',  ( 0.000000000000000000, 0.8660254037844380415, 0.5000000000000009992 ) ) ;
#49 = SURFACE_SIDE_STYLE ('',( #239 ) ) ;
#50 = MANIFOLD_SOLID_BREP ( 'Revolve - Cutting Edge', #134 ) ;
#51 =( LENGTH_UNIT ( ) NAMED_UNIT ( * ) SI_UNIT ( $, .METRE. ) );
#52 = CARTESIAN_POINT ( 'NONE',  ( -0.3124999999999993894, 0.5412658773652723188, 0.000000000000000000 ) ) ;
#53 = CONICAL_SURFACE ( 'NONE', #59, 22.73032555864674364, 0.5235987755983000369 ) ;
#54 = FILL_AREA_STYLE ('',( #139 ) ) ;
#55 = UNCERTAINTY_MEASURE_WITH_UNIT (LENGTH_MEASURE( 1.000000000000000082E-05 ), #214, 'distance_accuracy_value', 'NONE');
#56 = ADVANCED_FACE ( 'NONE', ( #109 ), #53, .T. ) ;
#57 = CARTESIAN_POINT ( 'NONE',  ( -6.123233995736770966E-17, 3.000000000000000444, 0.000000000000000000 ) ) ;
#58 = LINE ( 'NONE', #198, #145 ) ;
#59 = AXIS2_PLACEMENT_3D ( 'NONE', #43, #181, #37 ) ;
#60 =( CONVERSION_BASED_UNIT ( 'INCH', #24 ) LENGTH_UNIT ( ) NAMED_UNIT ( #174 ) );
#61 = DIRECTION ( 'NONE',  ( 0.000000000000000000, 0.000000000000000000, 1.000000000000000000 ) ) ;
#62 = FILL_AREA_STYLE ('',( #199 ) ) ;
#63 = ORIENTED_EDGE ( 'NONE', *, *, #124, .F. ) ;
#64 =( GEOMETRIC_REPRESENTATION_CONTEXT ( 3 ) GLOBAL_UNCERTAINTY_ASSIGNED_CONTEXT ( ( #39 ) ) GLOBAL_UNIT_ASSIGNED_CONTEXT ( ( #60, #171, #75 ) ) REPRESENTATION_CONTEXT ( 'NONE', 'WORKASPACE' ) );
#65 = CARTESIAN_POINT ( 'NONE',  ( 0.000000000000000000, 0.000000000000000000, 0.000000000000000000 ) ) ;
#66 = ORIENTED_EDGE ( 'NONE', *, *, #220, .T. ) ;
#67 = CARTESIAN_POINT ( 'NONE',  ( -6.123233995736772199E-17, 3.000000000000000444, 0.000000000000000000 ) ) ;
#68 = SURFACE_SIDE_STYLE ('',( #160 ) ) ;
#69 = AXIS2_PLACEMENT_3D ( 'NONE', #67, #34, #260 ) ;
#70 = PLANE ( 'NONE',  #238 ) ;
#71 = CYLINDRICAL_SURFACE ( 'NONE', #69, 0.3124999999999998890 ) ;
#72 = EDGE_CURVE ( 'NONE', #116, #79, #9, .T. ) ;
#73 = SURFACE_STYLE_FILL_AREA ( #78 ) ;
#74 = ADVANCED_FACE ( 'NONE', ( #98 ), #71, .T. ) ;
#75 =( NAMED_UNIT ( * ) SI_UNIT ( $, .STERADIAN. ) SOLID_ANGLE_UNIT ( ) );
#76 = DIRECTION ( 'NONE',  ( -0.000000000000000000, -1.000000000000000000, -0.000000000000000000 ) ) ;
#77 = VECTOR ( 'NONE', #48, 39.37007874015748143 ) ;
#78 = FILL_AREA_STYLE ('',( #114 ) ) ;
#79 = VERTEX_POINT ( 'NONE', #85 ) ;
#80 =( LENGTH_UNIT ( ) NAMED_UNIT ( * ) SI_UNIT ( $, .METRE. ) );
#81 = EDGE_LOOP ( 'NONE', ( #255, #45, #35, #179 ) ) ;
#82 = DIMENSIONAL_EXPONENTS ( 1.000000000000000000, 0.000000000000000000, 0.000000000000000000, 0.000000000000000000, 0.000000000000000000, 0.000000000000000000, 0.000000000000000000 ) ;
#83 = ORIENTED_EDGE ( 'NONE', *, *, #2, .T. ) ;
#84 = PRESENTATION_STYLE_ASSIGNMENT (( #122 ) ) ;
#85 = CARTESIAN_POINT ( 'NONE',  ( 3.827021247335477078E-17, 0.5412658773652724298, -0.3124999999999998890 ) ) ;
#86 = CIRCLE ( 'NONE', #1, 0.3124999999999999445 ) ;
#87 = ADVANCED_FACE ( 'NONE', ( #188 ), #18, .T. ) ;
#88 =( LENGTH_UNIT ( ) NAMED_UNIT ( * ) SI_UNIT ( $, .METRE. ) );
#89 = AXIS2_PLACEMENT_3D ( 'NONE', #101, #234, #178 ) ;
#90 = APPLICATION_PROTOCOL_DEFINITION ( 'draft international standard', 'automotive_design', 1998, #213 ) ;
#91 = CARTESIAN_POINT ( 'NONE',  ( 0.000000000000000000, 0.000000000000000000, 0.000000000000000000 ) ) ;
#92 = DIRECTION ( 'NONE',  ( -1.277530704499805038E-16, 1.000000000000000000, -0.000000000000000000 ) ) ;
#93 = FILL_AREA_STYLE ('',( #200 ) ) ;
#94 = CIRCLE ( 'NONE', #10, 0.3125000000000000000 ) ;
#95 = LINE ( 'NONE', #180, #77 ) ;
#96 = ORIENTED_EDGE ( 'NONE', *, *, #128, .T. ) ;
#97 = LENGTH_MEASURE_WITH_UNIT ( LENGTH_MEASURE( 0.02539999999999999897 ), #212 );
#98 = FACE_OUTER_BOUND ( 'NONE', #81, .T. ) ;
#99 = STYLED_ITEM ( 'NONE', ( #132 ), #56 ) ;
#100 = MECHANICAL_DESIGN_GEOMETRIC_PRESENTATION_REPRESENTATION (  '', ( #170 ), #263 ) ;
#101 = CARTESIAN_POINT ( 'NONE',  ( 2.528784936293576816E-16, 0.5412658773652724298, 0.000000000000000000 ) ) ;
#102 = ORIENTED_EDGE ( 'NONE', *, *, #243, .F. ) ;
#103 = CARTESIAN_POINT ( 'NONE',  ( 0.3124999999999999445, 3.000000000000000444, 0.000000000000000000 ) ) ;
#104 = EDGE_LOOP ( 'NONE', ( #176, #119, #215 ) ) ;
#105 = DIRECTION ( 'NONE',  ( -1.000000000000000000, -2.185478394931412793E-16, 0.000000000000000000 ) ) ;
#106 = COLOUR_RGB ( '',0.7921568627450980005, 0.8196078431372548767, 0.9333333333333333481 ) ;
#107 = CONICAL_SURFACE ( 'NONE', #121, 22.73032555864674364, 0.5235987755983000369 ) ;
#108 = DIRECTION ( 'NONE',  ( -1.277530704499805038E-16, 1.000000000000000000, -0.000000000000000000 ) ) ;
#109 = FACE_OUTER_BOUND ( 'NONE', #104, .T. ) ;
#110 = PLANE ( 'NONE',  #192 ) ;
#111 = LINE ( 'NONE', #230, #221 ) ;
#112 = COLOUR_RGB ( '',0.7921568627450980005, 0.8196078431372548767, 0.9333333333333333481 ) ;
#113 = COLOUR_RGB ( '',1.000000000000000000, 0.000000000000000000, 0.000000000000000000 ) ;
#114 = FILL_AREA_STYLE_COLOUR ( '', #112 ) ;
#115 =( CONVERSION_BASED_UNIT ( 'INCH', #42 ) LENGTH_UNIT ( ) NAMED_UNIT ( #14 ) );
#116 = VERTEX_POINT ( 'NONE', #172 ) ;
#117 =( NAMED_UNIT ( * ) SI_UNIT ( $, .STERADIAN. ) SOLID_ANGLE_UNIT ( ) );
#118 = DIMENSIONAL_EXPONENTS ( 1.000000000000000000, 0.000000000000000000, 0.000000000000000000, 0.000000000000000000, 0.000000000000000000, 0.000000000000000000, 0.000000000000000000 ) ;
#119 = ORIENTED_EDGE ( 'NONE', *, *, #72, .T. ) ;
#120 = CARTESIAN_POINT ( 'NONE',  ( 2.528784936293576816E-16, 0.5412658773652725408, 0.000000000000000000 ) ) ;
#121 = AXIS2_PLACEMENT_3D ( 'NONE', #241, #190, #61 ) ;
#122 = SURFACE_STYLE_USAGE ( .BOTH. , #68 ) ;
#123 =( NAMED_UNIT ( * ) SI_UNIT ( $, .STERADIAN. ) SOLID_ANGLE_UNIT ( ) );
#124 = EDGE_CURVE ( 'NONE', #7, #183, #111, .T. ) ;
#125 = MECHANICAL_DESIGN_GEOMETRIC_PRESENTATION_REPRESENTATION (  '', ( #17 ), #225 ) ;
#126 = PRODUCT ( '84782', '84782', '', ( #197 ) ) ;
#127 = UNCERTAINTY_MEASURE_WITH_UNIT (LENGTH_MEASURE( 1.000000000000000082E-05 ), #36, 'distance_accuracy_value', 'NONE');
#128 = EDGE_CURVE ( 'NONE', #133, #183, #202, .T. ) ;
#129 = DIRECTION ( 'NONE',  ( -1.277530704499805038E-16, 1.000000000000000000, -0.000000000000000000 ) ) ;
#130 = DIRECTION ( 'NONE',  ( -1.277530704499805038E-16, 1.000000000000000000, -0.000000000000000000 ) ) ;
#131 = DIRECTION ( 'NONE',  ( -1.000000000000000000, 0.000000000000000000, 0.000000000000000000 ) ) ;
#132 = PRESENTATION_STYLE_ASSIGNMENT (( #23 ) ) ;
#133 = VERTEX_POINT ( 'NONE', #223 ) ;
#134 = CLOSED_SHELL ( 'NONE', ( #56, #182, #20 ) ) ;
#135 =( CONVERSION_BASED_UNIT ( 'INCH', #251 ) LENGTH_UNIT ( ) NAMED_UNIT ( #118 ) );
#136 = FACE_OUTER_BOUND ( 'NONE', #158, .T. ) ;
#137 = PRODUCT_RELATED_PRODUCT_CATEGORY ( 'part', '', ( #126 ) ) ;
#138 = EDGE_LOOP ( 'NONE', ( #152, #102 ) ) ;
#139 = FILL_AREA_STYLE_COLOUR ( '', #191 ) ;
#140 =( CONVERSION_BASED_UNIT ( 'INCH', #165 ) LENGTH_UNIT ( ) NAMED_UNIT ( #228 ) );
#141 = DIRECTION ( 'NONE',  ( -1.277530704499805038E-16, 1.000000000000000000, -0.000000000000000000 ) ) ;
#142 = SURFACE_STYLE_USAGE ( .BOTH. , #49 ) ;
#143 = UNCERTAINTY_MEASURE_WITH_UNIT (LENGTH_MEASURE( 1.000000000000000082E-05 ), #135, 'distance_accuracy_value', 'NONE');
#144 = PRESENTATION_STYLE_ASSIGNMENT (( #248 ) ) ;
#145 = VECTOR ( 'NONE', #130, 39.37007874015748143 ) ;
#146 = EDGE_CURVE ( 'NONE', #183, #133, #94, .T. ) ;
#147 = DIRECTION ( 'NONE',  ( -1.277530704499805038E-16, 1.000000000000000000, -0.000000000000000000 ) ) ;
#148 =( GEOMETRIC_REPRESENTATION_CONTEXT ( 3 ) GLOBAL_UNCERTAINTY_ASSIGNED_CONTEXT ( ( #55 ) ) GLOBAL_UNIT_ASSIGNED_CONTEXT ( ( #214, #157, #187 ) ) REPRESENTATION_CONTEXT ( 'NONE', 'WORKASPACE' ) );
#149 = AXIS2_PLACEMENT_3D ( 'NONE', #57, #129, #195 ) ;
#150 = SURFACE_SIDE_STYLE ('',( #73 ) ) ;
#151 = SURFACE_SIDE_STYLE ('',( #5 ) ) ;
#152 = ORIENTED_EDGE ( 'NONE', *, *, #2, .F. ) ;
#153 = CARTESIAN_POINT ( 'NONE',  ( 0.000000000000000000, 0.5412658773652725408, 0.000000000000000000 ) ) ;
#154 = VERTEX_POINT ( 'NONE', #40 ) ;
#155 = CARTESIAN_POINT ( 'NONE',  ( 0.000000000000000000, 0.5412658773652725408, 0.000000000000000000 ) ) ;
#156 = PRESENTATION_LAYER_ASSIGNMENT (  '', '', ( #170 ) ) ;
#157 =( NAMED_UNIT ( * ) PLANE_ANGLE_UNIT ( ) SI_UNIT ( $, .RADIAN. ) );
#158 = EDGE_LOOP ( 'NONE', ( #47, #96 ) ) ;
#159 = EDGE_CURVE ( 'NONE', #154, #79, #86, .T. ) ;
#160 = SURFACE_STYLE_FILL_AREA ( #254 ) ;
#161 = EDGE_CURVE ( 'NONE', #235, #133, #58, .T. ) ;
#162 = AXIS2_PLACEMENT_3D ( 'NONE', #193, #141, #105 ) ;
#163 = MECHANICAL_DESIGN_GEOMETRIC_PRESENTATION_REPRESENTATION (  '', ( #189 ), #175 ) ;
#164 = MECHANICAL_DESIGN_GEOMETRIC_PRESENTATION_REPRESENTATION (  '', ( #99 ), #148 ) ;
#165 = LENGTH_MEASURE_WITH_UNIT ( LENGTH_MEASURE( 0.02539999999999999897 ), #88 );
#166 = EDGE_CURVE ( 'NONE', #79, #154, #226, .T. ) ;
#167 = EDGE_LOOP ( 'NONE', ( #83, #11, #31, #63 ) ) ;
#168 = MECHANICAL_DESIGN_GEOMETRIC_PRESENTATION_REPRESENTATION (  '', ( #38 ), #244 ) ;
#169 = PRESENTATION_LAYER_ASSIGNMENT (  '', '', ( #38 ) ) ;
#170 = STYLED_ITEM ( 'NONE', ( #203 ), #182 ) ;
#171 =( NAMED_UNIT ( * ) PLANE_ANGLE_UNIT ( ) SI_UNIT ( $, .RADIAN. ) );
#172 = CARTESIAN_POINT ( 'NONE',  ( 0.000000000000000000, 0.000000000000000000, 0.000000000000000000 ) ) ;
#173 = DIRECTION ( 'NONE',  ( 0.000000000000000000, 0.000000000000000000, -1.000000000000000000 ) ) ;
#174 = DIMENSIONAL_EXPONENTS ( 1.000000000000000000, 0.000000000000000000, 0.000000000000000000, 0.000000000000000000, 0.000000000000000000, 0.000000000000000000, 0.000000000000000000 ) ;
#175 =( GEOMETRIC_REPRESENTATION_CONTEXT ( 3 ) GLOBAL_UNCERTAINTY_ASSIGNED_CONTEXT ( ( #127 ) ) GLOBAL_UNIT_ASSIGNED_CONTEXT ( ( #36, #12, #256 ) ) REPRESENTATION_CONTEXT ( 'NONE', 'WORKASPACE' ) );
#176 = ORIENTED_EDGE ( 'NONE', *, *, #220, .F. ) ;
#177 =( LENGTH_UNIT ( ) NAMED_UNIT ( * ) SI_UNIT ( $, .METRE. ) );
#178 = DIRECTION ( 'NONE',  ( -1.000000000000000000, -2.185478394931412793E-16, 0.000000000000000000 ) ) ;
#179 = ORIENTED_EDGE ( 'NONE', *, *, #128, .F. ) ;
#180 = CARTESIAN_POINT ( 'NONE',  ( 0.000000000000000000, 0.000000000000000000, 0.000000000000000000 ) ) ;
#181 = DIRECTION ( 'NONE',  ( 0.000000000000000000, 1.000000000000000000, 0.000000000000000000 ) ) ;
#182 = ADVANCED_FACE ( 'NONE', ( #22 ), #110, .T. ) ;
#183 = VERTEX_POINT ( 'NONE', #208 ) ;
#184 = CIRCLE ( 'NONE', #89, 0.3124999999999996669 ) ;
#185 = DIMENSIONAL_EXPONENTS ( 1.000000000000000000, 0.000000000000000000, 0.000000000000000000, 0.000000000000000000, 0.000000000000000000, 0.000000000000000000, 0.000000000000000000 ) ;
#186 = DIRECTION ( 'NONE',  ( 1.277530704499805038E-16, -1.000000000000000000, 0.000000000000000000 ) ) ;
#187 =( NAMED_UNIT ( * ) SI_UNIT ( $, .STERADIAN. ) SOLID_ANGLE_UNIT ( ) );
#188 = FACE_OUTER_BOUND ( 'NONE', #167, .T. ) ;
#189 = STYLED_ITEM ( 'NONE', ( #84 ), #224 ) ;
#190 = DIRECTION ( 'NONE',  ( 0.000000000000000000, 1.000000000000000000, 0.000000000000000000 ) ) ;
#191 = COLOUR_RGB ( '',1.000000000000000000, 0.000000000000000000, 0.000000000000000000 ) ;
#192 = AXIS2_PLACEMENT_3D ( 'NONE', #155, #205, #30 ) ;
#193 = CARTESIAN_POINT ( 'NONE',  ( 2.528784936293576816E-16, 0.5412658773652724298, 0.000000000000000000 ) ) ;
#194 = PRODUCT_DEFINITION_CONTEXT ( 'detailed design', #213, 'design' ) ;
#195 = DIRECTION ( 'NONE',  ( -1.000000000000000000, 0.000000000000000000, 0.000000000000000000 ) ) ;
#196 = APPLICATION_PROTOCOL_DEFINITION ( 'draft international standard', 'automotive_design', 1998, #204 ) ;
#197 = PRODUCT_CONTEXT ( 'NONE', #204, 'mechanical' ) ;
#198 = CARTESIAN_POINT ( 'NONE',  ( 0.3124999999999998335, 3.000000000000000444, 3.827021247335477078E-17 ) ) ;
#199 = FILL_AREA_STYLE_COLOUR ( '', #32 ) ;
#200 = FILL_AREA_STYLE_COLOUR ( '', #113 ) ;
#201 = DIRECTION ( 'NONE',  ( 0.000000000000000000, 0.000000000000000000, 1.000000000000000000 ) ) ;
#202 = CIRCLE ( 'NONE', #149, 0.3125000000000000000 ) ;
#203 = PRESENTATION_STYLE_ASSIGNMENT (( #249 ) ) ;
#204 = APPLICATION_CONTEXT ( 'automotive_design' ) ;
#205 = DIRECTION ( 'NONE',  ( 0.000000000000000000, 1.000000000000000000, 0.000000000000000000 ) ) ;
#206 = SURFACE_STYLE_FILL_AREA ( #62 ) ;
#207 = ORIENTED_EDGE ( 'NONE', *, *, #166, .F. ) ;
#208 = CARTESIAN_POINT ( 'NONE',  ( -0.3125000000000000555, 3.000000000000000444, 0.000000000000000000 ) ) ;
#209 = ORIENTED_EDGE ( 'NONE', *, *, #159, .F. ) ;
#210 = DIRECTION ( 'NONE',  ( -1.277530704499805038E-16, 1.000000000000000000, 0.000000000000000000 ) ) ;
#211 = ORIENTED_EDGE ( 'NONE', *, *, #72, .F. ) ;
#212 =( LENGTH_UNIT ( ) NAMED_UNIT ( * ) SI_UNIT ( $, .METRE. ) );
#213 = APPLICATION_CONTEXT ( 'automotive_design' ) ;
#214 =( CONVERSION_BASED_UNIT ( 'INCH', #13 ) LENGTH_UNIT ( ) NAMED_UNIT ( #185 ) );
#215 = ORIENTED_EDGE ( 'NONE', *, *, #166, .T. ) ;
#216 = PRESENTATION_LAYER_ASSIGNMENT (  '', '', ( #17 ) ) ;
#217 = PRODUCT_DEFINITION_FORMATION_WITH_SPECIFIED_SOURCE ( 'ANY', '', #126, .NOT_KNOWN. ) ;
#218 = AXIS2_PLACEMENT_3D ( 'NONE', #91, #201, #29 ) ;
#219 = CARTESIAN_POINT ( 'NONE',  ( -6.123233995736772199E-17, 3.000000000000000444, 0.000000000000000000 ) ) ;
#220 = EDGE_CURVE ( 'NONE', #116, #154, #95, .T. ) ;
#221 = VECTOR ( 'NONE', #108, 39.37007874015748143 ) ;
#222 = SURFACE_SIDE_STYLE ('',( #206 ) ) ;
#223 = CARTESIAN_POINT ( 'NONE',  ( 0.3124999999999999445, 3.000000000000000444, 3.827021247335477694E-17 ) ) ;
#224 = MANIFOLD_SOLID_BREP ( 'Revolve - Tool Body (Pointed)', #27 ) ;
#225 =( GEOMETRIC_REPRESENTATION_CONTEXT ( 3 ) GLOBAL_UNCERTAINTY_ASSIGNED_CONTEXT ( ( #143 ) ) GLOBAL_UNIT_ASSIGNED_CONTEXT ( ( #135, #26, #41 ) ) REPRESENTATION_CONTEXT ( 'NONE', 'WORKASPACE' ) );
#226 = CIRCLE ( 'NONE', #253, 0.3124999999999999445 ) ;
#227 = DIRECTION ( 'NONE',  ( -0.000000000000000000, -1.000000000000000000, -0.000000000000000000 ) ) ;
#228 = DIMENSIONAL_EXPONENTS ( 1.000000000000000000, 0.000000000000000000, 0.000000000000000000, 0.000000000000000000, 0.000000000000000000, 0.000000000000000000, 0.000000000000000000 ) ;
#229 = CARTESIAN_POINT ( 'NONE',  ( 0.000000000000000000, 0.5412658773652725408, 0.000000000000000000 ) ) ;
#230 = CARTESIAN_POINT ( 'NONE',  ( -0.3124999999999999445, 3.000000000000000444, 0.000000000000000000 ) ) ;
#231 = ADVANCED_FACE ( 'NONE', ( #136 ), #70, .F. ) ;
#232 = PRESENTATION_LAYER_ASSIGNMENT (  '', '', ( #189 ) ) ;
#233 = ORIENTED_EDGE ( 'NONE', *, *, #159, .T. ) ;
#234 = DIRECTION ( 'NONE',  ( -1.277530704499805038E-16, 1.000000000000000000, -0.000000000000000000 ) ) ;
#235 = VERTEX_POINT ( 'NONE', #15 ) ;
#236 = EDGE_LOOP ( 'NONE', ( #209, #207 ) ) ;
#237 = VECTOR ( 'NONE', #259, 39.37007874015748143 ) ;
#238 = AXIS2_PLACEMENT_3D ( 'NONE', #103, #186, #8 ) ;
#239 = SURFACE_STYLE_FILL_AREA ( #54 ) ;
#240 = PLANE ( 'NONE',  #258 ) ;
#241 = CARTESIAN_POINT ( 'NONE',  ( 0.000000000000000000, 39.37007874015748143, 0.000000000000000000 ) ) ;
#242 = ADVANCED_FACE ( 'NONE', ( #46 ), #240, .F. ) ;
#243 = EDGE_CURVE ( 'NONE', #235, #7, #184, .T. ) ;
#244 =( GEOMETRIC_REPRESENTATION_CONTEXT ( 3 ) GLOBAL_UNCERTAINTY_ASSIGNED_CONTEXT ( ( #265 ) ) GLOBAL_UNIT_ASSIGNED_CONTEXT ( ( #140, #264, #123 ) ) REPRESENTATION_CONTEXT ( 'NONE', 'WORKASPACE' ) );
#245 = UNCERTAINTY_MEASURE_WITH_UNIT (LENGTH_MEASURE( 1.000000000000000082E-05 ), #115, 'distance_accuracy_value', 'NONE');
#246 = ADVANCED_BREP_SHAPE_REPRESENTATION ( '84782', ( #50, #224, #218 ), #64 ) ;
#247 = DIRECTION ( 'NONE',  ( 0.000000000000000000, 0.000000000000000000, -1.000000000000000000 ) ) ;
#248 = SURFACE_STYLE_USAGE ( .BOTH. , #150 ) ;
#249 = SURFACE_STYLE_USAGE ( .BOTH. , #151 ) ;
#250 = PRODUCT_DEFINITION ( 'UNKNOWN', '', #217, #194 ) ;
#251 = LENGTH_MEASURE_WITH_UNIT ( LENGTH_MEASURE( 0.02539999999999999897 ), #80 );
#252 = CIRCLE ( 'NONE', #162, 0.3124999999999996669 ) ;
#253 = AXIS2_PLACEMENT_3D ( 'NONE', #229, #227, #173 ) ;
#254 = FILL_AREA_STYLE ('',( #257 ) ) ;
#255 = ORIENTED_EDGE ( 'NONE', *, *, #161, .F. ) ;
#256 =( NAMED_UNIT ( * ) SI_UNIT ( $, .STERADIAN. ) SOLID_ANGLE_UNIT ( ) );
#257 = FILL_AREA_STYLE_COLOUR ( '', #106 ) ;
#258 = AXIS2_PLACEMENT_3D ( 'NONE', #120, #210, #33 ) ;
#259 = DIRECTION ( 'NONE',  ( 6.123233995736778362E-17, 0.8660254037844380415, -0.5000000000000009992 ) ) ;
#260 = DIRECTION ( 'NONE',  ( -1.000000000000000000, 0.000000000000000000, 0.000000000000000000 ) ) ;
#261 = PRESENTATION_STYLE_ASSIGNMENT (( #142 ) ) ;
#262 = PRESENTATION_LAYER_ASSIGNMENT (  '', '', ( #99 ) ) ;
#263 =( GEOMETRIC_REPRESENTATION_CONTEXT ( 3 ) GLOBAL_UNCERTAINTY_ASSIGNED_CONTEXT ( ( #245 ) ) GLOBAL_UNIT_ASSIGNED_CONTEXT ( ( #115, #44, #117 ) ) REPRESENTATION_CONTEXT ( 'NONE', 'WORKASPACE' ) );
#264 =( NAMED_UNIT ( * ) PLANE_ANGLE_UNIT ( ) SI_UNIT ( $, .RADIAN. ) );
#265 = UNCERTAINTY_MEASURE_WITH_UNIT (LENGTH_MEASURE( 1.000000000000000082E-05 ), #140, 'distance_accuracy_value', 'NONE');
ENDSEC;
END-ISO-10303-21;
