ISO-10303-21;
HEADER;
FILE_DESCRIPTION (( 'STEP AP214' ),
    '1' );
FILE_NAME ('Micro_SME-023-2.STEP',
    '2021-09-02T10:58:27',
    ( '' ),
    ( '' ),
    'SwSTEP 2.0',
    'SolidWorks 2020',
    '' );
FILE_SCHEMA (( 'AUTOMOTIVE_DESIGN' ));
ENDSEC;

DATA;
#1 = DIRECTION ( 'NONE',  ( -1.000000000000000000, 0.0000000000000000000, 0.0000000000000000000 ) ) ;
#2 = DIRECTION ( 'NONE',  ( 1.000000000000000000, 0.0000000000000000000, 0.0000000000000000000 ) ) ;
#3 =( GEOMETRIC_REPRESENTATION_CONTEXT ( 3 ) GLOBAL_UNCERTAINTY_ASSIGNED_CONTEXT ( ( #275 ) ) GLOBAL_UNIT_ASSIGNED_CONTEXT ( ( #259, #228, #47 ) ) REPRESENTATION_CONTEXT ( 'NONE', 'WORKASPACE' ) );
#4 = PRODUCT_DEFINITION ( 'UNKNOWN', '', #267, #250 ) ;
#5 = ORIENTED_EDGE ( 'NONE', *, *, #208, .F. ) ;
#6 = EDGE_CURVE ( 'NONE', #256, #123, #235, .T. ) ;
#7 = FACE_OUTER_BOUND ( 'NONE', #30, .T. ) ;
#8 = EDGE_LOOP ( 'NONE', ( #49, #286, #231, #70 ) ) ;
#9 = AXIS2_PLACEMENT_3D ( 'NONE', #11, #53, #241 ) ;
#10 = DIRECTION ( 'NONE',  ( 1.000000000000000000, 0.0000000000000000000, 0.0000000000000000000 ) ) ;
#11 = CARTESIAN_POINT ( 'NONE',  ( 0.0000000000000000000, 0.0000000000000000000, 0.0000000000000000000 ) ) ;
#12 = CONICAL_SURFACE ( 'NONE', #51, 0.01148849999999999871, 0.1745329251994338915 ) ;
#13 = CARTESIAN_POINT ( 'NONE',  ( 0.01148849999999999698, 1.406935475200436438E-18, -1.406935475200437016E-18 ) ) ;
#14 = ORIENTED_EDGE ( 'NONE', *, *, #293, .F. ) ;
#15 = EDGE_CURVE ( 'NONE', #123, #181, #155, .T. ) ;
#16 = DIRECTION ( 'NONE',  ( -1.224646799147353700E-16, -0.0000000000000000000, -1.000000000000000000 ) ) ;
#17 = CARTESIAN_POINT ( 'NONE',  ( -0.06250000000000002776, 0.0000000000000000000, 1.500000000000000222 ) ) ;
#18 = DIRECTION ( 'NONE',  ( 1.000000000000000000, 0.0000000000000000000, 0.0000000000000000000 ) ) ;
#19 = EDGE_CURVE ( 'NONE', #181, #123, #198, .T. ) ;
#20 = DIRECTION ( 'NONE',  ( -1.000000000000000000, 0.0000000000000000000, 0.0000000000000000000 ) ) ;
#21 = MECHANICAL_DESIGN_GEOMETRIC_PRESENTATION_REPRESENTATION (  '', ( #281 ), #262 ) ;
#22 = DIRECTION ( 'NONE',  ( -0.7071067811865462405, 0.0000000000000000000, -0.7071067811865486830 ) ) ;
#23 = APPLICATION_CONTEXT ( 'automotive_design' ) ;
#24 = ADVANCED_FACE ( 'NONE', ( #99 ), #96, .F. ) ;
#25 =( CONVERSION_BASED_UNIT ( 'INCH', #276 ) LENGTH_UNIT ( ) NAMED_UNIT ( #245 ) );
#26 = FILL_AREA_STYLE_COLOUR ( '', #163 ) ;
#27 = CIRCLE ( 'NONE', #101, 0.06250000000000002776 ) ;
#28 = ORIENTED_EDGE ( 'NONE', *, *, #129, .F. ) ;
#29 = CARTESIAN_POINT ( 'NONE',  ( -0.01148849999999999524, 1.406935475200436630E-18, 0.03400000000000000244 ) ) ;
#30 = EDGE_LOOP ( 'NONE', ( #226, #134, #283, #28 ) ) ;
#31 = EDGE_LOOP ( 'NONE', ( #191, #89 ) ) ;
#32 = AXIS2_PLACEMENT_3D ( 'NONE', #147, #128, #18 ) ;
#33 = CARTESIAN_POINT ( 'NONE',  ( 4.163799117101003240E-18, 0.0000000000000000000, 0.03400000000000000244 ) ) ;
#34 = DIRECTION ( 'NONE',  ( -1.000000000000000000, 0.0000000000000000000, 0.0000000000000000000 ) ) ;
#35 = AXIS2_PLACEMENT_3D ( 'NONE', #122, #269, #52 ) ;
#36 = ORIENTED_EDGE ( 'NONE', *, *, #103, .T. ) ;
#37 = ADVANCED_FACE ( 'NONE', ( #102 ), #54, .T. ) ;
#38 = VERTEX_POINT ( 'NONE', #72 ) ;
#39 = DIRECTION ( 'NONE',  ( -0.0000000000000000000, -0.0000000000000000000, -1.000000000000000000 ) ) ;
#40 =( GEOMETRIC_REPRESENTATION_CONTEXT ( 3 ) GLOBAL_UNCERTAINTY_ASSIGNED_CONTEXT ( ( #200 ) ) GLOBAL_UNIT_ASSIGNED_CONTEXT ( ( #25, #58, #220 ) ) REPRESENTATION_CONTEXT ( 'NONE', 'WORKASPACE' ) );
#41 = FILL_AREA_STYLE_COLOUR ( '', #109 ) ;
#42 = CYLINDRICAL_SURFACE ( 'NONE', #193, 0.06250000000000002776 ) ;
#43 = DIRECTION ( 'NONE',  ( -1.224646799147353700E-16, -0.0000000000000000000, -1.000000000000000000 ) ) ;
#44 = CARTESIAN_POINT ( 'NONE',  ( 0.01148850000000000392, 0.0000000000000000000, 0.03400000000000000244 ) ) ;
#45 = CONICAL_SURFACE ( 'NONE', #188, 0.04750000000000064587, 0.7853981633974466137 ) ;
#46 = FACE_OUTER_BOUND ( 'NONE', #179, .T. ) ;
#47 =( NAMED_UNIT ( * ) SI_UNIT ( $, .STERADIAN. ) SOLID_ANGLE_UNIT ( ) );
#48 = ORIENTED_EDGE ( 'NONE', *, *, #126, .F. ) ;
#49 = ORIENTED_EDGE ( 'NONE', *, *, #103, .F. ) ;
#50 = SURFACE_STYLE_FILL_AREA ( #64 ) ;
#51 = AXIS2_PLACEMENT_3D ( 'NONE', #211, #284, #10 ) ;
#52 = DIRECTION ( 'NONE',  ( -1.000000000000000000, 0.0000000000000000000, 1.224646799147353700E-16 ) ) ;
#53 = DIRECTION ( 'NONE',  ( -1.224646799147353700E-16, -0.0000000000000000000, -1.000000000000000000 ) ) ;
#54 = CYLINDRICAL_SURFACE ( 'NONE', #297, 0.01148849999999999698 ) ;
#55 = ADVANCED_FACE ( 'NONE', ( #290 ), #71, .T. ) ;
#56 = EDGE_LOOP ( 'NONE', ( #145, #236, #233, #95 ) ) ;
#57 = DIRECTION ( 'NONE',  ( 1.224646799147353700E-16, 0.0000000000000000000, 1.000000000000000000 ) ) ;
#58 =( NAMED_UNIT ( * ) PLANE_ANGLE_UNIT ( ) SI_UNIT ( $, .RADIAN. ) );
#59 = CARTESIAN_POINT ( 'NONE',  ( 0.01148850000000000392, 0.0000000000000000000, 0.03400000000000000244 ) ) ;
#60 = PRODUCT ( 'Micro_SME-023-2', 'Micro_SME-023-2', '', ( #81 ) ) ;
#61 = CARTESIAN_POINT ( 'NONE',  ( 0.0000000000000000000, 0.0000000000000000000, 1.500000000000000222 ) ) ;
#62 = CARTESIAN_POINT ( 'NONE',  ( 0.0000000000000000000, 0.0000000000000000000, 1.485000000000000764 ) ) ;
#63 = AXIS2_PLACEMENT_3D ( 'NONE', #106, #175, #277 ) ;
#64 = FILL_AREA_STYLE ('',( #26 ) ) ;
#65 = DIRECTION ( 'NONE',  ( 1.000000000000000000, 0.0000000000000000000, 0.0000000000000000000 ) ) ;
#66 = ADVANCED_FACE ( 'NONE', ( #171 ), #146, .T. ) ;
#67 = LENGTH_MEASURE_WITH_UNIT ( LENGTH_MEASURE( 0.02539999999999999897 ), #205 );
#68 = AXIS2_PLACEMENT_3D ( 'NONE', #289, #74, #86 ) ;
#69 = CARTESIAN_POINT ( 'NONE',  ( 0.0000000000000000000, 0.0000000000000000000, 0.0000000000000000000 ) ) ;
#70 = ORIENTED_EDGE ( 'NONE', *, *, #224, .F. ) ;
#71 = CONICAL_SURFACE ( 'NONE', #199, 0.01148849999999999871, 0.1745329251994338915 ) ;
#72 = CARTESIAN_POINT ( 'NONE',  ( 0.06250000000000006939, 7.654042494670963708E-18, 0.3233005925414273452 ) ) ;
#73 = SHAPE_DEFINITION_REPRESENTATION ( #247, #105 ) ;
#74 = DIRECTION ( 'NONE',  ( -0.0000000000000000000, -0.0000000000000000000, -1.000000000000000000 ) ) ;
#75 = ADVANCED_FACE ( 'NONE', ( #76 ), #45, .T. ) ;
#76 = FACE_OUTER_BOUND ( 'NONE', #112, .T. ) ;
#77 = AXIS2_PLACEMENT_3D ( 'NONE', #62, #202, #2 ) ;
#78 = CARTESIAN_POINT ( 'NONE',  ( 1.722999026311076435E-34, 0.0000000000000000000, 1.406935475200437016E-18 ) ) ;
#79 = DIRECTION ( 'NONE',  ( 1.000000000000000000, 0.0000000000000000000, -0.0000000000000000000 ) ) ;
#80 = CARTESIAN_POINT ( 'NONE',  ( -0.01148849999999999698, 0.0000000000000000000, 2.813870950400874031E-18 ) ) ;
#81 = PRODUCT_CONTEXT ( 'NONE', #161, 'mechanical' ) ;
#82 = VECTOR ( 'NONE', #172, 39.37007874015748143 ) ;
#83 = CARTESIAN_POINT ( 'NONE',  ( 3.959290358183018304E-17, 0.0000000000000000000, 0.3233005925414273452 ) ) ;
#84 = EDGE_CURVE ( 'NONE', #185, #189, #121, .T. ) ;
#85 = FILL_AREA_STYLE ('',( #41 ) ) ;
#86 = DIRECTION ( 'NONE',  ( -1.000000000000000000, 0.0000000000000000000, 0.0000000000000000000 ) ) ;
#87 =( LENGTH_UNIT ( ) NAMED_UNIT ( * ) SI_UNIT ( $, .METRE. ) );
#88 = CARTESIAN_POINT ( 'NONE',  ( -0.01148849999999999524, 4.530488984935698628E-18, 0.03400000000000000244 ) ) ;
#89 = ORIENTED_EDGE ( 'NONE', *, *, #19, .T. ) ;
#90 = CARTESIAN_POINT ( 'NONE',  ( 0.0000000000000000000, 0.0000000000000000000, 1.500000000000000222 ) ) ;
#91 = VERTEX_POINT ( 'NONE', #117 ) ;
#92 = CIRCLE ( 'NONE', #32, 0.04750000000000064587 ) ;
#93 = ORIENTED_EDGE ( 'NONE', *, *, #221, .F. ) ;
#94 = DIRECTION ( 'NONE',  ( 0.0000000000000000000, 0.0000000000000000000, -1.000000000000000000 ) ) ;
#95 = ORIENTED_EDGE ( 'NONE', *, *, #6, .F. ) ;
#96 = PLANE ( 'NONE',  #114 ) ;
#97 = FACE_OUTER_BOUND ( 'NONE', #142, .T. ) ;
#98 = DIRECTION ( 'NONE',  ( 0.0000000000000000000, 0.0000000000000000000, 1.000000000000000000 ) ) ;
#99 = FACE_OUTER_BOUND ( 'NONE', #31, .T. ) ;
#100 = DIRECTION ( 'NONE',  ( -1.000000000000000000, 0.0000000000000000000, 1.224646799147353700E-16 ) ) ;
#101 = AXIS2_PLACEMENT_3D ( 'NONE', #209, #282, #65 ) ;
#102 = FACE_OUTER_BOUND ( 'NONE', #56, .T. ) ;
#103 = EDGE_CURVE ( 'NONE', #91, #38, #143, .T. ) ;
#104 = SURFACE_STYLE_USAGE ( .BOTH. , #153 ) ;
#105 = ADVANCED_BREP_SHAPE_REPRESENTATION ( 'Micro_SME-023-2', ( #187, #219 ), #3 ) ;
#106 = CARTESIAN_POINT ( 'NONE',  ( 3.959290358183018304E-17, 0.0000000000000000000, 0.3233005925414273452 ) ) ;
#107 = EDGE_CURVE ( 'NONE', #216, #181, #214, .T. ) ;
#108 = CIRCLE ( 'NONE', #148, 0.06250000000000002776 ) ;
#109 = COLOUR_RGB ( '',0.7921568627450980005, 0.8196078431372548767, 0.9333333333333333481 ) ;
#110 = ORIENTED_EDGE ( 'NONE', *, *, #6, .T. ) ;
#111 = PRESENTATION_STYLE_ASSIGNMENT (( #234 ) ) ;
#112 = EDGE_LOOP ( 'NONE', ( #240, #238, #133, #93 ) ) ;
#113 = LINE ( 'NONE', #132, #119 ) ;
#114 = AXIS2_PLACEMENT_3D ( 'NONE', #213, #192, #79 ) ;
#115 = DIRECTION ( 'NONE',  ( -0.1736481776669311916, 2.126576849575783316E-17, 0.9848077530122080203 ) ) ;
#116 = DIRECTION ( 'NONE',  ( -1.224646799147353700E-16, -0.0000000000000000000, -1.000000000000000000 ) ) ;
#117 = CARTESIAN_POINT ( 'NONE',  ( 0.06250000000000002776, 7.654042494670959086E-18, 1.485000000000000764 ) ) ;
#118 = CLOSED_SHELL ( 'NONE', ( #37, #264, #75, #120, #196, #158, #270, #55, #66, #24 ) ) ;
#119 = VECTOR ( 'NONE', #184, 39.37007874015748854 ) ;
#120 = ADVANCED_FACE ( 'NONE', ( #97 ), #190, .T. ) ;
#121 = LINE ( 'NONE', #17, #218 ) ;
#122 = CARTESIAN_POINT ( 'NONE',  ( 1.722999026311076435E-34, 0.0000000000000000000, 1.406935475200437016E-18 ) ) ;
#123 = VERTEX_POINT ( 'NONE', #80 ) ;
#124 = DIRECTION ( 'NONE',  ( -0.0000000000000000000, -0.0000000000000000000, -1.000000000000000000 ) ) ;
#125 = DIRECTION ( 'NONE',  ( 1.000000000000000000, 0.0000000000000000000, 0.0000000000000000000 ) ) ;
#126 = EDGE_CURVE ( 'NONE', #216, #256, #287, .T. ) ;
#127 = VECTOR ( 'NONE', #165, 39.37007874015748143 ) ;
#128 = DIRECTION ( 'NONE',  ( 0.0000000000000000000, 0.0000000000000000000, 1.000000000000000000 ) ) ;
#129 = EDGE_CURVE ( 'NONE', #91, #185, #152, .T. ) ;
#130 = DIRECTION ( 'NONE',  ( -1.224646799147353700E-16, -0.0000000000000000000, -1.000000000000000000 ) ) ;
#131 = ORIENTED_EDGE ( 'NONE', *, *, #84, .F. ) ;
#132 = CARTESIAN_POINT ( 'NONE',  ( 0.04750000000000064587, 5.817072295950006528E-18, 1.500000000000000222 ) ) ;
#133 = ORIENTED_EDGE ( 'NONE', *, *, #230, .F. ) ;
#134 = ORIENTED_EDGE ( 'NONE', *, *, #183, .F. ) ;
#135 = LINE ( 'NONE', #29, #266 ) ;
#136 = CIRCLE ( 'NONE', #227, 0.01148849999999999871 ) ;
#137 = EDGE_LOOP ( 'NONE', ( #280, #186, #268, #5 ) ) ;
#138 = APPLICATION_PROTOCOL_DEFINITION ( 'draft international standard', 'automotive_design', 1998, #23 ) ;
#139 = DIRECTION ( 'NONE',  ( -1.000000000000000000, 0.0000000000000000000, 1.224646799147353700E-16 ) ) ;
#140 = DIRECTION ( 'NONE',  ( 1.000000000000000000, 0.0000000000000000000, 0.0000000000000000000 ) ) ;
#141 = EDGE_CURVE ( 'NONE', #217, #229, #249, .T. ) ;
#142 = EDGE_LOOP ( 'NONE', ( #169, #36, #194, #131 ) ) ;
#143 = LINE ( 'NONE', #215, #168 ) ;
#144 = AXIS2_PLACEMENT_3D ( 'NONE', #296, #174, #176 ) ;
#145 = ORIENTED_EDGE ( 'NONE', *, *, #239, .T. ) ;
#146 = CYLINDRICAL_SURFACE ( 'NONE', #9, 0.01148849999999999698 ) ;
#147 = CARTESIAN_POINT ( 'NONE',  ( 0.0000000000000000000, 0.0000000000000000000, 1.500000000000000222 ) ) ;
#148 = AXIS2_PLACEMENT_3D ( 'NONE', #83, #43, #125 ) ;
#149 = DIRECTION ( 'NONE',  ( 0.0000000000000000000, 0.0000000000000000000, 1.000000000000000000 ) ) ;
#150 = DIMENSIONAL_EXPONENTS ( 1.000000000000000000, 0.0000000000000000000, 0.0000000000000000000, 0.0000000000000000000, 0.0000000000000000000, 0.0000000000000000000, 0.0000000000000000000 ) ;
#151 = PRODUCT_RELATED_PRODUCT_CATEGORY ( 'part', '', ( #60 ) ) ;
#152 = CIRCLE ( 'NONE', #77, 0.06250000000000002776 ) ;
#153 = SURFACE_SIDE_STYLE ('',( #195 ) ) ;
#154 = FACE_OUTER_BOUND ( 'NONE', #137, .T. ) ;
#155 = CIRCLE ( 'NONE', #35, 0.01148849999999999698 ) ;
#156 = CONICAL_SURFACE ( 'NONE', #173, 0.04750000000000064587, 0.7853981633974466137 ) ;
#157 = CARTESIAN_POINT ( 'NONE',  ( 4.163799117101003240E-18, 0.0000000000000000000, 0.03400000000000000244 ) ) ;
#158 = ADVANCED_FACE ( 'NONE', ( #46 ), #298, .T. ) ;
#159 =( CONVERSION_BASED_UNIT ( 'INCH', #67 ) LENGTH_UNIT ( ) NAMED_UNIT ( #150 ) );
#160 = ORIENTED_EDGE ( 'NONE', *, *, #208, .T. ) ;
#161 = APPLICATION_CONTEXT ( 'automotive_design' ) ;
#162 = ORIENTED_EDGE ( 'NONE', *, *, #224, .T. ) ;
#163 = COLOUR_RGB ( '',0.7921568627450980005, 0.8196078431372548767, 0.9333333333333333481 ) ;
#164 = CARTESIAN_POINT ( 'NONE',  ( 0.0000000000000000000, 0.0000000000000000000, 1.500000000000000222 ) ) ;
#165 = DIRECTION ( 'NONE',  ( -1.224646799147353700E-16, -0.0000000000000000000, -1.000000000000000000 ) ) ;
#166 = DIRECTION ( 'NONE',  ( -1.224646799147353700E-16, -0.0000000000000000000, -1.000000000000000000 ) ) ;
#167 = EDGE_CURVE ( 'NONE', #189, #38, #237, .T. ) ;
#168 = VECTOR ( 'NONE', #294, 39.37007874015748143 ) ;
#169 = ORIENTED_EDGE ( 'NONE', *, *, #230, .T. ) ;
#170 = DIMENSIONAL_EXPONENTS ( 1.000000000000000000, 0.0000000000000000000, 0.0000000000000000000, 0.0000000000000000000, 0.0000000000000000000, 0.0000000000000000000, 0.0000000000000000000 ) ;
#171 = FACE_OUTER_BOUND ( 'NONE', #260, .T. ) ;
#172 = DIRECTION ( 'NONE',  ( 0.1736481776669313859, 0.0000000000000000000, 0.9848077530122077983 ) ) ;
#173 = AXIS2_PLACEMENT_3D ( 'NONE', #90, #94, #206 ) ;
#174 = DIRECTION ( 'NONE',  ( 0.0000000000000000000, 0.0000000000000000000, 1.000000000000000000 ) ) ;
#175 = DIRECTION ( 'NONE',  ( -1.224646799147353700E-16, -0.0000000000000000000, -1.000000000000000000 ) ) ;
#176 = DIRECTION ( 'NONE',  ( 1.000000000000000000, 0.0000000000000000000, 0.0000000000000000000 ) ) ;
#177 = PRESENTATION_LAYER_ASSIGNMENT (  '', '', ( #273 ) ) ;
#178 =( LENGTH_UNIT ( ) NAMED_UNIT ( * ) SI_UNIT ( $, .METRE. ) );
#179 = EDGE_LOOP ( 'NONE', ( #279, #207 ) ) ;
#180 = SURFACE_SIDE_STYLE ('',( #50 ) ) ;
#181 = VERTEX_POINT ( 'NONE', #197 ) ;
#182 = VECTOR ( 'NONE', #166, 39.37007874015748143 ) ;
#183 = EDGE_CURVE ( 'NONE', #229, #217, #92, .T. ) ;
#184 = DIRECTION ( 'NONE',  ( 0.7071067811865462405, 8.659560562354916834E-17, -0.7071067811865486830 ) ) ;
#185 = VERTEX_POINT ( 'NONE', #251 ) ;
#186 = ORIENTED_EDGE ( 'NONE', *, *, #293, .T. ) ;
#187 = MANIFOLD_SOLID_BREP ( 'Cut-Revolve1', #118 ) ;
#188 = AXIS2_PLACEMENT_3D ( 'NONE', #164, #263, #34 ) ;
#189 = VERTEX_POINT ( 'NONE', #248 ) ;
#190 = CYLINDRICAL_SURFACE ( 'NONE', #68, 0.06250000000000002776 ) ;
#191 = ORIENTED_EDGE ( 'NONE', *, *, #15, .T. ) ;
#192 = DIRECTION ( 'NONE',  ( 0.0000000000000000000, 0.0000000000000000000, 1.000000000000000000 ) ) ;
#193 = AXIS2_PLACEMENT_3D ( 'NONE', #203, #124, #1 ) ;
#194 = ORIENTED_EDGE ( 'NONE', *, *, #167, .F. ) ;
#195 = SURFACE_STYLE_FILL_AREA ( #85 ) ;
#196 = ADVANCED_FACE ( 'NONE', ( #244 ), #42, .T. ) ;
#197 = CARTESIAN_POINT ( 'NONE',  ( 0.01148849999999999698, 1.406935475200436438E-18, 0.0000000000000000000 ) ) ;
#198 = CIRCLE ( 'NONE', #291, 0.01148849999999999698 ) ;
#199 = AXIS2_PLACEMENT_3D ( 'NONE', #33, #57, #265 ) ;
#200 = UNCERTAINTY_MEASURE_WITH_UNIT (LENGTH_MEASURE( 1.000000000000000082E-05 ), #25, 'distance_accuracy_value', 'NONE');
#201 = CARTESIAN_POINT ( 'NONE',  ( 0.04750000000000064587, 6.735557395310483192E-18, 1.500000000000000222 ) ) ;
#202 = DIRECTION ( 'NONE',  ( 0.0000000000000000000, 0.0000000000000000000, -1.000000000000000000 ) ) ;
#203 = CARTESIAN_POINT ( 'NONE',  ( 0.0000000000000000000, 0.0000000000000000000, 1.500000000000000222 ) ) ;
#204 = PRESENTATION_LAYER_ASSIGNMENT (  '', '', ( #281 ) ) ;
#205 =( LENGTH_UNIT ( ) NAMED_UNIT ( * ) SI_UNIT ( $, .METRE. ) );
#206 = DIRECTION ( 'NONE',  ( -1.000000000000000000, 0.0000000000000000000, 0.0000000000000000000 ) ) ;
#207 = ORIENTED_EDGE ( 'NONE', *, *, #141, .T. ) ;
#208 = EDGE_CURVE ( 'NONE', #216, #38, #295, .T. ) ;
#209 = CARTESIAN_POINT ( 'NONE',  ( 0.0000000000000000000, 0.0000000000000000000, 1.485000000000000764 ) ) ;
#210 = AXIS2_PLACEMENT_3D ( 'NONE', #272, #242, #20 ) ;
#211 = CARTESIAN_POINT ( 'NONE',  ( 4.163799117101003240E-18, 0.0000000000000000000, 0.03400000000000000244 ) ) ;
#212 = ORIENTED_EDGE ( 'NONE', *, *, #107, .F. ) ;
#213 = CARTESIAN_POINT ( 'NONE',  ( 0.0000000000000000000, 0.0000000000000000000, 0.0000000000000000000 ) ) ;
#214 = LINE ( 'NONE', #13, #182 ) ;
#215 = CARTESIAN_POINT ( 'NONE',  ( 0.06250000000000002776, 7.654042494670959086E-18, 1.500000000000000222 ) ) ;
#216 = VERTEX_POINT ( 'NONE', #59 ) ;
#217 = VERTEX_POINT ( 'NONE', #201 ) ;
#218 = VECTOR ( 'NONE', #39, 39.37007874015748143 ) ;
#219 = AXIS2_PLACEMENT_3D ( 'NONE', #69, #98, #140 ) ;
#220 =( NAMED_UNIT ( * ) SI_UNIT ( $, .STERADIAN. ) SOLID_ANGLE_UNIT ( ) );
#221 = EDGE_CURVE ( 'NONE', #229, #185, #246, .T. ) ;
#222 = CARTESIAN_POINT ( 'NONE',  ( -0.04750000000000064587, 0.0000000000000000000, 1.500000000000000222 ) ) ;
#223 = CARTESIAN_POINT ( 'NONE',  ( -0.04750000000000064587, 0.0000000000000000000, 1.500000000000000222 ) ) ;
#224 = EDGE_CURVE ( 'NONE', #38, #189, #108, .T. ) ;
#225 = DIRECTION ( 'NONE',  ( -1.000000000000000000, 0.0000000000000000000, 0.0000000000000000000 ) ) ;
#226 = ORIENTED_EDGE ( 'NONE', *, *, #252, .F. ) ;
#227 = AXIS2_PLACEMENT_3D ( 'NONE', #157, #130, #225 ) ;
#228 =( NAMED_UNIT ( * ) PLANE_ANGLE_UNIT ( ) SI_UNIT ( $, .RADIAN. ) );
#229 = VERTEX_POINT ( 'NONE', #223 ) ;
#230 = EDGE_CURVE ( 'NONE', #185, #91, #27, .T. ) ;
#231 = ORIENTED_EDGE ( 'NONE', *, *, #84, .T. ) ;
#232 =( NAMED_UNIT ( * ) SI_UNIT ( $, .STERADIAN. ) SOLID_ANGLE_UNIT ( ) );
#233 = ORIENTED_EDGE ( 'NONE', *, *, #15, .F. ) ;
#234 = SURFACE_STYLE_USAGE ( .BOTH. , #180 ) ;
#235 = LINE ( 'NONE', #288, #127 ) ;
#236 = ORIENTED_EDGE ( 'NONE', *, *, #107, .T. ) ;
#237 = CIRCLE ( 'NONE', #63, 0.06250000000000002776 ) ;
#238 = ORIENTED_EDGE ( 'NONE', *, *, #252, .T. ) ;
#239 = EDGE_CURVE ( 'NONE', #256, #216, #136, .T. ) ;
#240 = ORIENTED_EDGE ( 'NONE', *, *, #141, .F. ) ;
#241 = DIRECTION ( 'NONE',  ( -1.000000000000000000, 0.0000000000000000000, 1.224646799147353700E-16 ) ) ;
#242 = DIRECTION ( 'NONE',  ( -1.224646799147353700E-16, -0.0000000000000000000, -1.000000000000000000 ) ) ;
#243 = MECHANICAL_DESIGN_GEOMETRIC_PRESENTATION_REPRESENTATION (  '', ( #273 ), #40 ) ;
#244 = FACE_OUTER_BOUND ( 'NONE', #8, .T. ) ;
#245 = DIMENSIONAL_EXPONENTS ( 1.000000000000000000, 0.0000000000000000000, 0.0000000000000000000, 0.0000000000000000000, 0.0000000000000000000, 0.0000000000000000000, 0.0000000000000000000 ) ;
#246 = LINE ( 'NONE', #222, #261 ) ;
#247 = PRODUCT_DEFINITION_SHAPE ( 'NONE', 'NONE',  #4 ) ;
#248 = CARTESIAN_POINT ( 'NONE',  ( -0.06249999999999997918, 0.0000000000000000000, 0.3233005925414273452 ) ) ;
#249 = CIRCLE ( 'NONE', #144, 0.04750000000000064587 ) ;
#250 = PRODUCT_DEFINITION_CONTEXT ( 'detailed design', #23, 'design' ) ;
#251 = CARTESIAN_POINT ( 'NONE',  ( -0.06250000000000002776, 0.0000000000000000000, 1.485000000000000764 ) ) ;
#252 = EDGE_CURVE ( 'NONE', #217, #91, #113, .T. ) ;
#253 = ORIENTED_EDGE ( 'NONE', *, *, #126, .T. ) ;
#254 = AXIS2_PLACEMENT_3D ( 'NONE', #61, #149, #271 ) ;
#255 = APPLICATION_PROTOCOL_DEFINITION ( 'draft international standard', 'automotive_design', 1998, #161 ) ;
#256 = VERTEX_POINT ( 'NONE', #88 ) ;
#257 =( NAMED_UNIT ( * ) PLANE_ANGLE_UNIT ( ) SI_UNIT ( $, .RADIAN. ) );
#258 = EDGE_LOOP ( 'NONE', ( #14, #48, #160, #162 ) ) ;
#259 =( CONVERSION_BASED_UNIT ( 'INCH', #278 ) LENGTH_UNIT ( ) NAMED_UNIT ( #170 ) );
#260 = EDGE_LOOP ( 'NONE', ( #212, #253, #110, #285 ) ) ;
#261 = VECTOR ( 'NONE', #22, 39.37007874015748854 ) ;
#262 =( GEOMETRIC_REPRESENTATION_CONTEXT ( 3 ) GLOBAL_UNCERTAINTY_ASSIGNED_CONTEXT ( ( #299 ) ) GLOBAL_UNIT_ASSIGNED_CONTEXT ( ( #159, #257, #232 ) ) REPRESENTATION_CONTEXT ( 'NONE', 'WORKASPACE' ) );
#263 = DIRECTION ( 'NONE',  ( 0.0000000000000000000, 0.0000000000000000000, -1.000000000000000000 ) ) ;
#264 = ADVANCED_FACE ( 'NONE', ( #154 ), #12, .T. ) ;
#265 = DIRECTION ( 'NONE',  ( 1.000000000000000000, 0.0000000000000000000, 0.0000000000000000000 ) ) ;
#266 = VECTOR ( 'NONE', #115, 39.37007874015747433 ) ;
#267 = PRODUCT_DEFINITION_FORMATION_WITH_SPECIFIED_SOURCE ( 'ANY', '', #60, .NOT_KNOWN. ) ;
#268 = ORIENTED_EDGE ( 'NONE', *, *, #167, .T. ) ;
#269 = DIRECTION ( 'NONE',  ( -1.224646799147353700E-16, -0.0000000000000000000, -1.000000000000000000 ) ) ;
#270 = ADVANCED_FACE ( 'NONE', ( #7 ), #156, .T. ) ;
#271 = DIRECTION ( 'NONE',  ( 1.000000000000000000, 0.0000000000000000000, -0.0000000000000000000 ) ) ;
#272 = CARTESIAN_POINT ( 'NONE',  ( 4.163799117101003240E-18, 0.0000000000000000000, 0.03400000000000000244 ) ) ;
#273 = STYLED_ITEM ( 'NONE', ( #274 ), #187 ) ;
#274 = PRESENTATION_STYLE_ASSIGNMENT (( #104 ) ) ;
#275 = UNCERTAINTY_MEASURE_WITH_UNIT (LENGTH_MEASURE( 1.000000000000000082E-05 ), #259, 'distance_accuracy_value', 'NONE');
#276 = LENGTH_MEASURE_WITH_UNIT ( LENGTH_MEASURE( 0.02539999999999999897 ), #87 );
#277 = DIRECTION ( 'NONE',  ( 1.000000000000000000, 0.0000000000000000000, 0.0000000000000000000 ) ) ;
#278 = LENGTH_MEASURE_WITH_UNIT ( LENGTH_MEASURE( 0.02539999999999999897 ), #178 );
#279 = ORIENTED_EDGE ( 'NONE', *, *, #183, .T. ) ;
#280 = ORIENTED_EDGE ( 'NONE', *, *, #239, .F. ) ;
#281 = STYLED_ITEM ( 'NONE', ( #111 ), #105 ) ;
#282 = DIRECTION ( 'NONE',  ( 0.0000000000000000000, 0.0000000000000000000, -1.000000000000000000 ) ) ;
#283 = ORIENTED_EDGE ( 'NONE', *, *, #221, .T. ) ;
#284 = DIRECTION ( 'NONE',  ( 1.224646799147353700E-16, 0.0000000000000000000, 1.000000000000000000 ) ) ;
#285 = ORIENTED_EDGE ( 'NONE', *, *, #19, .F. ) ;
#286 = ORIENTED_EDGE ( 'NONE', *, *, #129, .T. ) ;
#287 = CIRCLE ( 'NONE', #210, 0.01148849999999999871 ) ;
#288 = CARTESIAN_POINT ( 'NONE',  ( -0.01148849999999999698, 0.0000000000000000000, 1.406935475200437016E-18 ) ) ;
#289 = CARTESIAN_POINT ( 'NONE',  ( 0.0000000000000000000, 0.0000000000000000000, 1.500000000000000222 ) ) ;
#290 = FACE_OUTER_BOUND ( 'NONE', #258, .T. ) ;
#291 = AXIS2_PLACEMENT_3D ( 'NONE', #78, #16, #100 ) ;
#292 = CARTESIAN_POINT ( 'NONE',  ( 0.0000000000000000000, 0.0000000000000000000, 0.0000000000000000000 ) ) ;
#293 = EDGE_CURVE ( 'NONE', #256, #189, #135, .T. ) ;
#294 = DIRECTION ( 'NONE',  ( -0.0000000000000000000, -0.0000000000000000000, -1.000000000000000000 ) ) ;
#295 = LINE ( 'NONE', #44, #82 ) ;
#296 = CARTESIAN_POINT ( 'NONE',  ( 0.0000000000000000000, 0.0000000000000000000, 1.500000000000000222 ) ) ;
#297 = AXIS2_PLACEMENT_3D ( 'NONE', #292, #116, #139 ) ;
#298 = PLANE ( 'NONE',  #254 ) ;
#299 = UNCERTAINTY_MEASURE_WITH_UNIT (LENGTH_MEASURE( 1.000000000000000082E-05 ), #159, 'distance_accuracy_value', 'NONE');
ENDSEC;
END-ISO-10303-21;
