ISO-10303-21;
HEADER;
FILE_DESCRIPTION (( 'STEP AP214' ),
    '1' );
FILE_NAME ('Micro_EMS-001-3.STEP',
    '2021-09-01T17:29:33',
    ( '' ),
    ( '' ),
    'SwSTEP 2.0',
    'SolidWorks 2020',
    '' );
FILE_SCHEMA (( 'AUTOMOTIVE_DESIGN' ));
ENDSEC;

DATA;
#1 = DIRECTION ( 'NONE',  ( -1.000000000000000000, 0.0000000000000000000, 0.0000000000000000000 ) ) ;
#2 = DIRECTION ( 'NONE',  ( -1.224646799147353207E-16, -0.0000000000000000000, -1.000000000000000000 ) ) ;
#3 = CONICAL_SURFACE ( 'NONE', #292, 0.4994999999999999996, 0.1745329251994338082 ) ;
#4 = CARTESIAN_POINT ( 'NONE',  ( 0.4995000000000002771, 0.0000000000000000000, 2.500000000000000000 ) ) ;
#5 = LINE ( 'NONE', #89, #148 ) ;
#6 = DIRECTION ( 'NONE',  ( -0.0000000000000000000, -0.0000000000000000000, -1.000000000000000000 ) ) ;
#7 = APPLICATION_CONTEXT ( 'automotive_design' ) ;
#8 = MECHANICAL_DESIGN_GEOMETRIC_PRESENTATION_REPRESENTATION (  '', ( #47 ), #105 ) ;
#9 =( NAMED_UNIT ( * ) PLANE_ANGLE_UNIT ( ) SI_UNIT ( $, .RADIAN. ) );
#10 = FILL_AREA_STYLE_COLOUR ( '', #199 ) ;
#11 = ORIENTED_EDGE ( 'NONE', *, *, #263, .F. ) ;
#12 = VECTOR ( 'NONE', #293, 39.37007874015747433 ) ;
#13 =( NAMED_UNIT ( * ) PLANE_ANGLE_UNIT ( ) SI_UNIT ( $, .RADIAN. ) );
#14 = ORIENTED_EDGE ( 'NONE', *, *, #171, .F. ) ;
#15 = APPLICATION_PROTOCOL_DEFINITION ( 'draft international standard', 'automotive_design', 1998, #7 ) ;
#16 = EDGE_CURVE ( 'NONE', #35, #77, #58, .T. ) ;
#17 = DIRECTION ( 'NONE',  ( -1.000000000000000000, 0.0000000000000000000, 1.224646799147353454E-16 ) ) ;
#18 = CONICAL_SURFACE ( 'NONE', #160, 0.4850000000000004308, 0.7853981633974437271 ) ;
#19 = ORIENTED_EDGE ( 'NONE', *, *, #269, .T. ) ;
#20 = ORIENTED_EDGE ( 'NONE', *, *, #181, .T. ) ;
#21 = CARTESIAN_POINT ( 'NONE',  ( 0.0000000000000000000, 0.0000000000000000000, 4.985000000000000320 ) ) ;
#22 = FACE_OUTER_BOUND ( 'NONE', #283, .T. ) ;
#23 =( GEOMETRIC_REPRESENTATION_CONTEXT ( 3 ) GLOBAL_UNCERTAINTY_ASSIGNED_CONTEXT ( ( #218 ) ) GLOBAL_UNIT_ASSIGNED_CONTEXT ( ( #185, #118, #188 ) ) REPRESENTATION_CONTEXT ( 'NONE', 'WORKASPACE' ) );
#24 = LINE ( 'NONE', #107, #86 ) ;
#25 = DIMENSIONAL_EXPONENTS ( 1.000000000000000000, 0.0000000000000000000, 0.0000000000000000000, 0.0000000000000000000, 0.0000000000000000000, 0.0000000000000000000, 0.0000000000000000000 ) ;
#26 = DIRECTION ( 'NONE',  ( -1.000000000000000000, 0.0000000000000000000, 0.0000000000000000000 ) ) ;
#27 = CARTESIAN_POINT ( 'NONE',  ( 3.061616997868383141E-16, 0.0000000000000000000, 2.500000000000000000 ) ) ;
#28 = COLOUR_RGB ( '',0.7921568627450980005, 0.8196078431372548767, 0.9333333333333333481 ) ;
#29 =( GEOMETRIC_REPRESENTATION_CONTEXT ( 3 ) GLOBAL_UNCERTAINTY_ASSIGNED_CONTEXT ( ( #96 ) ) GLOBAL_UNIT_ASSIGNED_CONTEXT ( ( #286, #13, #92 ) ) REPRESENTATION_CONTEXT ( 'NONE', 'WORKASPACE' ) );
#30 = FACE_OUTER_BOUND ( 'NONE', #97, .T. ) ;
#31 = FACE_OUTER_BOUND ( 'NONE', #142, .T. ) ;
#32 = CIRCLE ( 'NONE', #234, 0.4994999999999999996 ) ;
#33 = VERTEX_POINT ( 'NONE', #79 ) ;
#34 = DIRECTION ( 'NONE',  ( -0.0000000000000000000, -0.0000000000000000000, -1.000000000000000000 ) ) ;
#35 = VERTEX_POINT ( 'NONE', #126 ) ;
#36 = ORIENTED_EDGE ( 'NONE', *, *, #164, .F. ) ;
#37 = VECTOR ( 'NONE', #67, 39.37007874015748143 ) ;
#38 = ORIENTED_EDGE ( 'NONE', *, *, #253, .F. ) ;
#39 = VERTEX_POINT ( 'NONE', #197 ) ;
#40 = DIRECTION ( 'NONE',  ( -1.224646799147353207E-16, -0.0000000000000000000, -1.000000000000000000 ) ) ;
#41 = AXIS2_PLACEMENT_3D ( 'NONE', #143, #53, #91 ) ;
#42 = EDGE_CURVE ( 'NONE', #80, #98, #136, .T. ) ;
#43 = FACE_OUTER_BOUND ( 'NONE', #217, .T. ) ;
#44 = CARTESIAN_POINT ( 'NONE',  ( 3.061616997868383141E-16, 0.0000000000000000000, 2.500000000000000000 ) ) ;
#45 = DIRECTION ( 'NONE',  ( -0.7071067811865443531, 0.0000000000000000000, -0.7071067811865507924 ) ) ;
#46 = AXIS2_PLACEMENT_3D ( 'NONE', #168, #169, #149 ) ;
#47 = STYLED_ITEM ( 'NONE', ( #242 ), #173 ) ;
#48 = DIRECTION ( 'NONE',  ( 0.0000000000000000000, 0.0000000000000000000, 1.000000000000000000 ) ) ;
#49 = DIRECTION ( 'NONE',  ( 0.0000000000000000000, 0.0000000000000000000, 1.000000000000000000 ) ) ;
#50 = DIRECTION ( 'NONE',  ( -1.224646799147353207E-16, -0.0000000000000000000, -1.000000000000000000 ) ) ;
#51 = VECTOR ( 'NONE', #132, 39.37007874015748143 ) ;
#52 = CARTESIAN_POINT ( 'NONE',  ( 3.061616997868383141E-16, 0.0000000000000000000, 2.500000000000000000 ) ) ;
#53 = DIRECTION ( 'NONE',  ( 0.0000000000000000000, 0.0000000000000000000, -1.000000000000000000 ) ) ;
#54 = ORIENTED_EDGE ( 'NONE', *, *, #104, .F. ) ;
#55 = AXIS2_PLACEMENT_3D ( 'NONE', #155, #48, #252 ) ;
#56 = ORIENTED_EDGE ( 'NONE', *, *, #253, .T. ) ;
#57 = ORIENTED_EDGE ( 'NONE', *, *, #115, .T. ) ;
#58 = CIRCLE ( 'NONE', #198, 0.4994999999999999996 ) ;
#59 = DIRECTION ( 'NONE',  ( 1.000000000000000000, 0.0000000000000000000, 0.0000000000000000000 ) ) ;
#60 = CYLINDRICAL_SURFACE ( 'NONE', #127, 0.4994999999999999996 ) ;
#61 = CARTESIAN_POINT ( 'NONE',  ( -0.4994999999999997775, 6.117110761741029900E-17, 2.500000000000000000 ) ) ;
#62 = CARTESIAN_POINT ( 'NONE',  ( 7.491300114395979244E-33, 0.0000000000000000000, 6.117110761741029900E-17 ) ) ;
#63 = ORIENTED_EDGE ( 'NONE', *, *, #263, .T. ) ;
#64 = CARTESIAN_POINT ( 'NONE',  ( 0.0000000000000000000, 0.0000000000000000000, 5.000000000000000000 ) ) ;
#65 = PLANE ( 'NONE',  #216 ) ;
#66 = AXIS2_PLACEMENT_3D ( 'NONE', #179, #135, #277 ) ;
#67 = DIRECTION ( 'NONE',  ( -0.0000000000000000000, -0.0000000000000000000, -1.000000000000000000 ) ) ;
#68 = CARTESIAN_POINT ( 'NONE',  ( 3.065089656432111634E-16, 0.0000000000000000000, 2.502835640909808923 ) ) ;
#69 = FACE_OUTER_BOUND ( 'NONE', #296, .T. ) ;
#70 = CIRCLE ( 'NONE', #246, 0.5000000000000000000 ) ;
#71 = CARTESIAN_POINT ( 'NONE',  ( -0.4850000000000004308, 0.0000000000000000000, 5.000000000000000000 ) ) ;
#72 =( CONVERSION_BASED_UNIT ( 'INCH', #290 ) LENGTH_UNIT ( ) NAMED_UNIT ( #170 ) );
#73 = ADVANCED_FACE ( 'NONE', ( #227 ), #60, .T. ) ;
#74 = ORIENTED_EDGE ( 'NONE', *, *, #224, .F. ) ;
#75 = CIRCLE ( 'NONE', #46, 0.5000000000000000000 ) ;
#76 = SURFACE_SIDE_STYLE ('',( #94 ) ) ;
#77 = VERTEX_POINT ( 'NONE', #82 ) ;
#78 = ORIENTED_EDGE ( 'NONE', *, *, #202, .F. ) ;
#79 = CARTESIAN_POINT ( 'NONE',  ( 0.5000000000000000000, 6.123233995736766036E-17, 4.985000000000000320 ) ) ;
#80 = VERTEX_POINT ( 'NONE', #101 ) ;
#81 = CARTESIAN_POINT ( 'NONE',  ( 0.4995000000000002771, 0.0000000000000000000, 2.500000000000000000 ) ) ;
#82 = CARTESIAN_POINT ( 'NONE',  ( 0.4994999999999999996, 6.117110761741029900E-17, 0.0000000000000000000 ) ) ;
#83 = DIRECTION ( 'NONE',  ( 1.224646799147353207E-16, 0.0000000000000000000, 1.000000000000000000 ) ) ;
#84 = CARTESIAN_POINT ( 'NONE',  ( -0.4994999999999997775, 6.120172378738898584E-17, 2.500000000000000000 ) ) ;
#85 = LINE ( 'NONE', #158, #37 ) ;
#86 = VECTOR ( 'NONE', #203, 39.37007874015748143 ) ;
#87 = PRODUCT ( 'Micro_EMS-001-3', 'Micro_EMS-001-3', '', ( #226 ) ) ;
#88 = LINE ( 'NONE', #141, #157 ) ;
#89 = CARTESIAN_POINT ( 'NONE',  ( 0.4850000000000004308, 5.939536975864668392E-17, 5.000000000000000000 ) ) ;
#90 = DIRECTION ( 'NONE',  ( 0.7071067811865443531, 8.659560562354894648E-17, -0.7071067811865507924 ) ) ;
#91 = DIRECTION ( 'NONE',  ( -1.000000000000000000, 0.0000000000000000000, 0.0000000000000000000 ) ) ;
#92 =( NAMED_UNIT ( * ) SI_UNIT ( $, .STERADIAN. ) SOLID_ANGLE_UNIT ( ) );
#93 = CIRCLE ( 'NONE', #109, 0.5000000000000000000 ) ;
#94 = SURFACE_STYLE_FILL_AREA ( #161 ) ;
#95 = ORIENTED_EDGE ( 'NONE', *, *, #224, .T. ) ;
#96 = UNCERTAINTY_MEASURE_WITH_UNIT (LENGTH_MEASURE( 1.000000000000000082E-05 ), #286, 'distance_accuracy_value', 'NONE');
#97 = EDGE_LOOP ( 'NONE', ( #129, #57, #274, #14 ) ) ;
#98 = VERTEX_POINT ( 'NONE', #146 ) ;
#99 = CARTESIAN_POINT ( 'NONE',  ( 0.0000000000000000000, 0.0000000000000000000, 0.0000000000000000000 ) ) ;
#100 = PRODUCT_DEFINITION ( 'UNKNOWN', '', #281, #289 ) ;
#101 = CARTESIAN_POINT ( 'NONE',  ( 0.4850000000000004308, 6.031385485800716598E-17, 5.000000000000000000 ) ) ;
#102 = DIRECTION ( 'NONE',  ( -1.000000000000000000, 0.0000000000000000000, 1.224646799147353454E-16 ) ) ;
#103 = DIRECTION ( 'NONE',  ( 0.0000000000000000000, 0.0000000000000000000, -1.000000000000000000 ) ) ;
#104 = EDGE_CURVE ( 'NONE', #98, #80, #166, .T. ) ;
#105 =( GEOMETRIC_REPRESENTATION_CONTEXT ( 3 ) GLOBAL_UNCERTAINTY_ASSIGNED_CONTEXT ( ( #195 ) ) GLOBAL_UNIT_ASSIGNED_CONTEXT ( ( #72, #9, #256 ) ) REPRESENTATION_CONTEXT ( 'NONE', 'WORKASPACE' ) );
#106 = DIRECTION ( 'NONE',  ( -1.224646799147353207E-16, -0.0000000000000000000, -1.000000000000000000 ) ) ;
#107 = CARTESIAN_POINT ( 'NONE',  ( -0.4994999999999999996, 0.0000000000000000000, 6.117110761741029900E-17 ) ) ;
#108 = FILL_AREA_STYLE_COLOUR ( '', #28 ) ;
#109 = AXIS2_PLACEMENT_3D ( 'NONE', #245, #40, #225 ) ;
#110 = CARTESIAN_POINT ( 'NONE',  ( 0.0000000000000000000, 0.0000000000000000000, 5.000000000000000000 ) ) ;
#111 = PRODUCT_RELATED_PRODUCT_CATEGORY ( 'part', '', ( #87 ) ) ;
#112 = CONICAL_SURFACE ( 'NONE', #116, 0.4994999999999999996, 0.1745329251994338082 ) ;
#113 = CARTESIAN_POINT ( 'NONE',  ( 0.4994999999999999996, 6.117110761741029900E-17, -6.117110761741029900E-17 ) ) ;
#114 = DIRECTION ( 'NONE',  ( 1.000000000000000000, 0.0000000000000000000, -0.0000000000000000000 ) ) ;
#115 = EDGE_CURVE ( 'NONE', #33, #39, #70, .T. ) ;
#116 = AXIS2_PLACEMENT_3D ( 'NONE', #27, #235, #275 ) ;
#117 = ORIENTED_EDGE ( 'NONE', *, *, #120, .T. ) ;
#118 =( NAMED_UNIT ( * ) PLANE_ANGLE_UNIT ( ) SI_UNIT ( $, .RADIAN. ) );
#119 = ORIENTED_EDGE ( 'NONE', *, *, #125, .T. ) ;
#120 = EDGE_CURVE ( 'NONE', #184, #248, #172, .T. ) ;
#121 = ORIENTED_EDGE ( 'NONE', *, *, #42, .F. ) ;
#122 = PRESENTATION_LAYER_ASSIGNMENT (  '', '', ( #47 ) ) ;
#123 = LENGTH_MEASURE_WITH_UNIT ( LENGTH_MEASURE( 0.02539999999999999897 ), #260 );
#124 = LINE ( 'NONE', #61, #12 ) ;
#125 = EDGE_CURVE ( 'NONE', #39, #33, #75, .T. ) ;
#126 = CARTESIAN_POINT ( 'NONE',  ( -0.4994999999999999996, 0.0000000000000000000, 1.223422152348205980E-16 ) ) ;
#127 = AXIS2_PLACEMENT_3D ( 'NONE', #297, #196, #222 ) ;
#128 = EDGE_LOOP ( 'NONE', ( #241, #287 ) ) ;
#129 = ORIENTED_EDGE ( 'NONE', *, *, #230, .F. ) ;
#130 = DIMENSIONAL_EXPONENTS ( 1.000000000000000000, 0.0000000000000000000, 0.0000000000000000000, 0.0000000000000000000, 0.0000000000000000000, 0.0000000000000000000, 0.0000000000000000000 ) ;
#131 = CYLINDRICAL_SURFACE ( 'NONE', #193, 0.4994999999999999996 ) ;
#132 = DIRECTION ( 'NONE',  ( -1.224646799147353207E-16, -0.0000000000000000000, -1.000000000000000000 ) ) ;
#133 = CARTESIAN_POINT ( 'NONE',  ( -0.4999999999999997224, 0.0000000000000000000, 2.502835640909808923 ) ) ;
#134 = ADVANCED_FACE ( 'NONE', ( #272 ), #3, .T. ) ;
#135 = DIRECTION ( 'NONE',  ( -0.0000000000000000000, -0.0000000000000000000, -1.000000000000000000 ) ) ;
#136 = CIRCLE ( 'NONE', #139, 0.4850000000000004308 ) ;
#137 = DIRECTION ( 'NONE',  ( -1.000000000000000000, 0.0000000000000000000, 0.0000000000000000000 ) ) ;
#138 = DIRECTION ( 'NONE',  ( 1.000000000000000000, 0.0000000000000000000, 0.0000000000000000000 ) ) ;
#139 = AXIS2_PLACEMENT_3D ( 'NONE', #201, #167, #221 ) ;
#140 = ADVANCED_FACE ( 'NONE', ( #43 ), #131, .T. ) ;
#141 = CARTESIAN_POINT ( 'NONE',  ( -0.5000000000000000000, 0.0000000000000000000, 5.000000000000000000 ) ) ;
#142 = EDGE_LOOP ( 'NONE', ( #36, #74, #117, #159 ) ) ;
#143 = CARTESIAN_POINT ( 'NONE',  ( 0.0000000000000000000, 0.0000000000000000000, 5.000000000000000000 ) ) ;
#144 = AXIS2_PLACEMENT_3D ( 'NONE', #52, #182, #1 ) ;
#145 = ORIENTED_EDGE ( 'NONE', *, *, #240, .F. ) ;
#146 = CARTESIAN_POINT ( 'NONE',  ( -0.4850000000000004308, 0.0000000000000000000, 5.000000000000000000 ) ) ;
#147 = ORIENTED_EDGE ( 'NONE', *, *, #125, .F. ) ;
#148 = VECTOR ( 'NONE', #90, 39.37007874015748143 ) ;
#149 = DIRECTION ( 'NONE',  ( 1.000000000000000000, 0.0000000000000000000, 0.0000000000000000000 ) ) ;
#150 = CARTESIAN_POINT ( 'NONE',  ( 0.0000000000000000000, 0.0000000000000000000, 5.000000000000000000 ) ) ;
#151 = DIRECTION ( 'NONE',  ( 0.0000000000000000000, 0.0000000000000000000, -1.000000000000000000 ) ) ;
#152 = AXIS2_PLACEMENT_3D ( 'NONE', #68, #50, #138 ) ;
#153 = PLANE ( 'NONE',  #55 ) ;
#154 = ADVANCED_FACE ( 'NONE', ( #22 ), #18, .T. ) ;
#155 = CARTESIAN_POINT ( 'NONE',  ( 0.0000000000000000000, 0.0000000000000000000, 5.000000000000000000 ) ) ;
#156 = CYLINDRICAL_SURFACE ( 'NONE', #284, 0.5000000000000000000 ) ;
#157 = VECTOR ( 'NONE', #34, 39.37007874015748143 ) ;
#158 = CARTESIAN_POINT ( 'NONE',  ( 0.5000000000000000000, 6.123233995736766036E-17, 5.000000000000000000 ) ) ;
#159 = ORIENTED_EDGE ( 'NONE', *, *, #171, .T. ) ;
#160 = AXIS2_PLACEMENT_3D ( 'NONE', #64, #151, #249 ) ;
#161 = FILL_AREA_STYLE ('',( #10 ) ) ;
#162 = SURFACE_STYLE_USAGE ( .BOTH. , #76 ) ;
#163 = EDGE_LOOP ( 'NONE', ( #38, #165, #214, #265 ) ) ;
#164 = EDGE_CURVE ( 'NONE', #271, #267, #124, .T. ) ;
#165 = ORIENTED_EDGE ( 'NONE', *, *, #164, .T. ) ;
#166 = CIRCLE ( 'NONE', #238, 0.4850000000000004308 ) ;
#167 = DIRECTION ( 'NONE',  ( 0.0000000000000000000, 0.0000000000000000000, 1.000000000000000000 ) ) ;
#168 = CARTESIAN_POINT ( 'NONE',  ( 0.0000000000000000000, 0.0000000000000000000, 4.985000000000000320 ) ) ;
#169 = DIRECTION ( 'NONE',  ( 0.0000000000000000000, 0.0000000000000000000, -1.000000000000000000 ) ) ;
#170 = DIMENSIONAL_EXPONENTS ( 1.000000000000000000, 0.0000000000000000000, 0.0000000000000000000, 0.0000000000000000000, 0.0000000000000000000, 0.0000000000000000000, 0.0000000000000000000 ) ;
#171 = EDGE_CURVE ( 'NONE', #248, #267, #93, .T. ) ;
#172 = LINE ( 'NONE', #81, #266 ) ;
#173 = ADVANCED_BREP_SHAPE_REPRESENTATION ( 'Micro_EMS-001-3', ( #273, #205 ), #29 ) ;
#174 = ORIENTED_EDGE ( 'NONE', *, *, #236, .T. ) ;
#175 = SURFACE_SIDE_STYLE ('',( #232 ) ) ;
#176 = ADVANCED_FACE ( 'NONE', ( #31 ), #112, .T. ) ;
#177 = AXIS2_PLACEMENT_3D ( 'NONE', #183, #254, #282 ) ;
#178 = CONICAL_SURFACE ( 'NONE', #41, 0.4850000000000004308, 0.7853981633974437271 ) ;
#179 = CARTESIAN_POINT ( 'NONE',  ( 0.0000000000000000000, 0.0000000000000000000, 5.000000000000000000 ) ) ;
#180 = SURFACE_STYLE_USAGE ( .BOTH. , #175 ) ;
#181 = EDGE_CURVE ( 'NONE', #184, #77, #237, .T. ) ;
#182 = DIRECTION ( 'NONE',  ( -1.224646799147353207E-16, -0.0000000000000000000, -1.000000000000000000 ) ) ;
#183 = CARTESIAN_POINT ( 'NONE',  ( 7.491300114395979244E-33, 0.0000000000000000000, 6.117110761741029900E-17 ) ) ;
#184 = VERTEX_POINT ( 'NONE', #4 ) ;
#185 =( CONVERSION_BASED_UNIT ( 'INCH', #123 ) LENGTH_UNIT ( ) NAMED_UNIT ( #25 ) );
#186 = ADVANCED_FACE ( 'NONE', ( #69 ), #65, .F. ) ;
#187 = STYLED_ITEM ( 'NONE', ( #279 ), #273 ) ;
#188 =( NAMED_UNIT ( * ) SI_UNIT ( $, .STERADIAN. ) SOLID_ANGLE_UNIT ( ) );
#189 = PRODUCT_DEFINITION_SHAPE ( 'NONE', 'NONE',  #100 ) ;
#190 = EDGE_LOOP ( 'NONE', ( #121, #174, #147, #11 ) ) ;
#191 = EDGE_LOOP ( 'NONE', ( #220, #95, #19, #145 ) ) ;
#192 = DIRECTION ( 'NONE',  ( -1.224646799147353207E-16, -0.0000000000000000000, -1.000000000000000000 ) ) ;
#193 = AXIS2_PLACEMENT_3D ( 'NONE', #270, #192, #17 ) ;
#194 = DIRECTION ( 'NONE',  ( 1.000000000000000000, 0.0000000000000000000, 0.0000000000000000000 ) ) ;
#195 = UNCERTAINTY_MEASURE_WITH_UNIT (LENGTH_MEASURE( 1.000000000000000082E-05 ), #72, 'distance_accuracy_value', 'NONE');
#196 = DIRECTION ( 'NONE',  ( -1.224646799147353207E-16, -0.0000000000000000000, -1.000000000000000000 ) ) ;
#197 = CARTESIAN_POINT ( 'NONE',  ( -0.5000000000000000000, 0.0000000000000000000, 4.985000000000000320 ) ) ;
#198 = AXIS2_PLACEMENT_3D ( 'NONE', #62, #106, #102 ) ;
#199 = COLOUR_RGB ( '',0.7921568627450980005, 0.8196078431372548767, 0.9333333333333333481 ) ;
#200 = SHAPE_DEFINITION_REPRESENTATION ( #189, #173 ) ;
#201 = CARTESIAN_POINT ( 'NONE',  ( 0.0000000000000000000, 0.0000000000000000000, 5.000000000000000000 ) ) ;
#202 = EDGE_CURVE ( 'NONE', #267, #248, #285, .T. ) ;
#203 = DIRECTION ( 'NONE',  ( -1.224646799147353207E-16, -0.0000000000000000000, -1.000000000000000000 ) ) ;
#204 = CARTESIAN_POINT ( 'NONE',  ( 0.0000000000000000000, 0.0000000000000000000, 0.0000000000000000000 ) ) ;
#205 = AXIS2_PLACEMENT_3D ( 'NONE', #99, #228, #59 ) ;
#206 = CARTESIAN_POINT ( 'NONE',  ( 3.061616997868383141E-16, 0.0000000000000000000, 2.500000000000000000 ) ) ;
#207 = CYLINDRICAL_SURFACE ( 'NONE', #66, 0.5000000000000000000 ) ;
#208 = ADVANCED_FACE ( 'NONE', ( #30 ), #207, .T. ) ;
#209 = FACE_OUTER_BOUND ( 'NONE', #244, .T. ) ;
#210 = FACE_OUTER_BOUND ( 'NONE', #190, .T. ) ;
#211 = ORIENTED_EDGE ( 'NONE', *, *, #16, .T. ) ;
#212 = ADVANCED_FACE ( 'NONE', ( #209 ), #156, .T. ) ;
#213 = ORIENTED_EDGE ( 'NONE', *, *, #115, .F. ) ;
#214 = ORIENTED_EDGE ( 'NONE', *, *, #202, .T. ) ;
#215 =( LENGTH_UNIT ( ) NAMED_UNIT ( * ) SI_UNIT ( $, .METRE. ) );
#216 = AXIS2_PLACEMENT_3D ( 'NONE', #204, #49, #114 ) ;
#217 = EDGE_LOOP ( 'NONE', ( #56, #20, #259, #262 ) ) ;
#218 = UNCERTAINTY_MEASURE_WITH_UNIT (LENGTH_MEASURE( 1.000000000000000082E-05 ), #185, 'distance_accuracy_value', 'NONE');
#219 = LENGTH_MEASURE_WITH_UNIT ( LENGTH_MEASURE( 0.02539999999999999897 ), #215 );
#220 = ORIENTED_EDGE ( 'NONE', *, *, #181, .F. ) ;
#221 = DIRECTION ( 'NONE',  ( 1.000000000000000000, 0.0000000000000000000, 0.0000000000000000000 ) ) ;
#222 = DIRECTION ( 'NONE',  ( -1.000000000000000000, 0.0000000000000000000, 1.224646799147353454E-16 ) ) ;
#223 = VECTOR ( 'NONE', #45, 39.37007874015748143 ) ;
#224 = EDGE_CURVE ( 'NONE', #184, #271, #32, .T. ) ;
#225 = DIRECTION ( 'NONE',  ( 1.000000000000000000, 0.0000000000000000000, 0.0000000000000000000 ) ) ;
#226 = PRODUCT_CONTEXT ( 'NONE', #7, 'mechanical' ) ;
#227 = FACE_OUTER_BOUND ( 'NONE', #191, .T. ) ;
#228 = DIRECTION ( 'NONE',  ( 0.0000000000000000000, 0.0000000000000000000, 1.000000000000000000 ) ) ;
#229 = DIRECTION ( 'NONE',  ( 0.0000000000000000000, 0.0000000000000000000, 1.000000000000000000 ) ) ;
#230 = EDGE_CURVE ( 'NONE', #33, #248, #85, .T. ) ;
#231 = LINE ( 'NONE', #71, #223 ) ;
#232 = SURFACE_STYLE_FILL_AREA ( #280 ) ;
#233 = FACE_OUTER_BOUND ( 'NONE', #128, .T. ) ;
#234 = AXIS2_PLACEMENT_3D ( 'NONE', #206, #2, #26 ) ;
#235 = DIRECTION ( 'NONE',  ( 1.224646799147353207E-16, 0.0000000000000000000, 1.000000000000000000 ) ) ;
#236 = EDGE_CURVE ( 'NONE', #80, #33, #5, .T. ) ;
#237 = LINE ( 'NONE', #113, #51 ) ;
#238 = AXIS2_PLACEMENT_3D ( 'NONE', #150, #229, #194 ) ;
#239 = ORIENTED_EDGE ( 'NONE', *, *, #240, .T. ) ;
#240 = EDGE_CURVE ( 'NONE', #77, #35, #276, .T. ) ;
#241 = ORIENTED_EDGE ( 'NONE', *, *, #104, .T. ) ;
#242 = PRESENTATION_STYLE_ASSIGNMENT (( #162 ) ) ;
#243 = MECHANICAL_DESIGN_GEOMETRIC_PRESENTATION_REPRESENTATION (  '', ( #187 ), #23 ) ;
#244 = EDGE_LOOP ( 'NONE', ( #119, #288, #78, #268 ) ) ;
#245 = CARTESIAN_POINT ( 'NONE',  ( 3.065089656432111634E-16, 0.0000000000000000000, 2.502835640909808923 ) ) ;
#246 = AXIS2_PLACEMENT_3D ( 'NONE', #21, #103, #295 ) ;
#247 = DIRECTION ( 'NONE',  ( 1.000000000000000000, 0.0000000000000000000, 0.0000000000000000000 ) ) ;
#248 = VERTEX_POINT ( 'NONE', #251 ) ;
#249 = DIRECTION ( 'NONE',  ( -1.000000000000000000, 0.0000000000000000000, 0.0000000000000000000 ) ) ;
#250 = CLOSED_SHELL ( 'NONE', ( #140, #134, #291, #212, #208, #255, #154, #176, #73, #186 ) ) ;
#251 = CARTESIAN_POINT ( 'NONE',  ( 0.5000000000000002220, 6.123233995736768501E-17, 2.502835640909808923 ) ) ;
#252 = DIRECTION ( 'NONE',  ( 1.000000000000000000, 0.0000000000000000000, -0.0000000000000000000 ) ) ;
#253 = EDGE_CURVE ( 'NONE', #271, #184, #298, .T. ) ;
#254 = DIRECTION ( 'NONE',  ( -1.224646799147353207E-16, -0.0000000000000000000, -1.000000000000000000 ) ) ;
#255 = ADVANCED_FACE ( 'NONE', ( #233 ), #153, .T. ) ;
#256 =( NAMED_UNIT ( * ) SI_UNIT ( $, .STERADIAN. ) SOLID_ANGLE_UNIT ( ) );
#257 = ORIENTED_EDGE ( 'NONE', *, *, #236, .F. ) ;
#258 = PRESENTATION_LAYER_ASSIGNMENT (  '', '', ( #187 ) ) ;
#259 = ORIENTED_EDGE ( 'NONE', *, *, #16, .F. ) ;
#260 =( LENGTH_UNIT ( ) NAMED_UNIT ( * ) SI_UNIT ( $, .METRE. ) );
#261 = APPLICATION_CONTEXT ( 'automotive_design' ) ;
#262 = ORIENTED_EDGE ( 'NONE', *, *, #269, .F. ) ;
#263 = EDGE_CURVE ( 'NONE', #98, #39, #231, .T. ) ;
#264 =( LENGTH_UNIT ( ) NAMED_UNIT ( * ) SI_UNIT ( $, .METRE. ) );
#265 = ORIENTED_EDGE ( 'NONE', *, *, #120, .F. ) ;
#266 = VECTOR ( 'NONE', #299, 39.37007874015748143 ) ;
#267 = VERTEX_POINT ( 'NONE', #133 ) ;
#268 = ORIENTED_EDGE ( 'NONE', *, *, #278, .F. ) ;
#269 = EDGE_CURVE ( 'NONE', #271, #35, #24, .T. ) ;
#270 = CARTESIAN_POINT ( 'NONE',  ( 0.0000000000000000000, 0.0000000000000000000, 0.0000000000000000000 ) ) ;
#271 = VERTEX_POINT ( 'NONE', #84 ) ;
#272 = FACE_OUTER_BOUND ( 'NONE', #163, .T. ) ;
#273 = MANIFOLD_SOLID_BREP ( 'Cut-Revolve1', #250 ) ;
#274 = ORIENTED_EDGE ( 'NONE', *, *, #278, .T. ) ;
#275 = DIRECTION ( 'NONE',  ( 1.000000000000000000, 0.0000000000000000000, 0.0000000000000000000 ) ) ;
#276 = CIRCLE ( 'NONE', #177, 0.4994999999999999996 ) ;
#277 = DIRECTION ( 'NONE',  ( -1.000000000000000000, 0.0000000000000000000, 0.0000000000000000000 ) ) ;
#278 = EDGE_CURVE ( 'NONE', #39, #267, #88, .T. ) ;
#279 = PRESENTATION_STYLE_ASSIGNMENT (( #180 ) ) ;
#280 = FILL_AREA_STYLE ('',( #108 ) ) ;
#281 = PRODUCT_DEFINITION_FORMATION_WITH_SPECIFIED_SOURCE ( 'ANY', '', #87, .NOT_KNOWN. ) ;
#282 = DIRECTION ( 'NONE',  ( -1.000000000000000000, 0.0000000000000000000, 1.224646799147353454E-16 ) ) ;
#283 = EDGE_LOOP ( 'NONE', ( #257, #54, #63, #213 ) ) ;
#284 = AXIS2_PLACEMENT_3D ( 'NONE', #110, #6, #137 ) ;
#285 = CIRCLE ( 'NONE', #152, 0.5000000000000000000 ) ;
#286 =( CONVERSION_BASED_UNIT ( 'INCH', #219 ) LENGTH_UNIT ( ) NAMED_UNIT ( #130 ) );
#287 = ORIENTED_EDGE ( 'NONE', *, *, #42, .T. ) ;
#288 = ORIENTED_EDGE ( 'NONE', *, *, #230, .T. ) ;
#289 = PRODUCT_DEFINITION_CONTEXT ( 'detailed design', #261, 'design' ) ;
#290 = LENGTH_MEASURE_WITH_UNIT ( LENGTH_MEASURE( 0.02539999999999999897 ), #264 );
#291 = ADVANCED_FACE ( 'NONE', ( #210 ), #178, .T. ) ;
#292 = AXIS2_PLACEMENT_3D ( 'NONE', #44, #83, #247 ) ;
#293 = DIRECTION ( 'NONE',  ( -0.1736481776669311083, 2.126576849575782084E-17, 0.9848077530122080203 ) ) ;
#294 = APPLICATION_PROTOCOL_DEFINITION ( 'draft international standard', 'automotive_design', 1998, #261 ) ;
#295 = DIRECTION ( 'NONE',  ( 1.000000000000000000, 0.0000000000000000000, 0.0000000000000000000 ) ) ;
#296 = EDGE_LOOP ( 'NONE', ( #211, #239 ) ) ;
#297 = CARTESIAN_POINT ( 'NONE',  ( 0.0000000000000000000, 0.0000000000000000000, 0.0000000000000000000 ) ) ;
#298 = CIRCLE ( 'NONE', #144, 0.4994999999999999996 ) ;
#299 = DIRECTION ( 'NONE',  ( 0.1736481776669313026, 0.0000000000000000000, 0.9848077530122077983 ) ) ;
ENDSEC;
END-ISO-10303-21;
