ISO-10303-21;
HEADER;
FILE_DESCRIPTION (( 'STEP AP214' ),
    '1' );
FILE_NAME ('59276.STEP',
    '2023-06-22T22:48:46',
    ( '' ),
    ( '' ),
    'SwSTEP 2.0',
    'SolidWorks 2023',
    '' );
FILE_SCHEMA (( 'AUTOMOTIVE_DESIGN' ));
ENDSEC;

DATA;
#1 = PRESENTATION_LAYER_ASSIGNMENT (  '', '', ( #76 ) ) ;
#2 = CARTESIAN_POINT ( 'NONE',  ( -1.224646799147354440E-16, 6.000000000000000888, 0.000000000000000000 ) ) ;
#3 = DIRECTION ( 'NONE',  ( -4.453261087808560759E-17, 1.000000000000000000, -0.000000000000000000 ) ) ;
#4 = PLANE ( 'NONE',  #303 ) ;
#5 = EDGE_LOOP ( 'NONE', ( #113, #169, #122, #47 ) ) ;
#6 = CARTESIAN_POINT ( 'NONE',  ( 0.000000000000000000, 3.250000000000000000, 0.000000000000000000 ) ) ;
#7 =( LENGTH_UNIT ( ) NAMED_UNIT ( * ) SI_UNIT ( $, .METRE. ) );
#8 =( GEOMETRIC_REPRESENTATION_CONTEXT ( 3 ) GLOBAL_UNCERTAINTY_ASSIGNED_CONTEXT ( ( #94 ) ) GLOBAL_UNIT_ASSIGNED_CONTEXT ( ( #149, #92, #11 ) ) REPRESENTATION_CONTEXT ( 'NONE', 'WORKASPACE' ) );
#9 = CIRCLE ( 'NONE', #285, 0.3750000000000000555 ) ;
#10 = PLANE ( 'NONE',  #171 ) ;
#11 =( NAMED_UNIT ( * ) SI_UNIT ( $, .STERADIAN. ) SOLID_ANGLE_UNIT ( ) );
#12 = ORIENTED_EDGE ( 'NONE', *, *, #77, .F. ) ;
#13 = DIRECTION ( 'NONE',  ( 0.000000000000000000, 1.000000000000000000, 0.000000000000000000 ) ) ;
#14 = PRESENTATION_LAYER_ASSIGNMENT (  '', '', ( #295 ) ) ;
#15 = DIRECTION ( 'NONE',  ( -0.000000000000000000, -1.000000000000000000, -0.000000000000000000 ) ) ;
#16 = DIRECTION ( 'NONE',  ( -1.000000000000000000, 0.000000000000000000, 0.000000000000000000 ) ) ;
#17 = EDGE_CURVE ( 'NONE', #18, #90, #91, .T. ) ;
#18 = VERTEX_POINT ( 'NONE', #206 ) ;
#19 =( NAMED_UNIT ( * ) SI_UNIT ( $, .STERADIAN. ) SOLID_ANGLE_UNIT ( ) );
#20 =( NAMED_UNIT ( * ) PLANE_ANGLE_UNIT ( ) SI_UNIT ( $, .RADIAN. ) );
#21 = PRODUCT_DEFINITION_SHAPE ( 'NONE', 'NONE',  #151 ) ;
#22 = EDGE_CURVE ( 'NONE', #271, #227, #179, .T. ) ;
#23 = DIRECTION ( 'NONE',  ( -4.453261087808560759E-17, 1.000000000000000000, -0.000000000000000000 ) ) ;
#24 = CIRCLE ( 'NONE', #71, 0.3750000000000000555 ) ;
#25 = ORIENTED_EDGE ( 'NONE', *, *, #17, .F. ) ;
#26 = CARTESIAN_POINT ( 'NONE',  ( 0.000000000000000000, 0.000000000000000000, 0.000000000000000000 ) ) ;
#27 =( NAMED_UNIT ( * ) SI_UNIT ( $, .STERADIAN. ) SOLID_ANGLE_UNIT ( ) );
#28 = CIRCLE ( 'NONE', #290, 0.3750000000000000555 ) ;
#29 = EDGE_CURVE ( 'NONE', #18, #58, #28, .T. ) ;
#30 = COLOUR_RGB ( '',1.000000000000000000, 0.000000000000000000, 0.000000000000000000 ) ;
#31 = UNCERTAINTY_MEASURE_WITH_UNIT (LENGTH_MEASURE( 1.000000000000000082E-05 ), #114, 'distance_accuracy_value', 'NONE');
#32 = DIRECTION ( 'NONE',  ( -0.000000000000000000, -1.000000000000000000, -0.000000000000000000 ) ) ;
#33 = EDGE_CURVE ( 'NONE', #58, #18, #308, .T. ) ;
#34 = VECTOR ( 'NONE', #110, 39.37007874015748143 ) ;
#35 = COLOUR_RGB ( '',0.7921568627450980005, 0.8196078431372548767, 0.9333333333333333481 ) ;
#36 = UNCERTAINTY_MEASURE_WITH_UNIT (LENGTH_MEASURE( 1.000000000000000082E-05 ), #136, 'distance_accuracy_value', 'NONE');
#37 = ORIENTED_EDGE ( 'NONE', *, *, #33, .F. ) ;
#38 = DIRECTION ( 'NONE',  ( -4.453261087808560759E-17, 1.000000000000000000, -0.000000000000000000 ) ) ;
#39 = AXIS2_PLACEMENT_3D ( 'NONE', #65, #224, #273 ) ;
#40 = ORIENTED_EDGE ( 'NONE', *, *, #33, .T. ) ;
#41 = ORIENTED_EDGE ( 'NONE', *, *, #274, .F. ) ;
#42 = EDGE_CURVE ( 'NONE', #227, #106, #88, .T. ) ;
#43 = FACE_OUTER_BOUND ( 'NONE', #248, .T. ) ;
#44 =( GEOMETRIC_REPRESENTATION_CONTEXT ( 3 ) GLOBAL_UNCERTAINTY_ASSIGNED_CONTEXT ( ( #36 ) ) GLOBAL_UNIT_ASSIGNED_CONTEXT ( ( #136, #157, #146 ) ) REPRESENTATION_CONTEXT ( 'NONE', 'WORKASPACE' ) );
#45 = CARTESIAN_POINT ( 'NONE',  ( 0.000000000000000000, 3.250000000000000000, 0.000000000000000000 ) ) ;
#46 =( NAMED_UNIT ( * ) PLANE_ANGLE_UNIT ( ) SI_UNIT ( $, .RADIAN. ) );
#47 = ORIENTED_EDGE ( 'NONE', *, *, #22, .F. ) ;
#48 = PRODUCT ( '59276', '59276', '', ( #269 ) ) ;
#49 = CARTESIAN_POINT ( 'NONE',  ( -0.3750000000000002220, 6.000000000000000888, 0.000000000000000000 ) ) ;
#50 = FACE_OUTER_BOUND ( 'NONE', #5, .T. ) ;
#51 = DIMENSIONAL_EXPONENTS ( 1.000000000000000000, 0.000000000000000000, 0.000000000000000000, 0.000000000000000000, 0.000000000000000000, 0.000000000000000000, 0.000000000000000000 ) ;
#52 = CARTESIAN_POINT ( 'NONE',  ( 0.3749999999999999445, 6.000000000000000888, 4.592425496802576068E-17 ) ) ;
#53 = ADVANCED_FACE ( 'NONE', ( #50 ), #67, .T. ) ;
#54 = DIRECTION ( 'NONE',  ( -1.000000000000000000, 0.000000000000000000, 0.000000000000000000 ) ) ;
#55 = SURFACE_STYLE_USAGE ( .BOTH. , #292 ) ;
#56 = CARTESIAN_POINT ( 'NONE',  ( 0.000000000000000000, 3.250000000000000000, 0.000000000000000000 ) ) ;
#57 = CYLINDRICAL_SURFACE ( 'NONE', #81, 0.3750000000000000555 ) ;
#58 = VERTEX_POINT ( 'NONE', #158 ) ;
#59 = PRESENTATION_STYLE_ASSIGNMENT (( #228 ) ) ;
#60 = DIRECTION ( 'NONE',  ( -0.000000000000000000, -1.000000000000000000, -0.000000000000000000 ) ) ;
#61 = AXIS2_PLACEMENT_3D ( 'NONE', #201, #134, #202 ) ;
#62 = DIRECTION ( 'NONE',  ( 0.000000000000000000, 0.000000000000000000, -1.000000000000000000 ) ) ;
#63 = VECTOR ( 'NONE', #231, 39.37007874015748143 ) ;
#64 = ORIENTED_EDGE ( 'NONE', *, *, #17, .T. ) ;
#65 = CARTESIAN_POINT ( 'NONE',  ( -1.224646799147354440E-16, 6.000000000000000888, 0.000000000000000000 ) ) ;
#66 = SURFACE_SIDE_STYLE ('',( #208 ) ) ;
#67 = CYLINDRICAL_SURFACE ( 'NONE', #39, 0.3750000000000001110 ) ;
#68 = SURFACE_STYLE_FILL_AREA ( #294 ) ;
#69 = DIRECTION ( 'NONE',  ( 0.000000000000000000, 0.000000000000000000, -1.000000000000000000 ) ) ;
#70 = SURFACE_STYLE_USAGE ( .BOTH. , #66 ) ;
#71 = AXIS2_PLACEMENT_3D ( 'NONE', #249, #112, #62 ) ;
#72 =( GEOMETRIC_REPRESENTATION_CONTEXT ( 3 ) GLOBAL_UNCERTAINTY_ASSIGNED_CONTEXT ( ( #98 ) ) GLOBAL_UNIT_ASSIGNED_CONTEXT ( ( #232, #162, #27 ) ) REPRESENTATION_CONTEXT ( 'NONE', 'WORKASPACE' ) );
#73 = CARTESIAN_POINT ( 'NONE',  ( 0.3750000000000000555, 3.250000000000000000, 4.592425496802576684E-17 ) ) ;
#74 = ORIENTED_EDGE ( 'NONE', *, *, #300, .F. ) ;
#75 =( GEOMETRIC_REPRESENTATION_CONTEXT ( 3 ) GLOBAL_UNCERTAINTY_ASSIGNED_CONTEXT ( ( #31 ) ) GLOBAL_UNIT_ASSIGNED_CONTEXT ( ( #114, #221, #164 ) ) REPRESENTATION_CONTEXT ( 'NONE', 'WORKASPACE' ) );
#76 = STYLED_ITEM ( 'NONE', ( #97 ), #288 ) ;
#77 = EDGE_CURVE ( 'NONE', #159, #90, #24, .T. ) ;
#78 = DIRECTION ( 'NONE',  ( -0.000000000000000000, -1.000000000000000000, -0.000000000000000000 ) ) ;
#79 = SHAPE_DEFINITION_REPRESENTATION ( #21, #182 ) ;
#80 = EDGE_CURVE ( 'NONE', #90, #159, #243, .T. ) ;
#81 = AXIS2_PLACEMENT_3D ( 'NONE', #257, #193, #140 ) ;
#82 = ORIENTED_EDGE ( 'NONE', *, *, #264, .F. ) ;
#83 = DIRECTION ( 'NONE',  ( -1.000000000000000000, 0.000000000000000000, 0.000000000000000000 ) ) ;
#84 = LENGTH_MEASURE_WITH_UNIT ( LENGTH_MEASURE( 0.02539999999999999897 ), #200 );
#85 = SURFACE_STYLE_FILL_AREA ( #89 ) ;
#86 = ORIENTED_EDGE ( 'NONE', *, *, #178, .F. ) ;
#87 =( NAMED_UNIT ( * ) SI_UNIT ( $, .STERADIAN. ) SOLID_ANGLE_UNIT ( ) );
#88 = CIRCLE ( 'NONE', #120, 0.3750000000000001665 ) ;
#89 = FILL_AREA_STYLE ('',( #302 ) ) ;
#90 = VERTEX_POINT ( 'NONE', #150 ) ;
#91 = LINE ( 'NONE', #131, #34 ) ;
#92 =( NAMED_UNIT ( * ) PLANE_ANGLE_UNIT ( ) SI_UNIT ( $, .RADIAN. ) );
#93 = ADVANCED_FACE ( 'NONE', ( #43 ), #10, .T. ) ;
#94 = UNCERTAINTY_MEASURE_WITH_UNIT (LENGTH_MEASURE( 1.000000000000000082E-05 ), #149, 'distance_accuracy_value', 'NONE');
#95 = CIRCLE ( 'NONE', #163, 0.3750000000000001665 ) ;
#96 = AXIS2_PLACEMENT_3D ( 'NONE', #2, #3, #16 ) ;
#97 = PRESENTATION_STYLE_ASSIGNMENT (( #70 ) ) ;
#98 = UNCERTAINTY_MEASURE_WITH_UNIT (LENGTH_MEASURE( 1.000000000000000082E-05 ), #232, 'distance_accuracy_value', 'NONE');
#99 =( NAMED_UNIT ( * ) PLANE_ANGLE_UNIT ( ) SI_UNIT ( $, .RADIAN. ) );
#100 = AXIS2_PLACEMENT_3D ( 'NONE', #26, #307, #69 ) ;
#101 = CARTESIAN_POINT ( 'NONE',  ( 3.718412684285603637E-34, 3.250000000000000000, 0.000000000000000000 ) ) ;
#102 = DIRECTION ( 'NONE',  ( -4.453261087808560759E-17, 1.000000000000000000, 0.000000000000000000 ) ) ;
#103 = DIRECTION ( 'NONE',  ( 0.000000000000000000, 0.000000000000000000, 1.000000000000000000 ) ) ;
#104 = COLOUR_RGB ( '',1.000000000000000000, 0.000000000000000000, 0.000000000000000000 ) ;
#105 = DIRECTION ( 'NONE',  ( 1.000000000000000000, 0.000000000000000000, 0.000000000000000000 ) ) ;
#106 = VERTEX_POINT ( 'NONE', #135 ) ;
#107 = PLANE ( 'NONE',  #100 ) ;
#108 = COLOUR_RGB ( '',0.7921568627450980005, 0.8196078431372548767, 0.9333333333333333481 ) ;
#109 = VECTOR ( 'NONE', #78, 39.37007874015748143 ) ;
#110 = DIRECTION ( 'NONE',  ( -0.000000000000000000, -1.000000000000000000, -0.000000000000000000 ) ) ;
#111 = FACE_OUTER_BOUND ( 'NONE', #148, .T. ) ;
#112 = DIRECTION ( 'NONE',  ( -0.000000000000000000, -1.000000000000000000, -0.000000000000000000 ) ) ;
#113 = ORIENTED_EDGE ( 'NONE', *, *, #274, .T. ) ;
#114 =( CONVERSION_BASED_UNIT ( 'INCH', #84 ) LENGTH_UNIT ( ) NAMED_UNIT ( #141 ) );
#115 = ADVANCED_FACE ( 'NONE', ( #197 ), #57, .T. ) ;
#116 = LENGTH_MEASURE_WITH_UNIT ( LENGTH_MEASURE( 0.02539999999999999897 ), #129 );
#117 = DIMENSIONAL_EXPONENTS ( 1.000000000000000000, 0.000000000000000000, 0.000000000000000000, 0.000000000000000000, 0.000000000000000000, 0.000000000000000000, 0.000000000000000000 ) ;
#118 =( LENGTH_UNIT ( ) NAMED_UNIT ( * ) SI_UNIT ( $, .METRE. ) );
#119 = LENGTH_MEASURE_WITH_UNIT ( LENGTH_MEASURE( 0.02539999999999999897 ), #7 );
#120 = AXIS2_PLACEMENT_3D ( 'NONE', #176, #23, #279 ) ;
#121 = FACE_OUTER_BOUND ( 'NONE', #204, .T. ) ;
#122 = ORIENTED_EDGE ( 'NONE', *, *, #42, .F. ) ;
#123 = FILL_AREA_STYLE_COLOUR ( '', #35 ) ;
#124 = FILL_AREA_STYLE ('',( #283 ) ) ;
#125 = AXIS2_PLACEMENT_3D ( 'NONE', #175, #103, #105 ) ;
#126 = ORIENTED_EDGE ( 'NONE', *, *, #22, .T. ) ;
#127 = MANIFOLD_SOLID_BREP ( 'Revolve - Cutting Edge', #254 ) ;
#128 = AXIS2_PLACEMENT_3D ( 'NONE', #56, #293, #298 ) ;
#129 =( LENGTH_UNIT ( ) NAMED_UNIT ( * ) SI_UNIT ( $, .METRE. ) );
#130 = ADVANCED_FACE ( 'NONE', ( #121 ), #260, .F. ) ;
#131 = CARTESIAN_POINT ( 'NONE',  ( 4.592425496802575451E-17, 0.000000000000000000, 0.3750000000000000555 ) ) ;
#132 = ORIENTED_EDGE ( 'NONE', *, *, #42, .T. ) ;
#133 = AXIS2_PLACEMENT_3D ( 'NONE', #45, #60, #304 ) ;
#134 = DIRECTION ( 'NONE',  ( -0.000000000000000000, -1.000000000000000000, -0.000000000000000000 ) ) ;
#135 = CARTESIAN_POINT ( 'NONE',  ( 0.3750000000000000555, 6.000000000000000888, 4.592425496802576684E-17 ) ) ;
#136 =( CONVERSION_BASED_UNIT ( 'INCH', #116 ) LENGTH_UNIT ( ) NAMED_UNIT ( #165 ) );
#137 = MECHANICAL_DESIGN_GEOMETRIC_PRESENTATION_REPRESENTATION (  '', ( #153 ), #143 ) ;
#138 = MECHANICAL_DESIGN_GEOMETRIC_PRESENTATION_REPRESENTATION (  '', ( #213 ), #186 ) ;
#139 = CARTESIAN_POINT ( 'NONE',  ( 0.000000000000000000, 0.000000000000000000, 0.000000000000000000 ) ) ;
#140 = DIRECTION ( 'NONE',  ( 0.000000000000000000, 0.000000000000000000, -1.000000000000000000 ) ) ;
#141 = DIMENSIONAL_EXPONENTS ( 1.000000000000000000, 0.000000000000000000, 0.000000000000000000, 0.000000000000000000, 0.000000000000000000, 0.000000000000000000, 0.000000000000000000 ) ;
#142 = DIMENSIONAL_EXPONENTS ( 1.000000000000000000, 0.000000000000000000, 0.000000000000000000, 0.000000000000000000, 0.000000000000000000, 0.000000000000000000, 0.000000000000000000 ) ;
#143 =( GEOMETRIC_REPRESENTATION_CONTEXT ( 3 ) GLOBAL_UNCERTAINTY_ASSIGNED_CONTEXT ( ( #203 ) ) GLOBAL_UNIT_ASSIGNED_CONTEXT ( ( #211, #99, #286 ) ) REPRESENTATION_CONTEXT ( 'NONE', 'WORKASPACE' ) );
#144 = COLOUR_RGB ( '',1.000000000000000000, 0.000000000000000000, 0.000000000000000000 ) ;
#145 = ORIENTED_EDGE ( 'NONE', *, *, #244, .T. ) ;
#146 =( NAMED_UNIT ( * ) SI_UNIT ( $, .STERADIAN. ) SOLID_ANGLE_UNIT ( ) );
#147 = SURFACE_SIDE_STYLE ('',( #261 ) ) ;
#148 = EDGE_LOOP ( 'NONE', ( #299, #262 ) ) ;
#149 =( CONVERSION_BASED_UNIT ( 'INCH', #282 ) LENGTH_UNIT ( ) NAMED_UNIT ( #258 ) );
#150 = CARTESIAN_POINT ( 'NONE',  ( 4.592425496802575451E-17, 0.000000000000000000, 0.3750000000000000555 ) ) ;
#151 = PRODUCT_DEFINITION ( 'UNKNOWN', '', #184, #291 ) ;
#152 =( CONVERSION_BASED_UNIT ( 'INCH', #278 ) LENGTH_UNIT ( ) NAMED_UNIT ( #117 ) );
#153 = STYLED_ITEM ( 'NONE', ( #214 ), #127 ) ;
#154 = SURFACE_STYLE_USAGE ( .BOTH. , #147 ) ;
#155 = DIRECTION ( 'NONE',  ( 0.000000000000000000, 0.000000000000000000, -1.000000000000000000 ) ) ;
#156 =( CONVERSION_BASED_UNIT ( 'INCH', #161 ) LENGTH_UNIT ( ) NAMED_UNIT ( #51 ) );
#157 =( NAMED_UNIT ( * ) PLANE_ANGLE_UNIT ( ) SI_UNIT ( $, .RADIAN. ) );
#158 = CARTESIAN_POINT ( 'NONE',  ( 0.000000000000000000, 3.250000000000000000, -0.3750000000000000555 ) ) ;
#159 = VERTEX_POINT ( 'NONE', #240 ) ;
#160 = CARTESIAN_POINT ( 'NONE',  ( 0.000000000000000000, 3.250000000000000000, 0.000000000000000000 ) ) ;
#161 = LENGTH_MEASURE_WITH_UNIT ( LENGTH_MEASURE( 0.02539999999999999897 ), #230 );
#162 =( NAMED_UNIT ( * ) PLANE_ANGLE_UNIT ( ) SI_UNIT ( $, .RADIAN. ) );
#163 = AXIS2_PLACEMENT_3D ( 'NONE', #241, #38, #54 ) ;
#164 =( NAMED_UNIT ( * ) SI_UNIT ( $, .STERADIAN. ) SOLID_ANGLE_UNIT ( ) );
#165 = DIMENSIONAL_EXPONENTS ( 1.000000000000000000, 0.000000000000000000, 0.000000000000000000, 0.000000000000000000, 0.000000000000000000, 0.000000000000000000, 0.000000000000000000 ) ;
#166 = ADVANCED_FACE ( 'NONE', ( #190 ), #4, .F. ) ;
#167 = CIRCLE ( 'NONE', #128, 0.3750000000000000555 ) ;
#168 = FACE_OUTER_BOUND ( 'NONE', #173, .T. ) ;
#169 = ORIENTED_EDGE ( 'NONE', *, *, #264, .T. ) ;
#170 = CARTESIAN_POINT ( 'NONE',  ( 0.000000000000000000, 0.000000000000000000, -0.3750000000000000555 ) ) ;
#171 = AXIS2_PLACEMENT_3D ( 'NONE', #160, #13, #174 ) ;
#172 = PRESENTATION_LAYER_ASSIGNMENT (  '', '', ( #192 ) ) ;
#173 = EDGE_LOOP ( 'NONE', ( #82, #196, #126, #86 ) ) ;
#174 = DIRECTION ( 'NONE',  ( 0.000000000000000000, -0.000000000000000000, 1.000000000000000000 ) ) ;
#175 = CARTESIAN_POINT ( 'NONE',  ( 0.000000000000000000, 0.000000000000000000, 0.000000000000000000 ) ) ;
#176 = CARTESIAN_POINT ( 'NONE',  ( -1.224646799147354440E-16, 6.000000000000000888, 0.000000000000000000 ) ) ;
#177 = SURFACE_SIDE_STYLE ('',( #85 ) ) ;
#178 = EDGE_CURVE ( 'NONE', #106, #227, #95, .T. ) ;
#179 = LINE ( 'NONE', #49, #266 ) ;
#180 = FILL_AREA_STYLE_COLOUR ( '', #144 ) ;
#181 = DIRECTION ( 'NONE',  ( -4.453261087808560759E-17, 1.000000000000000000, -0.000000000000000000 ) ) ;
#182 = ADVANCED_BREP_SHAPE_REPRESENTATION ( '59276', ( #127, #238, #125 ), #309 ) ;
#183 = AXIS2_PLACEMENT_3D ( 'NONE', #101, #102, #256 ) ;
#184 = PRODUCT_DEFINITION_FORMATION_WITH_SPECIFIED_SOURCE ( 'ANY', '', #48, .NOT_KNOWN. ) ;
#185 = APPLICATION_CONTEXT ( 'automotive_design' ) ;
#186 =( GEOMETRIC_REPRESENTATION_CONTEXT ( 3 ) GLOBAL_UNCERTAINTY_ASSIGNED_CONTEXT ( ( #235 ) ) GLOBAL_UNIT_ASSIGNED_CONTEXT ( ( #152, #20, #87 ) ) REPRESENTATION_CONTEXT ( 'NONE', 'WORKASPACE' ) );
#187 = DIMENSIONAL_EXPONENTS ( 1.000000000000000000, 0.000000000000000000, 0.000000000000000000, 0.000000000000000000, 0.000000000000000000, 0.000000000000000000, 0.000000000000000000 ) ;
#188 = SURFACE_STYLE_FILL_AREA ( #124 ) ;
#189 = ORIENTED_EDGE ( 'NONE', *, *, #178, .T. ) ;
#190 = FACE_OUTER_BOUND ( 'NONE', #242, .T. ) ;
#191 = UNCERTAINTY_MEASURE_WITH_UNIT (LENGTH_MEASURE( 1.000000000000000082E-05 ), #156, 'distance_accuracy_value', 'NONE');
#192 = STYLED_ITEM ( 'NONE', ( #226 ), #238 ) ;
#193 = DIRECTION ( 'NONE',  ( -0.000000000000000000, -1.000000000000000000, -0.000000000000000000 ) ) ;
#194 = APPLICATION_PROTOCOL_DEFINITION ( 'draft international standard', 'automotive_design', 1998, #253 ) ;
#195 = SURFACE_STYLE_USAGE ( .BOTH. , #263 ) ;
#196 = ORIENTED_EDGE ( 'NONE', *, *, #300, .T. ) ;
#197 = FACE_OUTER_BOUND ( 'NONE', #289, .T. ) ;
#198 = DIRECTION ( 'NONE',  ( -4.453261087808560759E-17, 1.000000000000000000, -0.000000000000000000 ) ) ;
#199 = STYLED_ITEM ( 'NONE', ( #277 ), #93 ) ;
#200 =( LENGTH_UNIT ( ) NAMED_UNIT ( * ) SI_UNIT ( $, .METRE. ) );
#201 = CARTESIAN_POINT ( 'NONE',  ( 0.000000000000000000, 0.000000000000000000, 0.000000000000000000 ) ) ;
#202 = DIRECTION ( 'NONE',  ( 0.000000000000000000, 0.000000000000000000, -1.000000000000000000 ) ) ;
#203 = UNCERTAINTY_MEASURE_WITH_UNIT (LENGTH_MEASURE( 1.000000000000000082E-05 ), #211, 'distance_accuracy_value', 'NONE');
#204 = EDGE_LOOP ( 'NONE', ( #41, #74 ) ) ;
#205 = FILL_AREA_STYLE ('',( #180 ) ) ;
#206 = CARTESIAN_POINT ( 'NONE',  ( 4.592425496802575451E-17, 3.250000000000000000, 0.3750000000000000555 ) ) ;
#207 = PRODUCT_RELATED_PRODUCT_CATEGORY ( 'part', '', ( #48 ) ) ;
#208 = SURFACE_STYLE_FILL_AREA ( #205 ) ;
#209 = CARTESIAN_POINT ( 'NONE',  ( -0.3750000000000000555, 3.250000000000000000, 0.000000000000000000 ) ) ;
#210 = DIRECTION ( 'NONE',  ( 0.000000000000000000, 0.000000000000000000, -1.000000000000000000 ) ) ;
#211 =( CONVERSION_BASED_UNIT ( 'INCH', #119 ) LENGTH_UNIT ( ) NAMED_UNIT ( #142 ) );
#212 = PRESENTATION_LAYER_ASSIGNMENT (  '', '', ( #153 ) ) ;
#213 = STYLED_ITEM ( 'NONE', ( #59 ), #281 ) ;
#214 = PRESENTATION_STYLE_ASSIGNMENT (( #55 ) ) ;
#215 = DIRECTION ( 'NONE',  ( 4.453261087808560759E-17, -1.000000000000000000, 0.000000000000000000 ) ) ;
#216 = ORIENTED_EDGE ( 'NONE', *, *, #29, .T. ) ;
#217 = LINE ( 'NONE', #170, #109 ) ;
#218 = FILL_AREA_STYLE ('',( #123 ) ) ;
#219 = APPLICATION_PROTOCOL_DEFINITION ( 'draft international standard', 'automotive_design', 1998, #185 ) ;
#220 = AXIS2_PLACEMENT_3D ( 'NONE', #139, #32, #210 ) ;
#221 =( NAMED_UNIT ( * ) PLANE_ANGLE_UNIT ( ) SI_UNIT ( $, .RADIAN. ) );
#222 = SURFACE_STYLE_FILL_AREA ( #276 ) ;
#223 = ORIENTED_EDGE ( 'NONE', *, *, #29, .F. ) ;
#224 = DIRECTION ( 'NONE',  ( -4.453261087808560759E-17, 1.000000000000000000, -0.000000000000000000 ) ) ;
#225 =( LENGTH_UNIT ( ) NAMED_UNIT ( * ) SI_UNIT ( $, .METRE. ) );
#226 = PRESENTATION_STYLE_ASSIGNMENT (( #154 ) ) ;
#227 = VERTEX_POINT ( 'NONE', #239 ) ;
#228 = SURFACE_STYLE_USAGE ( .BOTH. , #270 ) ;
#229 = CLOSED_SHELL ( 'NONE', ( #53, #130, #259, #166 ) ) ;
#230 =( LENGTH_UNIT ( ) NAMED_UNIT ( * ) SI_UNIT ( $, .METRE. ) );
#231 = DIRECTION ( 'NONE',  ( -4.453261087808560759E-17, 1.000000000000000000, -0.000000000000000000 ) ) ;
#232 =( CONVERSION_BASED_UNIT ( 'INCH', #250 ) LENGTH_UNIT ( ) NAMED_UNIT ( #187 ) );
#233 = MECHANICAL_DESIGN_GEOMETRIC_PRESENTATION_REPRESENTATION (  '', ( #295 ), #75 ) ;
#234 = FACE_OUTER_BOUND ( 'NONE', #305, .T. ) ;
#235 = UNCERTAINTY_MEASURE_WITH_UNIT (LENGTH_MEASURE( 1.000000000000000082E-05 ), #152, 'distance_accuracy_value', 'NONE');
#236 = CARTESIAN_POINT ( 'NONE',  ( 0.3750000000000000555, 6.000000000000000888, 0.000000000000000000 ) ) ;
#237 = MECHANICAL_DESIGN_GEOMETRIC_PRESENTATION_REPRESENTATION (  '', ( #199 ), #8 ) ;
#238 = MANIFOLD_SOLID_BREP ( 'Revolve - Tool Body (Straight Shanked)', #229 ) ;
#239 = CARTESIAN_POINT ( 'NONE',  ( -0.3750000000000002776, 6.000000000000000888, 0.000000000000000000 ) ) ;
#240 = CARTESIAN_POINT ( 'NONE',  ( 0.000000000000000000, 0.000000000000000000, -0.3750000000000000555 ) ) ;
#241 = CARTESIAN_POINT ( 'NONE',  ( -1.224646799147354440E-16, 6.000000000000000888, 0.000000000000000000 ) ) ;
#242 = EDGE_LOOP ( 'NONE', ( #132, #189 ) ) ;
#243 = CIRCLE ( 'NONE', #61, 0.3750000000000000555 ) ;
#244 = EDGE_CURVE ( 'NONE', #58, #159, #217, .T. ) ;
#245 = FILL_AREA_STYLE_COLOUR ( '', #30 ) ;
#246 = ORIENTED_EDGE ( 'NONE', *, *, #80, .F. ) ;
#247 = MECHANICAL_DESIGN_GEOMETRIC_PRESENTATION_REPRESENTATION (  '', ( #192 ), #44 ) ;
#248 = EDGE_LOOP ( 'NONE', ( #37, #223 ) ) ;
#249 = CARTESIAN_POINT ( 'NONE',  ( 0.000000000000000000, 0.000000000000000000, 0.000000000000000000 ) ) ;
#250 = LENGTH_MEASURE_WITH_UNIT ( LENGTH_MEASURE( 0.02539999999999999897 ), #118 );
#251 = CARTESIAN_POINT ( 'NONE',  ( 0.000000000000000000, 3.250000000000000000, 0.000000000000000000 ) ) ;
#252 = CYLINDRICAL_SURFACE ( 'NONE', #220, 0.3750000000000000555 ) ;
#253 = APPLICATION_CONTEXT ( 'automotive_design' ) ;
#254 = CLOSED_SHELL ( 'NONE', ( #288, #93, #115, #281 ) ) ;
#255 = PRESENTATION_LAYER_ASSIGNMENT (  '', '', ( #213 ) ) ;
#256 = DIRECTION ( 'NONE',  ( -1.000000000000000000, -4.453261087808560759E-17, 0.000000000000000000 ) ) ;
#257 = CARTESIAN_POINT ( 'NONE',  ( 0.000000000000000000, 0.000000000000000000, 0.000000000000000000 ) ) ;
#258 = DIMENSIONAL_EXPONENTS ( 1.000000000000000000, 0.000000000000000000, 0.000000000000000000, 0.000000000000000000, 0.000000000000000000, 0.000000000000000000, 0.000000000000000000 ) ;
#259 = ADVANCED_FACE ( 'NONE', ( #168 ), #267, .T. ) ;
#260 = PLANE ( 'NONE',  #183 ) ;
#261 = SURFACE_STYLE_FILL_AREA ( #218 ) ;
#262 = ORIENTED_EDGE ( 'NONE', *, *, #80, .T. ) ;
#263 = SURFACE_SIDE_STYLE ('',( #68 ) ) ;
#264 = EDGE_CURVE ( 'NONE', #296, #106, #280, .T. ) ;
#265 = COLOUR_RGB ( '',1.000000000000000000, 0.000000000000000000, 0.000000000000000000 ) ;
#266 = VECTOR ( 'NONE', #181, 39.37007874015748143 ) ;
#267 = CYLINDRICAL_SURFACE ( 'NONE', #96, 0.3750000000000001110 ) ;
#268 = ORIENTED_EDGE ( 'NONE', *, *, #244, .F. ) ;
#269 = PRODUCT_CONTEXT ( 'NONE', #185, 'mechanical' ) ;
#270 = SURFACE_SIDE_STYLE ('',( #222 ) ) ;
#271 = VERTEX_POINT ( 'NONE', #209 ) ;
#272 = PRESENTATION_STYLE_ASSIGNMENT (( #195 ) ) ;
#273 = DIRECTION ( 'NONE',  ( -1.000000000000000000, 0.000000000000000000, 0.000000000000000000 ) ) ;
#274 = EDGE_CURVE ( 'NONE', #271, #296, #167, .T. ) ;
#275 = MECHANICAL_DESIGN_GEOMETRIC_PRESENTATION_REPRESENTATION (  '', ( #76 ), #72 ) ;
#276 = FILL_AREA_STYLE ('',( #245 ) ) ;
#277 = PRESENTATION_STYLE_ASSIGNMENT (( #301 ) ) ;
#278 = LENGTH_MEASURE_WITH_UNIT ( LENGTH_MEASURE( 0.02539999999999999897 ), #225 );
#279 = DIRECTION ( 'NONE',  ( -1.000000000000000000, 0.000000000000000000, 0.000000000000000000 ) ) ;
#280 = LINE ( 'NONE', #52, #63 ) ;
#281 = ADVANCED_FACE ( 'NONE', ( #111 ), #107, .T. ) ;
#282 = LENGTH_MEASURE_WITH_UNIT ( LENGTH_MEASURE( 0.02539999999999999897 ), #306 );
#283 = FILL_AREA_STYLE_COLOUR ( '', #108 ) ;
#284 = PRESENTATION_LAYER_ASSIGNMENT (  '', '', ( #199 ) ) ;
#285 = AXIS2_PLACEMENT_3D ( 'NONE', #6, #198, #83 ) ;
#286 =( NAMED_UNIT ( * ) SI_UNIT ( $, .STERADIAN. ) SOLID_ANGLE_UNIT ( ) );
#287 = DIRECTION ( 'NONE',  ( 1.000000000000000000, 4.453261087808560759E-17, 0.000000000000000000 ) ) ;
#288 = ADVANCED_FACE ( 'NONE', ( #234 ), #252, .T. ) ;
#289 = EDGE_LOOP ( 'NONE', ( #25, #216, #145, #246 ) ) ;
#290 = AXIS2_PLACEMENT_3D ( 'NONE', #251, #15, #155 ) ;
#291 = PRODUCT_DEFINITION_CONTEXT ( 'detailed design', #253, 'design' ) ;
#292 = SURFACE_SIDE_STYLE ('',( #188 ) ) ;
#293 = DIRECTION ( 'NONE',  ( -4.453261087808560759E-17, 1.000000000000000000, -0.000000000000000000 ) ) ;
#294 = FILL_AREA_STYLE ('',( #297 ) ) ;
#295 = STYLED_ITEM ( 'NONE', ( #272 ), #115 ) ;
#296 = VERTEX_POINT ( 'NONE', #73 ) ;
#297 = FILL_AREA_STYLE_COLOUR ( '', #104 ) ;
#298 = DIRECTION ( 'NONE',  ( -1.000000000000000000, 0.000000000000000000, 0.000000000000000000 ) ) ;
#299 = ORIENTED_EDGE ( 'NONE', *, *, #77, .T. ) ;
#300 = EDGE_CURVE ( 'NONE', #296, #271, #9, .T. ) ;
#301 = SURFACE_STYLE_USAGE ( .BOTH. , #177 ) ;
#302 = FILL_AREA_STYLE_COLOUR ( '', #265 ) ;
#303 = AXIS2_PLACEMENT_3D ( 'NONE', #236, #215, #287 ) ;
#304 = DIRECTION ( 'NONE',  ( 0.000000000000000000, 0.000000000000000000, -1.000000000000000000 ) ) ;
#305 = EDGE_LOOP ( 'NONE', ( #40, #64, #12, #268 ) ) ;
#306 =( LENGTH_UNIT ( ) NAMED_UNIT ( * ) SI_UNIT ( $, .METRE. ) );
#307 = DIRECTION ( 'NONE',  ( 0.000000000000000000, -1.000000000000000000, -0.000000000000000000 ) ) ;
#308 = CIRCLE ( 'NONE', #133, 0.3750000000000000555 ) ;
#309 =( GEOMETRIC_REPRESENTATION_CONTEXT ( 3 ) GLOBAL_UNCERTAINTY_ASSIGNED_CONTEXT ( ( #191 ) ) GLOBAL_UNIT_ASSIGNED_CONTEXT ( ( #156, #46, #19 ) ) REPRESENTATION_CONTEXT ( 'NONE', 'WORKASPACE' ) );
ENDSEC;
END-ISO-10303-21;
