ISO-10303-21;
HEADER;
FILE_DESCRIPTION (( 'STEP AP214' ),
    '1' );
FILE_NAME ('Micro_BEM-078-02X.STEP',
    '2021-09-03T12:59:18',
    ( '' ),
    ( '' ),
    'SwSTEP 2.0',
    'SolidWorks 2020',
    '' );
FILE_SCHEMA (( 'AUTOMOTIVE_DESIGN' ));
ENDSEC;

DATA;
#1 = LINE ( 'NONE', #186, #257 ) ;
#2 = DIRECTION ( 'NONE',  ( 0.0000000000000000000, -1.000000000000000000, 0.0000000000000000000 ) ) ;
#3 = ORIENTED_EDGE ( 'NONE', *, *, #214, .F. ) ;
#4 = PRESENTATION_STYLE_ASSIGNMENT (( #30 ) ) ;
#5 = LINE ( 'NONE', #212, #308 ) ;
#6 = ORIENTED_EDGE ( 'NONE', *, *, #297, .F. ) ;
#7 = AXIS2_PLACEMENT_3D ( 'NONE', #265, #159, #185 ) ;
#8 = EDGE_CURVE ( 'NONE', #25, #27, #121, .T. ) ;
#9 = ORIENTED_EDGE ( 'NONE', *, *, #34, .T. ) ;
#10 = ORIENTED_EDGE ( 'NONE', *, *, #181, .T. ) ;
#11 = DIRECTION ( 'NONE',  ( 0.7071067811865462405, 8.659560562354916834E-17, -0.7071067811865486830 ) ) ;
#12 = DIRECTION ( 'NONE',  ( 1.000000000000000000, 0.0000000000000000000, 0.0000000000000000000 ) ) ;
#13 = CIRCLE ( 'NONE', #86, 0.06250000000000002776 ) ;
#14 = PRODUCT_RELATED_PRODUCT_CATEGORY ( 'part', '', ( #320 ) ) ;
#15 = AXIS2_PLACEMENT_3D ( 'NONE', #179, #273, #199 ) ;
#16 = EDGE_CURVE ( 'NONE', #103, #32, #301, .T. ) ;
#17 = CARTESIAN_POINT ( 'NONE',  ( 2.302335982397025094E-17, 0.0000000000000000000, 0.1880000000000000282 ) ) ;
#18 = LINE ( 'NONE', #137, #94 ) ;
#19 = DIRECTION ( 'NONE',  ( -0.0000000000000000000, -0.0000000000000000000, -1.000000000000000000 ) ) ;
#20 = SURFACE_STYLE_FILL_AREA ( #74 ) ;
#21 = DIRECTION ( 'NONE',  ( -1.000000000000000000, 0.0000000000000000000, 0.0000000000000000000 ) ) ;
#22 = CARTESIAN_POINT ( 'NONE',  ( 2.302335982397025094E-17, 0.0000000000000000000, 0.1880000000000000282 ) ) ;
#23 = DIRECTION ( 'NONE',  ( -1.224646799147353700E-16, -0.0000000000000000000, -1.000000000000000000 ) ) ;
#24 = DIRECTION ( 'NONE',  ( -1.000000000000000000, 0.0000000000000000000, 2.188366338220633428E-16 ) ) ;
#25 = VERTEX_POINT ( 'NONE', #118 ) ;
#26 = ORIENTED_EDGE ( 'NONE', *, *, #238, .F. ) ;
#27 = VERTEX_POINT ( 'NONE', #309 ) ;
#28 = ORIENTED_EDGE ( 'NONE', *, *, #169, .F. ) ;
#29 = CARTESIAN_POINT ( 'NONE',  ( -0.03901095000000000257, 0.0000000000000000000, 4.777463504919746737E-18 ) ) ;
#30 = SURFACE_STYLE_USAGE ( .BOTH. , #52 ) ;
#31 = ORIENTED_EDGE ( 'NONE', *, *, #173, .F. ) ;
#32 = VERTEX_POINT ( 'NONE', #300 ) ;
#33 = DIRECTION ( 'NONE',  ( 0.0000000000000000000, 0.0000000000000000000, -1.000000000000000000 ) ) ;
#34 = EDGE_CURVE ( 'NONE', #53, #228, #143, .T. ) ;
#35 = CARTESIAN_POINT ( 'NONE',  ( 0.0000000000000000000, 0.0000000000000000000, 1.500000000000000222 ) ) ;
#36 = UNCERTAINTY_MEASURE_WITH_UNIT (LENGTH_MEASURE( 1.000000000000000082E-05 ), #289, 'distance_accuracy_value', 'NONE');
#37 = MECHANICAL_DESIGN_GEOMETRIC_PRESENTATION_REPRESENTATION (  '', ( #56 ), #155 ) ;
#38 = ADVANCED_FACE ( 'NONE', ( #269 ), #158, .T. ) ;
#39 = VECTOR ( 'NONE', #319, 39.37007874015748143 ) ;
#40 = DIRECTION ( 'NONE',  ( 1.224646799147353207E-16, 1.000000000000000000, -0.0000000000000000000 ) ) ;
#41 = CARTESIAN_POINT ( 'NONE',  ( -0.06249999999999997918, 0.0000000000000000000, 0.3212130222250907940 ) ) ;
#42 = PLANE ( 'NONE',  #252 ) ;
#43 = CIRCLE ( 'NONE', #210, 0.03901095000000000257 ) ;
#44 = VERTEX_POINT ( 'NONE', #139 ) ;
#45 = DIRECTION ( 'NONE',  ( 1.000000000000000000, 0.0000000000000000000, 0.0000000000000000000 ) ) ;
#46 = ORIENTED_EDGE ( 'NONE', *, *, #8, .T. ) ;
#47 = ORIENTED_EDGE ( 'NONE', *, *, #312, .T. ) ;
#48 = ADVANCED_FACE ( 'NONE', ( #150 ), #253, .T. ) ;
#49 = CARTESIAN_POINT ( 'NONE',  ( 0.0000000000000000000, 0.0000000000000000000, 1.500000000000000222 ) ) ;
#50 = ORIENTED_EDGE ( 'NONE', *, *, #8, .F. ) ;
#51 = VERTEX_POINT ( 'NONE', #59 ) ;
#52 = SURFACE_SIDE_STYLE ('',( #20 ) ) ;
#53 = VERTEX_POINT ( 'NONE', #248 ) ;
#54 =( LENGTH_UNIT ( ) NAMED_UNIT ( * ) SI_UNIT ( $, .METRE. ) );
#55 = AXIS2_PLACEMENT_3D ( 'NONE', #140, #88, #221 ) ;
#56 = STYLED_ITEM ( 'NONE', ( #4 ), #122 ) ;
#57 = PRODUCT_CONTEXT ( 'NONE', #152, 'mechanical' ) ;
#58 = ORIENTED_EDGE ( 'NONE', *, *, #226, .F. ) ;
#59 = CARTESIAN_POINT ( 'NONE',  ( 0.06250000000000002776, 7.654042494670959086E-18, 1.485000000000000764 ) ) ;
#60 = EDGE_CURVE ( 'NONE', #103, #44, #258, .T. ) ;
#61 = DIRECTION ( 'NONE',  ( 1.000000000000000000, 0.0000000000000000000, 0.0000000000000000000 ) ) ;
#62 =( LENGTH_UNIT ( ) NAMED_UNIT ( * ) SI_UNIT ( $, .METRE. ) );
#63 = CIRCLE ( 'NONE', #242, 0.03901095000000000257 ) ;
#64 = LENGTH_MEASURE_WITH_UNIT ( LENGTH_MEASURE( 0.02539999999999999897 ), #62 );
#65 = VECTOR ( 'NONE', #11, 39.37007874015748854 ) ;
#66 = DIRECTION ( 'NONE',  ( 1.000000000000000000, 0.0000000000000000000, 0.0000000000000000000 ) ) ;
#67 =( LENGTH_UNIT ( ) NAMED_UNIT ( * ) SI_UNIT ( $, .METRE. ) );
#68 = DIRECTION ( 'NONE',  ( -1.224646799147353700E-16, -0.0000000000000000000, -1.000000000000000000 ) ) ;
#69 = STYLED_ITEM ( 'NONE', ( #108 ), #123 ) ;
#70 = VERTEX_POINT ( 'NONE', #227 ) ;
#71 = DIRECTION ( 'NONE',  ( 0.1736481776669313859, 0.0000000000000000000, 0.9848077530122077983 ) ) ;
#72 = ORIENTED_EDGE ( 'NONE', *, *, #106, .T. ) ;
#73 = DIRECTION ( 'NONE',  ( -1.224646799147353700E-16, -0.0000000000000000000, -1.000000000000000000 ) ) ;
#74 = FILL_AREA_STYLE ('',( #126 ) ) ;
#75 = ORIENTED_EDGE ( 'NONE', *, *, #60, .F. ) ;
#76 = COLOUR_RGB ( '',0.7921568627450980005, 0.8196078431372548767, 0.9333333333333333481 ) ;
#77 = DIRECTION ( 'NONE',  ( -1.000000000000000000, 0.0000000000000000000, 1.224646799147353947E-16 ) ) ;
#78 = EDGE_CURVE ( 'NONE', #119, #25, #43, .T. ) ;
#79 = EDGE_LOOP ( 'NONE', ( #28, #97, #321, #31 ) ) ;
#80 = AXIS2_PLACEMENT_3D ( 'NONE', #220, #92, #166 ) ;
#81 = CARTESIAN_POINT ( 'NONE',  ( -0.04750000000000064587, 0.0000000000000000000, 1.500000000000000222 ) ) ;
#82 = EDGE_CURVE ( 'NONE', #237, #70, #63, .T. ) ;
#83 = VECTOR ( 'NONE', #93, 39.37007874015748143 ) ;
#84 = ADVANCED_FACE ( 'NONE', ( #128 ), #298, .T. ) ;
#85 = DIMENSIONAL_EXPONENTS ( 1.000000000000000000, 0.0000000000000000000, 0.0000000000000000000, 0.0000000000000000000, 0.0000000000000000000, 0.0000000000000000000, 0.0000000000000000000 ) ;
#86 = AXIS2_PLACEMENT_3D ( 'NONE', #325, #167, #95 ) ;
#87 = PRODUCT_DEFINITION_FORMATION_WITH_SPECIFIED_SOURCE ( 'ANY', '', #320, .NOT_KNOWN. ) ;
#88 = DIRECTION ( 'NONE',  ( 0.0000000000000000000, 1.000000000000000000, 0.0000000000000000000 ) ) ;
#89 = EDGE_CURVE ( 'NONE', #44, #51, #13, .T. ) ;
#90 = CARTESIAN_POINT ( 'NONE',  ( 0.0000000000000000000, 0.0000000000000000000, 0.0000000000000000000 ) ) ;
#91 = LINE ( 'NONE', #135, #83 ) ;
#92 = DIRECTION ( 'NONE',  ( 0.0000000000000000000, 0.0000000000000000000, 1.000000000000000000 ) ) ;
#93 = DIRECTION ( 'NONE',  ( -1.224646799147353700E-16, -0.0000000000000000000, -1.000000000000000000 ) ) ;
#94 = VECTOR ( 'NONE', #19, 39.37007874015748143 ) ;
#95 = DIRECTION ( 'NONE',  ( 1.000000000000000000, 0.0000000000000000000, 0.0000000000000000000 ) ) ;
#96 = CARTESIAN_POINT ( 'NONE',  ( 4.777463504919746737E-18, 0.0000000000000000000, 0.03901095000000000257 ) ) ;
#97 = ORIENTED_EDGE ( 'NONE', *, *, #16, .F. ) ;
#98 = LENGTH_MEASURE_WITH_UNIT ( LENGTH_MEASURE( 0.02539999999999999897 ), #54 );
#99 = DIRECTION ( 'NONE',  ( -1.000000000000000000, 0.0000000000000000000, 0.0000000000000000000 ) ) ;
#100 = CIRCLE ( 'NONE', #231, 0.03901095000000000257 ) ;
#101 = CARTESIAN_POINT ( 'NONE',  ( 0.0000000000000000000, 0.0000000000000000000, 0.0000000000000000000 ) ) ;
#102 = EDGE_LOOP ( 'NONE', ( #26, #145, #117 ) ) ;
#103 = VERTEX_POINT ( 'NONE', #195 ) ;
#104 = CARTESIAN_POINT ( 'NONE',  ( 4.777463504919746737E-18, 0.0000000000000000000, 0.03901095000000000257 ) ) ;
#105 = DIRECTION ( 'NONE',  ( -0.7071067811865462405, 0.0000000000000000000, -0.7071067811865486830 ) ) ;
#106 = EDGE_CURVE ( 'NONE', #70, #228, #5, .T. ) ;
#107 = AXIS2_PLACEMENT_3D ( 'NONE', #250, #73, #12 ) ;
#108 = PRESENTATION_STYLE_ASSIGNMENT (( #310 ) ) ;
#109 = CIRCLE ( 'NONE', #154, 0.03901095000000000257 ) ;
#110 = CARTESIAN_POINT ( 'NONE',  ( 0.03901095000000003032, 0.0000000000000000000, 0.1880000000000000282 ) ) ;
#111 =( NAMED_UNIT ( * ) SI_UNIT ( $, .STERADIAN. ) SOLID_ANGLE_UNIT ( ) );
#112 = ORIENTED_EDGE ( 'NONE', *, *, #82, .T. ) ;
#113 = LINE ( 'NONE', #138, #39 ) ;
#114 = DIRECTION ( 'NONE',  ( -1.000000000000000000, 1.224646799147353207E-16, 0.0000000000000000000 ) ) ;
#115 = AXIS2_PLACEMENT_3D ( 'NONE', #229, #171, #99 ) ;
#116 = CARTESIAN_POINT ( 'NONE',  ( 0.0000000000000000000, 0.0000000000000000000, 0.0000000000000000000 ) ) ;
#117 = ORIENTED_EDGE ( 'NONE', *, *, #181, .F. ) ;
#118 = CARTESIAN_POINT ( 'NONE',  ( 0.03901095000000000951, 4.777463504919744426E-18, 0.03901094999999999563 ) ) ;
#119 = VERTEX_POINT ( 'NONE', #178 ) ;
#120 = DIRECTION ( 'NONE',  ( -1.224646799147353700E-16, -0.0000000000000000000, -1.000000000000000000 ) ) ;
#121 = CIRCLE ( 'NONE', #251, 0.03901095000000000257 ) ;
#122 = ADVANCED_BREP_SHAPE_REPRESENTATION ( 'Micro_BEM-078-02X', ( #123, #324 ), #216 ) ;
#123 = MANIFOLD_SOLID_BREP ( 'Fillet1', #215 ) ;
#124 = ORIENTED_EDGE ( 'NONE', *, *, #16, .T. ) ;
#125 = DIRECTION ( 'NONE',  ( 0.0000000000000000000, 0.0000000000000000000, 1.000000000000000000 ) ) ;
#126 = FILL_AREA_STYLE_COLOUR ( '', #76 ) ;
#127 = EDGE_LOOP ( 'NONE', ( #168, #146, #50 ) ) ;
#128 = FACE_OUTER_BOUND ( 'NONE', #127, .T. ) ;
#129 = CIRCLE ( 'NONE', #133, 0.04750000000000064587 ) ;
#130 =( NAMED_UNIT ( * ) SI_UNIT ( $, .STERADIAN. ) SOLID_ANGLE_UNIT ( ) );
#131 = ADVANCED_FACE ( 'NONE', ( #286 ), #191, .T. ) ;
#132 = EDGE_CURVE ( 'NONE', #32, #103, #129, .T. ) ;
#133 = AXIS2_PLACEMENT_3D ( 'NONE', #35, #213, #219 ) ;
#134 = SPHERICAL_SURFACE ( 'NONE', #55, 0.03901095000000000257 ) ;
#135 = CARTESIAN_POINT ( 'NONE',  ( 0.03901095000000000257, 4.777463504919744426E-18, -4.777463504919746737E-18 ) ) ;
#136 =( NAMED_UNIT ( * ) PLANE_ANGLE_UNIT ( ) SI_UNIT ( $, .RADIAN. ) );
#137 = CARTESIAN_POINT ( 'NONE',  ( 0.06250000000000002776, 7.654042494670959086E-18, 1.500000000000000222 ) ) ;
#138 = CARTESIAN_POINT ( 'NONE',  ( -0.06250000000000002776, 0.0000000000000000000, 1.500000000000000222 ) ) ;
#139 = CARTESIAN_POINT ( 'NONE',  ( -0.06250000000000002776, 0.0000000000000000000, 1.485000000000000764 ) ) ;
#140 = CARTESIAN_POINT ( 'NONE',  ( 4.777463504919746737E-18, 0.0000000000000000000, 0.03901095000000000257 ) ) ;
#141 = DIRECTION ( 'NONE',  ( -1.000000000000000000, 0.0000000000000000000, 2.188366338220633428E-16 ) ) ;
#142 = DIRECTION ( 'NONE',  ( 0.0000000000000000000, 0.0000000000000000000, -1.000000000000000000 ) ) ;
#143 = CIRCLE ( 'NONE', #107, 0.06250000000000002776 ) ;
#144 = ORIENTED_EDGE ( 'NONE', *, *, #201, .F. ) ;
#145 = ORIENTED_EDGE ( 'NONE', *, *, #78, .T. ) ;
#146 = ORIENTED_EDGE ( 'NONE', *, *, #238, .T. ) ;
#147 = LINE ( 'NONE', #29, #245 ) ;
#148 =( CONVERSION_BASED_UNIT ( 'INCH', #98 ) LENGTH_UNIT ( ) NAMED_UNIT ( #292 ) );
#149 = AXIS2_PLACEMENT_3D ( 'NONE', #17, #239, #66 ) ;
#150 = FACE_OUTER_BOUND ( 'NONE', #304, .T. ) ;
#151 = CARTESIAN_POINT ( 'NONE',  ( 2.302335982397025094E-17, 0.0000000000000000000, 0.1880000000000000282 ) ) ;
#152 = APPLICATION_CONTEXT ( 'automotive_design' ) ;
#153 = FACE_OUTER_BOUND ( 'NONE', #102, .T. ) ;
#154 = AXIS2_PLACEMENT_3D ( 'NONE', #104, #291, #24 ) ;
#155 =( GEOMETRIC_REPRESENTATION_CONTEXT ( 3 ) GLOBAL_UNCERTAINTY_ASSIGNED_CONTEXT ( ( #315 ) ) GLOBAL_UNIT_ASSIGNED_CONTEXT ( ( #148, #200, #209 ) ) REPRESENTATION_CONTEXT ( 'NONE', 'WORKASPACE' ) );
#156 =( CONVERSION_BASED_UNIT ( 'INCH', #64 ) LENGTH_UNIT ( ) NAMED_UNIT ( #244 ) );
#157 = UNCERTAINTY_MEASURE_WITH_UNIT (LENGTH_MEASURE( 1.000000000000000082E-05 ), #156, 'distance_accuracy_value', 'NONE');
#158 = CONICAL_SURFACE ( 'NONE', #115, 0.04750000000000064587, 0.7853981633974466137 ) ;
#159 = DIRECTION ( 'NONE',  ( -0.0000000000000000000, -0.0000000000000000000, -1.000000000000000000 ) ) ;
#160 = CARTESIAN_POINT ( 'NONE',  ( 2.302335982397025094E-17, 0.0000000000000000000, 0.1880000000000000282 ) ) ;
#161 = CARTESIAN_POINT ( 'NONE',  ( 4.777463504919746737E-18, 0.0000000000000000000, 0.03901095000000000257 ) ) ;
#162 = ADVANCED_FACE ( 'NONE', ( #222 ), #194, .T. ) ;
#163 = CARTESIAN_POINT ( 'NONE',  ( 4.777463504919746737E-18, 0.0000000000000000000, 0.03901095000000000257 ) ) ;
#164 = CARTESIAN_POINT ( 'NONE',  ( 3.933724995124051744E-17, 0.0000000000000000000, 0.3212130222250907940 ) ) ;
#165 = EDGE_CURVE ( 'NONE', #70, #27, #147, .T. ) ;
#166 = DIRECTION ( 'NONE',  ( 1.000000000000000000, 0.0000000000000000000, 0.0000000000000000000 ) ) ;
#167 = DIRECTION ( 'NONE',  ( 0.0000000000000000000, 0.0000000000000000000, -1.000000000000000000 ) ) ;
#168 = ORIENTED_EDGE ( 'NONE', *, *, #78, .F. ) ;
#169 = EDGE_CURVE ( 'NONE', #32, #51, #307, .T. ) ;
#170 = APPLICATION_PROTOCOL_DEFINITION ( 'draft international standard', 'automotive_design', 1998, #152 ) ;
#171 = DIRECTION ( 'NONE',  ( 0.0000000000000000000, 0.0000000000000000000, -1.000000000000000000 ) ) ;
#172 = ADVANCED_FACE ( 'NONE', ( #196 ), #261, .T. ) ;
#173 = EDGE_CURVE ( 'NONE', #51, #44, #302, .T. ) ;
#174 = ORIENTED_EDGE ( 'NONE', *, *, #132, .T. ) ;
#175 = AXIS2_PLACEMENT_3D ( 'NONE', #311, #208, #61 ) ;
#176 = CARTESIAN_POINT ( 'NONE',  ( 4.777463504919746737E-18, 0.0000000000000000000, 0.03901095000000000257 ) ) ;
#177 = ADVANCED_FACE ( 'NONE', ( #153 ), #134, .T. ) ;
#178 = CARTESIAN_POINT ( 'NONE',  ( 7.166195257379618950E-18, 0.0000000000000000000, 0.0000000000000000000 ) ) ;
#179 = CARTESIAN_POINT ( 'NONE',  ( 0.0000000000000000000, 0.0000000000000000000, 1.500000000000000222 ) ) ;
#180 = SURFACE_SIDE_STYLE ('',( #263 ) ) ;
#181 = EDGE_CURVE ( 'NONE', #27, #25, #109, .T. ) ;
#182 =( NAMED_UNIT ( * ) PLANE_ANGLE_UNIT ( ) SI_UNIT ( $, .RADIAN. ) );
#183 = AXIS2_PLACEMENT_3D ( 'NONE', #160, #68, #322 ) ;
#184 = AXIS2_PLACEMENT_3D ( 'NONE', #22, #268, #246 ) ;
#185 = DIRECTION ( 'NONE',  ( -1.000000000000000000, 0.0000000000000000000, 0.0000000000000000000 ) ) ;
#186 = CARTESIAN_POINT ( 'NONE',  ( 0.03901095000000003032, 0.0000000000000000000, 0.1880000000000000282 ) ) ;
#187 = DIRECTION ( 'NONE',  ( -1.224646799147353700E-16, -0.0000000000000000000, -1.000000000000000000 ) ) ;
#188 = ORIENTED_EDGE ( 'NONE', *, *, #106, .F. ) ;
#189 = AXIS2_PLACEMENT_3D ( 'NONE', #49, #142, #277 ) ;
#190 = ADVANCED_FACE ( 'NONE', ( #249 ), #42, .T. ) ;
#191 = CONICAL_SURFACE ( 'NONE', #149, 0.03901095000000000257, 0.1745329251994338915 ) ;
#192 = AXIS2_PLACEMENT_3D ( 'NONE', #164, #285, #45 ) ;
#193 = DIRECTION ( 'NONE',  ( 0.0000000000000000000, 0.0000000000000000000, 1.000000000000000000 ) ) ;
#194 = CYLINDRICAL_SURFACE ( 'NONE', #15, 0.06250000000000002776 ) ;
#195 = CARTESIAN_POINT ( 'NONE',  ( -0.04750000000000064587, 0.0000000000000000000, 1.500000000000000222 ) ) ;
#196 = FACE_OUTER_BOUND ( 'NONE', #198, .T. ) ;
#197 = DIRECTION ( 'NONE',  ( 1.000000000000000000, 0.0000000000000000000, 0.0000000000000000000 ) ) ;
#198 = EDGE_LOOP ( 'NONE', ( #206, #233, #278, #75 ) ) ;
#199 = DIRECTION ( 'NONE',  ( -1.000000000000000000, 0.0000000000000000000, 0.0000000000000000000 ) ) ;
#200 =( NAMED_UNIT ( * ) PLANE_ANGLE_UNIT ( ) SI_UNIT ( $, .RADIAN. ) );
#201 = EDGE_CURVE ( 'NONE', #51, #53, #18, .T. ) ;
#202 = ORIENTED_EDGE ( 'NONE', *, *, #82, .F. ) ;
#203 = EDGE_LOOP ( 'NONE', ( #188, #202, #255, #9 ) ) ;
#204 = AXIS2_PLACEMENT_3D ( 'NONE', #116, #281, #77 ) ;
#205 = EDGE_LOOP ( 'NONE', ( #124, #174 ) ) ;
#206 = ORIENTED_EDGE ( 'NONE', *, *, #132, .F. ) ;
#207 = ORIENTED_EDGE ( 'NONE', *, *, #165, .T. ) ;
#208 = DIRECTION ( 'NONE',  ( 0.0000000000000000000, 0.0000000000000000000, -1.000000000000000000 ) ) ;
#209 =( NAMED_UNIT ( * ) SI_UNIT ( $, .STERADIAN. ) SOLID_ANGLE_UNIT ( ) );
#210 = AXIS2_PLACEMENT_3D ( 'NONE', #176, #2, #33 ) ;
#211 = EDGE_LOOP ( 'NONE', ( #293, #299, #303, #3 ) ) ;
#212 = CARTESIAN_POINT ( 'NONE',  ( -0.03901094999999998175, 4.777463504919744426E-18, 0.1880000000000000282 ) ) ;
#213 = DIRECTION ( 'NONE',  ( 0.0000000000000000000, 0.0000000000000000000, 1.000000000000000000 ) ) ;
#214 = EDGE_CURVE ( 'NONE', #44, #228, #113, .T. ) ;
#215 = CLOSED_SHELL ( 'NONE', ( #84, #48, #290, #172, #260, #162, #190, #38, #131, #266, #177 ) ) ;
#216 =( GEOMETRIC_REPRESENTATION_CONTEXT ( 3 ) GLOBAL_UNCERTAINTY_ASSIGNED_CONTEXT ( ( #36 ) ) GLOBAL_UNIT_ASSIGNED_CONTEXT ( ( #289, #136, #111 ) ) REPRESENTATION_CONTEXT ( 'NONE', 'WORKASPACE' ) );
#217 = CARTESIAN_POINT ( 'NONE',  ( 0.0000000000000000000, 0.0000000000000000000, 1.500000000000000222 ) ) ;
#218 = DIRECTION ( 'NONE',  ( 1.000000000000000000, 0.0000000000000000000, -0.0000000000000000000 ) ) ;
#219 = DIRECTION ( 'NONE',  ( 1.000000000000000000, 0.0000000000000000000, 0.0000000000000000000 ) ) ;
#220 = CARTESIAN_POINT ( 'NONE',  ( 0.0000000000000000000, 0.0000000000000000000, 1.500000000000000222 ) ) ;
#221 = DIRECTION ( 'NONE',  ( 1.000000000000000000, 0.0000000000000000000, 0.0000000000000000000 ) ) ;
#222 = FACE_OUTER_BOUND ( 'NONE', #296, .T. ) ;
#223 = DIRECTION ( 'NONE',  ( 0.0000000000000000000, 1.000000000000000000, 0.0000000000000000000 ) ) ;
#224 = VECTOR ( 'NONE', #105, 39.37007874015748854 ) ;
#225 = CYLINDRICAL_SURFACE ( 'NONE', #317, 0.03901095000000000257 ) ;
#226 = EDGE_CURVE ( 'NONE', #70, #237, #287, .T. ) ;
#227 = CARTESIAN_POINT ( 'NONE',  ( -0.03901094999999998175, 6.215752999795353296E-18, 0.1880000000000000282 ) ) ;
#228 = VERTEX_POINT ( 'NONE', #41 ) ;
#229 = CARTESIAN_POINT ( 'NONE',  ( 0.0000000000000000000, 0.0000000000000000000, 1.500000000000000222 ) ) ;
#230 = ORIENTED_EDGE ( 'NONE', *, *, #34, .F. ) ;
#231 = AXIS2_PLACEMENT_3D ( 'NONE', #161, #40, #114 ) ;
#232 = SHAPE_DEFINITION_REPRESENTATION ( #259, #122 ) ;
#233 = ORIENTED_EDGE ( 'NONE', *, *, #169, .T. ) ;
#234 = ORIENTED_EDGE ( 'NONE', *, *, #240, .T. ) ;
#235 = CARTESIAN_POINT ( 'NONE',  ( 0.04750000000000064587, 5.817072295950006528E-18, 1.500000000000000222 ) ) ;
#236 = DIRECTION ( 'NONE',  ( 1.000000000000000000, 0.0000000000000000000, 0.0000000000000000000 ) ) ;
#237 = VERTEX_POINT ( 'NONE', #110 ) ;
#238 = EDGE_CURVE ( 'NONE', #119, #27, #100, .T. ) ;
#239 = DIRECTION ( 'NONE',  ( 1.224646799147353700E-16, 0.0000000000000000000, 1.000000000000000000 ) ) ;
#240 = EDGE_CURVE ( 'NONE', #237, #25, #91, .T. ) ;
#241 = DIRECTION ( 'NONE',  ( -0.1736481776669311916, 2.126576849575783316E-17, 0.9848077530122080203 ) ) ;
#242 = AXIS2_PLACEMENT_3D ( 'NONE', #151, #23, #21 ) ;
#243 = DIRECTION ( 'NONE',  ( -1.000000000000000000, 0.0000000000000000000, 1.224646799147353947E-16 ) ) ;
#244 = DIMENSIONAL_EXPONENTS ( 1.000000000000000000, 0.0000000000000000000, 0.0000000000000000000, 0.0000000000000000000, 0.0000000000000000000, 0.0000000000000000000, 0.0000000000000000000 ) ;
#245 = VECTOR ( 'NONE', #120, 39.37007874015748143 ) ;
#246 = DIRECTION ( 'NONE',  ( 1.000000000000000000, 0.0000000000000000000, 0.0000000000000000000 ) ) ;
#247 = CYLINDRICAL_SURFACE ( 'NONE', #7, 0.06250000000000002776 ) ;
#248 = CARTESIAN_POINT ( 'NONE',  ( 0.06250000000000006939, 7.654042494670963708E-18, 0.3212130222250907940 ) ) ;
#249 = FACE_OUTER_BOUND ( 'NONE', #205, .T. ) ;
#250 = CARTESIAN_POINT ( 'NONE',  ( 3.933724995124051744E-17, 0.0000000000000000000, 0.3212130222250907940 ) ) ;
#251 = AXIS2_PLACEMENT_3D ( 'NONE', #163, #271, #141 ) ;
#252 = AXIS2_PLACEMENT_3D ( 'NONE', #217, #193, #218 ) ;
#253 = CYLINDRICAL_SURFACE ( 'NONE', #204, 0.03901095000000000257 ) ;
#254 = ORIENTED_EDGE ( 'NONE', *, *, #240, .F. ) ;
#255 = ORIENTED_EDGE ( 'NONE', *, *, #297, .T. ) ;
#256 = ORIENTED_EDGE ( 'NONE', *, *, #226, .T. ) ;
#257 = VECTOR ( 'NONE', #71, 39.37007874015748143 ) ;
#258 = LINE ( 'NONE', #81, #224 ) ;
#259 = PRODUCT_DEFINITION_SHAPE ( 'NONE', 'NONE',  #295 ) ;
#260 = ADVANCED_FACE ( 'NONE', ( #267 ), #247, .T. ) ;
#261 = CONICAL_SURFACE ( 'NONE', #189, 0.04750000000000064587, 0.7853981633974466137 ) ;
#262 = CIRCLE ( 'NONE', #192, 0.06250000000000002776 ) ;
#263 = SURFACE_STYLE_FILL_AREA ( #283 ) ;
#264 = AXIS2_PLACEMENT_3D ( 'NONE', #96, #223, #197 ) ;
#265 = CARTESIAN_POINT ( 'NONE',  ( 0.0000000000000000000, 0.0000000000000000000, 1.500000000000000222 ) ) ;
#266 = ADVANCED_FACE ( 'NONE', ( #270 ), #225, .T. ) ;
#267 = FACE_OUTER_BOUND ( 'NONE', #211, .T. ) ;
#268 = DIRECTION ( 'NONE',  ( 1.224646799147353700E-16, 0.0000000000000000000, 1.000000000000000000 ) ) ;
#269 = FACE_OUTER_BOUND ( 'NONE', #79, .T. ) ;
#270 = FACE_OUTER_BOUND ( 'NONE', #272, .T. ) ;
#271 = DIRECTION ( 'NONE',  ( 1.224646799147353700E-16, 0.0000000000000000000, 1.000000000000000000 ) ) ;
#272 = EDGE_LOOP ( 'NONE', ( #254, #112, #207, #10 ) ) ;
#273 = DIRECTION ( 'NONE',  ( -0.0000000000000000000, -0.0000000000000000000, -1.000000000000000000 ) ) ;
#274 = PRODUCT_DEFINITION_CONTEXT ( 'detailed design', #284, 'design' ) ;
#275 = ORIENTED_EDGE ( 'NONE', *, *, #173, .T. ) ;
#276 = PRESENTATION_LAYER_ASSIGNMENT (  '', '', ( #69 ) ) ;
#277 = DIRECTION ( 'NONE',  ( -1.000000000000000000, 0.0000000000000000000, 0.0000000000000000000 ) ) ;
#278 = ORIENTED_EDGE ( 'NONE', *, *, #89, .F. ) ;
#279 = ORIENTED_EDGE ( 'NONE', *, *, #214, .T. ) ;
#280 = COLOUR_RGB ( '',0.7921568627450980005, 0.8196078431372548767, 0.9333333333333333481 ) ;
#281 = DIRECTION ( 'NONE',  ( -1.224646799147353700E-16, -0.0000000000000000000, -1.000000000000000000 ) ) ;
#282 = ORIENTED_EDGE ( 'NONE', *, *, #165, .F. ) ;
#283 = FILL_AREA_STYLE ('',( #314 ) ) ;
#284 = APPLICATION_CONTEXT ( 'automotive_design' ) ;
#285 = DIRECTION ( 'NONE',  ( -1.224646799147353700E-16, -0.0000000000000000000, -1.000000000000000000 ) ) ;
#286 = FACE_OUTER_BOUND ( 'NONE', #203, .T. ) ;
#287 = CIRCLE ( 'NONE', #183, 0.03901095000000000257 ) ;
#288 = CONICAL_SURFACE ( 'NONE', #184, 0.03901095000000000257, 0.1745329251994338915 ) ;
#289 =( CONVERSION_BASED_UNIT ( 'INCH', #316 ) LENGTH_UNIT ( ) NAMED_UNIT ( #85 ) );
#290 = ADVANCED_FACE ( 'NONE', ( #318 ), #288, .T. ) ;
#291 = DIRECTION ( 'NONE',  ( 1.224646799147353700E-16, 0.0000000000000000000, 1.000000000000000000 ) ) ;
#292 = DIMENSIONAL_EXPONENTS ( 1.000000000000000000, 0.0000000000000000000, 0.0000000000000000000, 0.0000000000000000000, 0.0000000000000000000, 0.0000000000000000000, 0.0000000000000000000 ) ;
#293 = ORIENTED_EDGE ( 'NONE', *, *, #89, .T. ) ;
#294 = PRESENTATION_LAYER_ASSIGNMENT (  '', '', ( #56 ) ) ;
#295 = PRODUCT_DEFINITION ( 'UNKNOWN', '', #87, #274 ) ;
#296 = EDGE_LOOP ( 'NONE', ( #144, #275, #279, #230 ) ) ;
#297 = EDGE_CURVE ( 'NONE', #237, #53, #1, .T. ) ;
#298 = SPHERICAL_SURFACE ( 'NONE', #264, 0.03901095000000000257 ) ;
#299 = ORIENTED_EDGE ( 'NONE', *, *, #201, .T. ) ;
#300 = CARTESIAN_POINT ( 'NONE',  ( 0.04750000000000064587, 6.735557395310483192E-18, 1.500000000000000222 ) ) ;
#301 = CIRCLE ( 'NONE', #80, 0.04750000000000064587 ) ;
#302 = CIRCLE ( 'NONE', #175, 0.06250000000000002776 ) ;
#303 = ORIENTED_EDGE ( 'NONE', *, *, #312, .F. ) ;
#304 = EDGE_LOOP ( 'NONE', ( #256, #234, #46, #282 ) ) ;
#305 = APPLICATION_PROTOCOL_DEFINITION ( 'draft international standard', 'automotive_design', 1998, #284 ) ;
#306 = EDGE_LOOP ( 'NONE', ( #58, #72, #47, #6 ) ) ;
#307 = LINE ( 'NONE', #235, #65 ) ;
#308 = VECTOR ( 'NONE', #241, 39.37007874015747433 ) ;
#309 = CARTESIAN_POINT ( 'NONE',  ( -0.03901094999999999563, 0.0000000000000000000, 0.03901095000000000951 ) ) ;
#310 = SURFACE_STYLE_USAGE ( .BOTH. , #180 ) ;
#311 = CARTESIAN_POINT ( 'NONE',  ( 0.0000000000000000000, 0.0000000000000000000, 1.485000000000000764 ) ) ;
#312 = EDGE_CURVE ( 'NONE', #228, #53, #262, .T. ) ;
#313 = MECHANICAL_DESIGN_GEOMETRIC_PRESENTATION_REPRESENTATION (  '', ( #69 ), #323 ) ;
#314 = FILL_AREA_STYLE_COLOUR ( '', #280 ) ;
#315 = UNCERTAINTY_MEASURE_WITH_UNIT (LENGTH_MEASURE( 1.000000000000000082E-05 ), #148, 'distance_accuracy_value', 'NONE');
#316 = LENGTH_MEASURE_WITH_UNIT ( LENGTH_MEASURE( 0.02539999999999999897 ), #67 );
#317 = AXIS2_PLACEMENT_3D ( 'NONE', #90, #187, #243 ) ;
#318 = FACE_OUTER_BOUND ( 'NONE', #306, .T. ) ;
#319 = DIRECTION ( 'NONE',  ( -0.0000000000000000000, -0.0000000000000000000, -1.000000000000000000 ) ) ;
#320 = PRODUCT ( 'Micro_BEM-078-02X', 'Micro_BEM-078-02X', '', ( #57 ) ) ;
#321 = ORIENTED_EDGE ( 'NONE', *, *, #60, .T. ) ;
#322 = DIRECTION ( 'NONE',  ( -1.000000000000000000, 0.0000000000000000000, 0.0000000000000000000 ) ) ;
#323 =( GEOMETRIC_REPRESENTATION_CONTEXT ( 3 ) GLOBAL_UNCERTAINTY_ASSIGNED_CONTEXT ( ( #157 ) ) GLOBAL_UNIT_ASSIGNED_CONTEXT ( ( #156, #182, #130 ) ) REPRESENTATION_CONTEXT ( 'NONE', 'WORKASPACE' ) );
#324 = AXIS2_PLACEMENT_3D ( 'NONE', #101, #125, #236 ) ;
#325 = CARTESIAN_POINT ( 'NONE',  ( 0.0000000000000000000, 0.0000000000000000000, 1.485000000000000764 ) ) ;
ENDSEC;
END-ISO-10303-21;
