ISO-10303-21;
HEADER;
FILE_DESCRIPTION (( 'STEP AP214' ),
    '1' );
FILE_NAME ('Micro_SEM-156-04.STEP',
    '2021-09-02T01:53:11',
    ( '' ),
    ( '' ),
    'SwSTEP 2.0',
    'SolidWorks 2020',
    '' );
FILE_SCHEMA (( 'AUTOMOTIVE_DESIGN' ));
ENDSEC;

DATA;
#1 = LENGTH_MEASURE_WITH_UNIT ( LENGTH_MEASURE( 0.02539999999999999897 ), #223 );
#2 = STYLED_ITEM ( 'NONE', ( #75 ), #249 ) ;
#3 = CIRCLE ( 'NONE', #273, 0.07875000000000061118 ) ;
#4 = LINE ( 'NONE', #83, #167 ) ;
#5 = VECTOR ( 'NONE', #103, 39.37007874015748143 ) ;
#6 = DIRECTION ( 'NONE',  ( 1.224646799147353454E-16, 0.0000000000000000000, 1.000000000000000000 ) ) ;
#7 = EDGE_CURVE ( 'NONE', #97, #17, #4, .T. ) ;
#8 = CARTESIAN_POINT ( 'NONE',  ( 0.0000000000000000000, 0.0000000000000000000, 1.500000000000000222 ) ) ;
#9 = LINE ( 'NONE', #163, #218 ) ;
#10 = CLOSED_SHELL ( 'NONE', ( #45, #76, #187, #213, #281, #297, #195, #115, #59, #109 ) ) ;
#11 = DIRECTION ( 'NONE',  ( -0.0000000000000000000, -0.0000000000000000000, -1.000000000000000000 ) ) ;
#12 = EDGE_CURVE ( 'NONE', #43, #96, #296, .T. ) ;
#13 = CARTESIAN_POINT ( 'NONE',  ( 3.833144481331216295E-17, 0.0000000000000000000, 0.3130000000000000004 ) ) ;
#14 = VERTEX_POINT ( 'NONE', #204 ) ;
#15 = CIRCLE ( 'NONE', #150, 0.07802190000000000514 ) ;
#16 = EDGE_CURVE ( 'NONE', #96, #17, #15, .T. ) ;
#17 = VERTEX_POINT ( 'NONE', #285 ) ;
#18 = MECHANICAL_DESIGN_GEOMETRIC_PRESENTATION_REPRESENTATION (  '', ( #2 ), #35 ) ;
#19 = ORIENTED_EDGE ( 'NONE', *, *, #136, .T. ) ;
#20 = STYLED_ITEM ( 'NONE', ( #46 ), #100 ) ;
#21 = ORIENTED_EDGE ( 'NONE', *, *, #147, .F. ) ;
#22 = EDGE_LOOP ( 'NONE', ( #61, #245, #63, #123 ) ) ;
#23 = EDGE_LOOP ( 'NONE', ( #248, #126, #232, #196 ) ) ;
#24 = PRODUCT_DEFINITION_FORMATION_WITH_SPECIFIED_SOURCE ( 'ANY', '', #159, .NOT_KNOWN. ) ;
#25 =( CONVERSION_BASED_UNIT ( 'INCH', #50 ) LENGTH_UNIT ( ) NAMED_UNIT ( #231 ) );
#26 = EDGE_LOOP ( 'NONE', ( #146, #99, #276, #275 ) ) ;
#27 = CYLINDRICAL_SURFACE ( 'NONE', #70, 0.07802190000000000514 ) ;
#28 = DIRECTION ( 'NONE',  ( 1.000000000000000000, 0.0000000000000000000, 0.0000000000000000000 ) ) ;
#29 = CIRCLE ( 'NONE', #251, 0.07875000000000061118 ) ;
#30 = DIRECTION ( 'NONE',  ( 1.000000000000000000, 0.0000000000000000000, 0.0000000000000000000 ) ) ;
#31 = DIRECTION ( 'NONE',  ( -0.0000000000000000000, -0.0000000000000000000, -1.000000000000000000 ) ) ;
#32 =( LENGTH_UNIT ( ) NAMED_UNIT ( * ) SI_UNIT ( $, .METRE. ) );
#33 = EDGE_CURVE ( 'NONE', #102, #137, #29, .T. ) ;
#34 = AXIS2_PLACEMENT_3D ( 'NONE', #8, #68, #292 ) ;
#35 =( GEOMETRIC_REPRESENTATION_CONTEXT ( 3 ) GLOBAL_UNCERTAINTY_ASSIGNED_CONTEXT ( ( #200 ) ) GLOBAL_UNIT_ASSIGNED_CONTEXT ( ( #271, #210, #111 ) ) REPRESENTATION_CONTEXT ( 'NONE', 'WORKASPACE' ) );
#36 = LINE ( 'NONE', #186, #77 ) ;
#37 = SURFACE_STYLE_USAGE ( .BOTH. , #242 ) ;
#38 = CONICAL_SURFACE ( 'NONE', #48, 0.07802190000000000514, 0.1745329251994339192 ) ;
#39 = ORIENTED_EDGE ( 'NONE', *, *, #272, .F. ) ;
#40 = EDGE_LOOP ( 'NONE', ( #209, #125 ) ) ;
#41 = AXIS2_PLACEMENT_3D ( 'NONE', #269, #55, #28 ) ;
#42 =( GEOMETRIC_REPRESENTATION_CONTEXT ( 3 ) GLOBAL_UNCERTAINTY_ASSIGNED_CONTEXT ( ( #258 ) ) GLOBAL_UNIT_ASSIGNED_CONTEXT ( ( #129, #104, #84 ) ) REPRESENTATION_CONTEXT ( 'NONE', 'WORKASPACE' ) );
#43 = VERTEX_POINT ( 'NONE', #257 ) ;
#44 = FILL_AREA_STYLE ('',( #256 ) ) ;
#45 = ADVANCED_FACE ( 'NONE', ( #179 ), #282, .T. ) ;
#46 = PRESENTATION_STYLE_ASSIGNMENT (( #203 ) ) ;
#47 = CARTESIAN_POINT ( 'NONE',  ( 0.0000000000000000000, 0.0000000000000000000, 1.500000000000000222 ) ) ;
#48 = AXIS2_PLACEMENT_3D ( 'NONE', #13, #6, #181 ) ;
#49 = ORIENTED_EDGE ( 'NONE', *, *, #12, .F. ) ;
#50 = LENGTH_MEASURE_WITH_UNIT ( LENGTH_MEASURE( 0.02539999999999999897 ), #199 );
#51 = DIRECTION ( 'NONE',  ( -1.000000000000000000, 0.0000000000000000000, 1.224646799147353700E-16 ) ) ;
#52 = FACE_OUTER_BOUND ( 'NONE', #62, .T. ) ;
#53 = DIRECTION ( 'NONE',  ( -1.224646799147353454E-16, -0.0000000000000000000, -1.000000000000000000 ) ) ;
#54 = DIRECTION ( 'NONE',  ( 0.1736481776669314137, 0.0000000000000000000, 0.9848077530122077983 ) ) ;
#55 = DIRECTION ( 'NONE',  ( 1.224646799147353454E-16, 0.0000000000000000000, 1.000000000000000000 ) ) ;
#56 = COLOUR_RGB ( '',0.7921568627450980005, 0.8196078431372548767, 0.9333333333333333481 ) ;
#57 = ORIENTED_EDGE ( 'NONE', *, *, #16, .T. ) ;
#58 = EDGE_LOOP ( 'NONE', ( #234, #19, #78, #21 ) ) ;
#59 = ADVANCED_FACE ( 'NONE', ( #233 ), #27, .T. ) ;
#60 = VERTEX_POINT ( 'NONE', #89 ) ;
#61 = ORIENTED_EDGE ( 'NONE', *, *, #214, .F. ) ;
#62 = EDGE_LOOP ( 'NONE', ( #101, #79, #171, #236 ) ) ;
#63 = ORIENTED_EDGE ( 'NONE', *, *, #253, .T. ) ;
#64 = DIRECTION ( 'NONE',  ( 1.000000000000000000, 0.0000000000000000000, -0.0000000000000000000 ) ) ;
#65 = APPLICATION_CONTEXT ( 'automotive_design' ) ;
#66 = PRODUCT_DEFINITION_CONTEXT ( 'detailed design', #65, 'design' ) ;
#67 = DIRECTION ( 'NONE',  ( -0.0000000000000000000, -0.0000000000000000000, -1.000000000000000000 ) ) ;
#68 = DIRECTION ( 'NONE',  ( 0.0000000000000000000, 0.0000000000000000000, -1.000000000000000000 ) ) ;
#69 = APPLICATION_PROTOCOL_DEFINITION ( 'draft international standard', 'automotive_design', 1998, #65 ) ;
#70 = AXIS2_PLACEMENT_3D ( 'NONE', #110, #237, #51 ) ;
#71 = CYLINDRICAL_SURFACE ( 'NONE', #138, 0.09375000000000001388 ) ;
#72 = LINE ( 'NONE', #286, #169 ) ;
#73 = CARTESIAN_POINT ( 'NONE',  ( 0.07875000000000061118, 9.644093543285480678E-18, 1.500000000000000222 ) ) ;
#74 = CARTESIAN_POINT ( 'NONE',  ( -0.07875000000000061118, 0.0000000000000000000, 1.500000000000000222 ) ) ;
#75 = PRESENTATION_STYLE_ASSIGNMENT (( #37 ) ) ;
#76 = ADVANCED_FACE ( 'NONE', ( #158 ), #207, .T. ) ;
#77 = VECTOR ( 'NONE', #67, 39.37007874015748143 ) ;
#78 = ORIENTED_EDGE ( 'NONE', *, *, #80, .F. ) ;
#79 = ORIENTED_EDGE ( 'NONE', *, *, #91, .F. ) ;
#80 = EDGE_CURVE ( 'NONE', #190, #60, #168, .T. ) ;
#81 = AXIS2_PLACEMENT_3D ( 'NONE', #141, #241, #118 ) ;
#82 = CARTESIAN_POINT ( 'NONE',  ( 1.170141077868652707E-33, 0.0000000000000000000, 9.554927009839491933E-18 ) ) ;
#83 = CARTESIAN_POINT ( 'NONE',  ( 0.07802190000000000514, 9.554927009839488851E-18, -9.554927009839491933E-18 ) ) ;
#84 =( NAMED_UNIT ( * ) SI_UNIT ( $, .STERADIAN. ) SOLID_ANGLE_UNIT ( ) );
#85 = DIRECTION ( 'NONE',  ( 0.0000000000000000000, 0.0000000000000000000, 1.000000000000000000 ) ) ;
#86 = EDGE_CURVE ( 'NONE', #263, #14, #124, .T. ) ;
#87 = COLOUR_RGB ( '',0.7921568627450980005, 0.8196078431372548767, 0.9333333333333333481 ) ;
#88 = ORIENTED_EDGE ( 'NONE', *, *, #265, .F. ) ;
#89 = CARTESIAN_POINT ( 'NONE',  ( 0.09375000000000004163, 1.148106374200644017E-17, 0.4021984875871287279 ) ) ;
#90 = CARTESIAN_POINT ( 'NONE',  ( 0.0000000000000000000, 0.0000000000000000000, 0.0000000000000000000 ) ) ;
#91 = EDGE_CURVE ( 'NONE', #97, #43, #173, .T. ) ;
#92 = DIRECTION ( 'NONE',  ( 1.000000000000000000, 0.0000000000000000000, 0.0000000000000000000 ) ) ;
#93 = PLANE ( 'NONE',  #283 ) ;
#94 = CARTESIAN_POINT ( 'NONE',  ( 0.0000000000000000000, 0.0000000000000000000, 1.500000000000000222 ) ) ;
#95 = CONICAL_SURFACE ( 'NONE', #34, 0.07875000000000061118, 0.7853981633974562726 ) ;
#96 = VERTEX_POINT ( 'NONE', #239 ) ;
#97 = VERTEX_POINT ( 'NONE', #211 ) ;
#98 = CIRCLE ( 'NONE', #81, 0.07802190000000000514 ) ;
#99 = ORIENTED_EDGE ( 'NONE', *, *, #262, .T. ) ;
#100 = ADVANCED_BREP_SHAPE_REPRESENTATION ( 'Micro_SEM-156-04', ( #249, #221 ), #132 ) ;
#101 = ORIENTED_EDGE ( 'NONE', *, *, #277, .F. ) ;
#102 = VERTEX_POINT ( 'NONE', #74 ) ;
#103 = DIRECTION ( 'NONE',  ( -1.224646799147353454E-16, -0.0000000000000000000, -1.000000000000000000 ) ) ;
#104 =( NAMED_UNIT ( * ) PLANE_ANGLE_UNIT ( ) SI_UNIT ( $, .RADIAN. ) );
#105 = DIRECTION ( 'NONE',  ( 1.000000000000000000, 0.0000000000000000000, 0.0000000000000000000 ) ) ;
#106 = APPLICATION_CONTEXT ( 'automotive_design' ) ;
#107 = ORIENTED_EDGE ( 'NONE', *, *, #265, .T. ) ;
#108 =( NAMED_UNIT ( * ) PLANE_ANGLE_UNIT ( ) SI_UNIT ( $, .RADIAN. ) );
#109 = ADVANCED_FACE ( 'NONE', ( #293 ), #93, .F. ) ;
#110 = CARTESIAN_POINT ( 'NONE',  ( 0.0000000000000000000, 0.0000000000000000000, 0.0000000000000000000 ) ) ;
#111 =( NAMED_UNIT ( * ) SI_UNIT ( $, .STERADIAN. ) SOLID_ANGLE_UNIT ( ) );
#112 = CARTESIAN_POINT ( 'NONE',  ( 4.925510904454838295E-17, 0.0000000000000000000, 0.4021984875871287279 ) ) ;
#113 = ORIENTED_EDGE ( 'NONE', *, *, #91, .T. ) ;
#114 = CARTESIAN_POINT ( 'NONE',  ( 0.0000000000000000000, 0.0000000000000000000, 1.500000000000000222 ) ) ;
#115 = ADVANCED_FACE ( 'NONE', ( #52 ), #38, .T. ) ;
#116 = PRODUCT_CONTEXT ( 'NONE', #106, 'mechanical' ) ;
#117 = CARTESIAN_POINT ( 'NONE',  ( 3.833144481331216295E-17, 0.0000000000000000000, 0.3130000000000000004 ) ) ;
#118 = DIRECTION ( 'NONE',  ( -1.000000000000000000, 0.0000000000000000000, 0.0000000000000000000 ) ) ;
#119 = AXIS2_PLACEMENT_3D ( 'NONE', #112, #120, #287 ) ;
#120 = DIRECTION ( 'NONE',  ( -1.224646799147353454E-16, -0.0000000000000000000, -1.000000000000000000 ) ) ;
#121 = VECTOR ( 'NONE', #206, 39.37007874015747433 ) ;
#122 = SURFACE_STYLE_FILL_AREA ( #145 ) ;
#123 = ORIENTED_EDGE ( 'NONE', *, *, #262, .F. ) ;
#124 = CIRCLE ( 'NONE', #247, 0.09375000000000001388 ) ;
#125 = ORIENTED_EDGE ( 'NONE', *, *, #272, .T. ) ;
#126 = ORIENTED_EDGE ( 'NONE', *, *, #277, .T. ) ;
#127 = DIRECTION ( 'NONE',  ( 0.0000000000000000000, 0.0000000000000000000, 1.000000000000000000 ) ) ;
#128 = ORIENTED_EDGE ( 'NONE', *, *, #253, .F. ) ;
#129 =( CONVERSION_BASED_UNIT ( 'INCH', #1 ) LENGTH_UNIT ( ) NAMED_UNIT ( #298 ) );
#130 = DIRECTION ( 'NONE',  ( -1.224646799147353454E-16, -0.0000000000000000000, -1.000000000000000000 ) ) ;
#131 = FACE_OUTER_BOUND ( 'NONE', #26, .T. ) ;
#132 =( GEOMETRIC_REPRESENTATION_CONTEXT ( 3 ) GLOBAL_UNCERTAINTY_ASSIGNED_CONTEXT ( ( #178 ) ) GLOBAL_UNIT_ASSIGNED_CONTEXT ( ( #25, #108, #152 ) ) REPRESENTATION_CONTEXT ( 'NONE', 'WORKASPACE' ) );
#133 = DIRECTION ( 'NONE',  ( -1.224646799147353454E-16, -0.0000000000000000000, -1.000000000000000000 ) ) ;
#134 = DIRECTION ( 'NONE',  ( -1.000000000000000000, 0.0000000000000000000, 1.224646799147353700E-16 ) ) ;
#135 = CARTESIAN_POINT ( 'NONE',  ( 4.925510904454838295E-17, 0.0000000000000000000, 0.4021984875871287279 ) ) ;
#136 = EDGE_CURVE ( 'NONE', #14, #60, #36, .T. ) ;
#137 = VERTEX_POINT ( 'NONE', #161 ) ;
#138 = AXIS2_PLACEMENT_3D ( 'NONE', #114, #11, #235 ) ;
#139 = FACE_OUTER_BOUND ( 'NONE', #58, .T. ) ;
#140 = CARTESIAN_POINT ( 'NONE',  ( -0.09374999999999995837, 0.0000000000000000000, 0.4021984875871287279 ) ) ;
#141 = CARTESIAN_POINT ( 'NONE',  ( 3.833144481331216295E-17, 0.0000000000000000000, 0.3130000000000000004 ) ) ;
#142 = LENGTH_MEASURE_WITH_UNIT ( LENGTH_MEASURE( 0.02539999999999999897 ), #32 );
#143 = DIRECTION ( 'NONE',  ( -1.224646799147353454E-16, -0.0000000000000000000, -1.000000000000000000 ) ) ;
#144 = PRESENTATION_LAYER_ASSIGNMENT (  '', '', ( #2 ) ) ;
#145 = FILL_AREA_STYLE ('',( #295 ) ) ;
#146 = ORIENTED_EDGE ( 'NONE', *, *, #136, .F. ) ;
#147 = EDGE_CURVE ( 'NONE', #263, #190, #165, .T. ) ;
#148 = DIRECTION ( 'NONE',  ( 0.0000000000000000000, 0.0000000000000000000, 1.000000000000000000 ) ) ;
#149 = DIRECTION ( 'NONE',  ( -0.0000000000000000000, -0.0000000000000000000, -1.000000000000000000 ) ) ;
#150 = AXIS2_PLACEMENT_3D ( 'NONE', #82, #130, #225 ) ;
#151 = EDGE_CURVE ( 'NONE', #60, #190, #227, .T. ) ;
#152 =( NAMED_UNIT ( * ) SI_UNIT ( $, .STERADIAN. ) SOLID_ANGLE_UNIT ( ) );
#153 = AXIS2_PLACEMENT_3D ( 'NONE', #172, #127, #64 ) ;
#154 = CARTESIAN_POINT ( 'NONE',  ( 0.0000000000000000000, 0.0000000000000000000, 0.0000000000000000000 ) ) ;
#155 = CARTESIAN_POINT ( 'NONE',  ( 0.0000000000000000000, 0.0000000000000000000, 0.0000000000000000000 ) ) ;
#156 = DIRECTION ( 'NONE',  ( -1.000000000000000000, 0.0000000000000000000, 1.224646799147353700E-16 ) ) ;
#157 = PRODUCT_RELATED_PRODUCT_CATEGORY ( 'part', '', ( #159 ) ) ;
#158 = FACE_OUTER_BOUND ( 'NONE', #23, .T. ) ;
#159 = PRODUCT ( 'Micro_SEM-156-04', 'Micro_SEM-156-04', '', ( #116 ) ) ;
#160 = AXIS2_PLACEMENT_3D ( 'NONE', #135, #53, #92 ) ;
#161 = CARTESIAN_POINT ( 'NONE',  ( 0.07875000000000061118, 1.056257864264595965E-17, 1.500000000000000222 ) ) ;
#162 = MECHANICAL_DESIGN_GEOMETRIC_PRESENTATION_REPRESENTATION (  '', ( #20 ), #42 ) ;
#163 = CARTESIAN_POINT ( 'NONE',  ( 0.07802190000000004677, 0.0000000000000000000, 0.3130000000000000004 ) ) ;
#164 = DIRECTION ( 'NONE',  ( 0.7071067811865531239, 8.659560562355003116E-17, -0.7071067811865419106 ) ) ;
#165 = LINE ( 'NONE', #217, #183 ) ;
#166 = AXIS2_PLACEMENT_3D ( 'NONE', #155, #261, #134 ) ;
#167 = VECTOR ( 'NONE', #228, 39.37007874015748143 ) ;
#168 = CIRCLE ( 'NONE', #119, 0.09375000000000001388 ) ;
#169 = VECTOR ( 'NONE', #284, 39.37007874015748143 ) ;
#170 = EDGE_LOOP ( 'NONE', ( #254, #113, #194, #88 ) ) ;
#171 = ORIENTED_EDGE ( 'NONE', *, *, #219, .T. ) ;
#172 = CARTESIAN_POINT ( 'NONE',  ( 0.0000000000000000000, 0.0000000000000000000, 1.500000000000000222 ) ) ;
#173 = CIRCLE ( 'NONE', #294, 0.07802190000000000514 ) ;
#174 = PLANE ( 'NONE',  #153 ) ;
#175 = CARTESIAN_POINT ( 'NONE',  ( 0.0000000000000000000, 0.0000000000000000000, 1.500000000000000222 ) ) ;
#176 = PRODUCT_DEFINITION ( 'UNKNOWN', '', #24, #66 ) ;
#177 = LINE ( 'NONE', #280, #121 ) ;
#178 = UNCERTAINTY_MEASURE_WITH_UNIT (LENGTH_MEASURE( 1.000000000000000082E-05 ), #25, 'distance_accuracy_value', 'NONE');
#179 = FACE_OUTER_BOUND ( 'NONE', #299, .T. ) ;
#180 = CONICAL_SURFACE ( 'NONE', #243, 0.07875000000000061118, 0.7853981633974562726 ) ;
#181 = DIRECTION ( 'NONE',  ( 1.000000000000000000, 0.0000000000000000000, 0.0000000000000000000 ) ) ;
#182 = PRODUCT_DEFINITION_SHAPE ( 'NONE', 'NONE',  #176 ) ;
#183 = VECTOR ( 'NONE', #31, 39.37007874015748143 ) ;
#184 = FACE_OUTER_BOUND ( 'NONE', #222, .T. ) ;
#185 = CIRCLE ( 'NONE', #266, 0.07802190000000000514 ) ;
#186 = CARTESIAN_POINT ( 'NONE',  ( 0.09375000000000001388, 1.148106374200643401E-17, 1.500000000000000222 ) ) ;
#187 = ADVANCED_FACE ( 'NONE', ( #184 ), #95, .T. ) ;
#188 = AXIS2_PLACEMENT_3D ( 'NONE', #47, #149, #201 ) ;
#189 = CARTESIAN_POINT ( 'NONE',  ( 0.0000000000000000000, 0.0000000000000000000, 1.500000000000000222 ) ) ;
#190 = VERTEX_POINT ( 'NONE', #140 ) ;
#191 = ORIENTED_EDGE ( 'NONE', *, *, #16, .F. ) ;
#192 = VECTOR ( 'NONE', #164, 39.37007874015748143 ) ;
#193 = AXIS2_PLACEMENT_3D ( 'NONE', #246, #274, #105 ) ;
#194 = ORIENTED_EDGE ( 'NONE', *, *, #12, .T. ) ;
#195 = ADVANCED_FACE ( 'NONE', ( #267 ), #180, .T. ) ;
#196 = ORIENTED_EDGE ( 'NONE', *, *, #219, .F. ) ;
#197 = ORIENTED_EDGE ( 'NONE', *, *, #240, .T. ) ;
#198 = ORIENTED_EDGE ( 'NONE', *, *, #86, .F. ) ;
#199 =( LENGTH_UNIT ( ) NAMED_UNIT ( * ) SI_UNIT ( $, .METRE. ) );
#200 = UNCERTAINTY_MEASURE_WITH_UNIT (LENGTH_MEASURE( 1.000000000000000082E-05 ), #271, 'distance_accuracy_value', 'NONE');
#201 = DIRECTION ( 'NONE',  ( -1.000000000000000000, 0.0000000000000000000, 0.0000000000000000000 ) ) ;
#202 = CARTESIAN_POINT ( 'NONE',  ( -0.09375000000000001388, 0.0000000000000000000, 1.485000000000000986 ) ) ;
#203 = SURFACE_STYLE_USAGE ( .BOTH. , #250 ) ;
#204 = CARTESIAN_POINT ( 'NONE',  ( 0.09375000000000001388, 1.148106374200643401E-17, 1.485000000000000986 ) ) ;
#205 = DIMENSIONAL_EXPONENTS ( 1.000000000000000000, 0.0000000000000000000, 0.0000000000000000000, 0.0000000000000000000, 0.0000000000000000000, 0.0000000000000000000, 0.0000000000000000000 ) ;
#206 = DIRECTION ( 'NONE',  ( -0.1736481776669312194, 2.126576849575783625E-17, 0.9848077530122080203 ) ) ;
#207 = CONICAL_SURFACE ( 'NONE', #41, 0.07802190000000000514, 0.1745329251994339192 ) ;
#208 = LINE ( 'NONE', #73, #192 ) ;
#209 = ORIENTED_EDGE ( 'NONE', *, *, #33, .T. ) ;
#210 =( NAMED_UNIT ( * ) PLANE_ANGLE_UNIT ( ) SI_UNIT ( $, .RADIAN. ) );
#211 = CARTESIAN_POINT ( 'NONE',  ( 0.07802190000000004677, 0.0000000000000000000, 0.3130000000000000004 ) ) ;
#212 = DIRECTION ( 'NONE',  ( -1.000000000000000000, 0.0000000000000000000, 0.0000000000000000000 ) ) ;
#213 = ADVANCED_FACE ( 'NONE', ( #139 ), #71, .T. ) ;
#214 = EDGE_CURVE ( 'NONE', #137, #14, #208, .T. ) ;
#215 = PRESENTATION_LAYER_ASSIGNMENT (  '', '', ( #20 ) ) ;
#216 = DIRECTION ( 'NONE',  ( 1.000000000000000000, 0.0000000000000000000, -0.0000000000000000000 ) ) ;
#217 = CARTESIAN_POINT ( 'NONE',  ( -0.09375000000000001388, 0.0000000000000000000, 1.500000000000000222 ) ) ;
#218 = VECTOR ( 'NONE', #54, 39.37007874015748143 ) ;
#219 = EDGE_CURVE ( 'NONE', #97, #60, #9, .T. ) ;
#220 = ORIENTED_EDGE ( 'NONE', *, *, #7, .T. ) ;
#221 = AXIS2_PLACEMENT_3D ( 'NONE', #154, #230, #226 ) ;
#222 = EDGE_LOOP ( 'NONE', ( #39, #229, #198, #128 ) ) ;
#223 =( LENGTH_UNIT ( ) NAMED_UNIT ( * ) SI_UNIT ( $, .METRE. ) );
#224 = SURFACE_STYLE_FILL_AREA ( #44 ) ;
#225 = DIRECTION ( 'NONE',  ( -1.000000000000000000, 0.0000000000000000000, 1.224646799147353700E-16 ) ) ;
#226 = DIRECTION ( 'NONE',  ( 1.000000000000000000, 0.0000000000000000000, 0.0000000000000000000 ) ) ;
#227 = CIRCLE ( 'NONE', #160, 0.09375000000000001388 ) ;
#228 = DIRECTION ( 'NONE',  ( -1.224646799147353454E-16, -0.0000000000000000000, -1.000000000000000000 ) ) ;
#229 = ORIENTED_EDGE ( 'NONE', *, *, #214, .T. ) ;
#230 = DIRECTION ( 'NONE',  ( 0.0000000000000000000, 0.0000000000000000000, 1.000000000000000000 ) ) ;
#231 = DIMENSIONAL_EXPONENTS ( 1.000000000000000000, 0.0000000000000000000, 0.0000000000000000000, 0.0000000000000000000, 0.0000000000000000000, 0.0000000000000000000, 0.0000000000000000000 ) ;
#232 = ORIENTED_EDGE ( 'NONE', *, *, #80, .T. ) ;
#233 = FACE_OUTER_BOUND ( 'NONE', #170, .T. ) ;
#234 = ORIENTED_EDGE ( 'NONE', *, *, #86, .T. ) ;
#235 = DIRECTION ( 'NONE',  ( -1.000000000000000000, 0.0000000000000000000, 0.0000000000000000000 ) ) ;
#236 = ORIENTED_EDGE ( 'NONE', *, *, #151, .T. ) ;
#237 = DIRECTION ( 'NONE',  ( -1.224646799147353454E-16, -0.0000000000000000000, -1.000000000000000000 ) ) ;
#238 = APPLICATION_PROTOCOL_DEFINITION ( 'draft international standard', 'automotive_design', 1998, #106 ) ;
#239 = CARTESIAN_POINT ( 'NONE',  ( -0.07802190000000000514, 0.0000000000000000000, 1.910985401967898387E-17 ) ) ;
#240 = EDGE_CURVE ( 'NONE', #43, #97, #98, .T. ) ;
#241 = DIRECTION ( 'NONE',  ( -1.224646799147353454E-16, -0.0000000000000000000, -1.000000000000000000 ) ) ;
#242 = SURFACE_SIDE_STYLE ('',( #122 ) ) ;
#243 = AXIS2_PLACEMENT_3D ( 'NONE', #94, #289, #212 ) ;
#244 = DIRECTION ( 'NONE',  ( -1.000000000000000000, 0.0000000000000000000, 0.0000000000000000000 ) ) ;
#245 = ORIENTED_EDGE ( 'NONE', *, *, #33, .F. ) ;
#246 = CARTESIAN_POINT ( 'NONE',  ( 0.0000000000000000000, 0.0000000000000000000, 1.485000000000000986 ) ) ;
#247 = AXIS2_PLACEMENT_3D ( 'NONE', #268, #288, #30 ) ;
#248 = ORIENTED_EDGE ( 'NONE', *, *, #240, .F. ) ;
#249 = MANIFOLD_SOLID_BREP ( 'Cut-Revolve1', #10 ) ;
#250 = SURFACE_SIDE_STYLE ('',( #224 ) ) ;
#251 = AXIS2_PLACEMENT_3D ( 'NONE', #175, #85, #279 ) ;
#252 = CIRCLE ( 'NONE', #193, 0.09375000000000001388 ) ;
#253 = EDGE_CURVE ( 'NONE', #102, #263, #72, .T. ) ;
#254 = ORIENTED_EDGE ( 'NONE', *, *, #7, .F. ) ;
#255 = EDGE_LOOP ( 'NONE', ( #57, #107 ) ) ;
#256 = FILL_AREA_STYLE_COLOUR ( '', #87 ) ;
#257 = CARTESIAN_POINT ( 'NONE',  ( -0.07802189999999997738, 1.051799537592296220E-17, 0.3130000000000000004 ) ) ;
#258 = UNCERTAINTY_MEASURE_WITH_UNIT (LENGTH_MEASURE( 1.000000000000000082E-05 ), #129, 'distance_accuracy_value', 'NONE');
#259 = CARTESIAN_POINT ( 'NONE',  ( 1.170141077868652707E-33, 0.0000000000000000000, 9.554927009839491933E-18 ) ) ;
#260 = FACE_OUTER_BOUND ( 'NONE', #40, .T. ) ;
#261 = DIRECTION ( 'NONE',  ( -1.224646799147353454E-16, -0.0000000000000000000, -1.000000000000000000 ) ) ;
#262 = EDGE_CURVE ( 'NONE', #14, #263, #252, .T. ) ;
#263 = VERTEX_POINT ( 'NONE', #202 ) ;
#264 = DIRECTION ( 'NONE',  ( 0.0000000000000000000, 0.0000000000000000000, 1.000000000000000000 ) ) ;
#265 = EDGE_CURVE ( 'NONE', #17, #96, #185, .T. ) ;
#266 = AXIS2_PLACEMENT_3D ( 'NONE', #259, #133, #156 ) ;
#267 = FACE_OUTER_BOUND ( 'NONE', #22, .T. ) ;
#268 = CARTESIAN_POINT ( 'NONE',  ( 0.0000000000000000000, 0.0000000000000000000, 1.485000000000000986 ) ) ;
#269 = CARTESIAN_POINT ( 'NONE',  ( 3.833144481331216295E-17, 0.0000000000000000000, 0.3130000000000000004 ) ) ;
#270 = CYLINDRICAL_SURFACE ( 'NONE', #188, 0.09375000000000001388 ) ;
#271 =( CONVERSION_BASED_UNIT ( 'INCH', #142 ) LENGTH_UNIT ( ) NAMED_UNIT ( #205 ) );
#272 = EDGE_CURVE ( 'NONE', #137, #102, #3, .T. ) ;
#273 = AXIS2_PLACEMENT_3D ( 'NONE', #189, #148, #291 ) ;
#274 = DIRECTION ( 'NONE',  ( 0.0000000000000000000, 0.0000000000000000000, -1.000000000000000000 ) ) ;
#275 = ORIENTED_EDGE ( 'NONE', *, *, #151, .F. ) ;
#276 = ORIENTED_EDGE ( 'NONE', *, *, #147, .T. ) ;
#277 = EDGE_CURVE ( 'NONE', #43, #190, #177, .T. ) ;
#278 = CARTESIAN_POINT ( 'NONE',  ( -0.07802190000000000514, 0.0000000000000000000, 9.554927009839491933E-18 ) ) ;
#279 = DIRECTION ( 'NONE',  ( 1.000000000000000000, 0.0000000000000000000, 0.0000000000000000000 ) ) ;
#280 = CARTESIAN_POINT ( 'NONE',  ( -0.07802189999999997738, 9.554927009839488851E-18, 0.3130000000000000004 ) ) ;
#281 = ADVANCED_FACE ( 'NONE', ( #131 ), #270, .T. ) ;
#282 = CYLINDRICAL_SURFACE ( 'NONE', #166, 0.07802190000000000514 ) ;
#283 = AXIS2_PLACEMENT_3D ( 'NONE', #90, #264, #216 ) ;
#284 = DIRECTION ( 'NONE',  ( -0.7071067811865531239, 0.0000000000000000000, -0.7071067811865419106 ) ) ;
#285 = CARTESIAN_POINT ( 'NONE',  ( 0.07802190000000000514, 9.554927009839488851E-18, 0.0000000000000000000 ) ) ;
#286 = CARTESIAN_POINT ( 'NONE',  ( -0.07875000000000061118, 0.0000000000000000000, 1.500000000000000222 ) ) ;
#287 = DIRECTION ( 'NONE',  ( 1.000000000000000000, 0.0000000000000000000, 0.0000000000000000000 ) ) ;
#288 = DIRECTION ( 'NONE',  ( 0.0000000000000000000, 0.0000000000000000000, -1.000000000000000000 ) ) ;
#289 = DIRECTION ( 'NONE',  ( 0.0000000000000000000, 0.0000000000000000000, -1.000000000000000000 ) ) ;
#290 = SHAPE_DEFINITION_REPRESENTATION ( #182, #100 ) ;
#291 = DIRECTION ( 'NONE',  ( 1.000000000000000000, 0.0000000000000000000, 0.0000000000000000000 ) ) ;
#292 = DIRECTION ( 'NONE',  ( -1.000000000000000000, 0.0000000000000000000, 0.0000000000000000000 ) ) ;
#293 = FACE_OUTER_BOUND ( 'NONE', #255, .T. ) ;
#294 = AXIS2_PLACEMENT_3D ( 'NONE', #117, #143, #244 ) ;
#295 = FILL_AREA_STYLE_COLOUR ( '', #56 ) ;
#296 = LINE ( 'NONE', #278, #5 ) ;
#297 = ADVANCED_FACE ( 'NONE', ( #260 ), #174, .T. ) ;
#298 = DIMENSIONAL_EXPONENTS ( 1.000000000000000000, 0.0000000000000000000, 0.0000000000000000000, 0.0000000000000000000, 0.0000000000000000000, 0.0000000000000000000, 0.0000000000000000000 ) ;
#299 = EDGE_LOOP ( 'NONE', ( #197, #220, #191, #49 ) ) ;
ENDSEC;
END-ISO-10303-21;
