ISO-10303-21;
HEADER;
FILE_DESCRIPTION (( 'STEP AP214' ),
    '1' );
FILE_NAME ('23340.STEP',
    '2023-06-22T16:50:06',
    ( '' ),
    ( '' ),
    'SwSTEP 2.0',
    'SolidWorks 2023',
    '' );
FILE_SCHEMA (( 'AUTOMOTIVE_DESIGN' ));
ENDSEC;

DATA;
#1 = UNCERTAINTY_MEASURE_WITH_UNIT (LENGTH_MEASURE( 1.000000000000000082E-05 ), #71, 'distance_accuracy_value', 'NONE');
#2 = DIRECTION ( 'NONE',  ( -0.000000000000000000, -1.000000000000000000, -0.000000000000000000 ) ) ;
#3 = CIRCLE ( 'NONE', #212, 0.5000000000000000000 ) ;
#4 = ORIENTED_EDGE ( 'NONE', *, *, #197, .F. ) ;
#5 = CARTESIAN_POINT ( 'NONE',  ( 0.000000000000000000, 0.000000000000000000, 0.000000000000000000 ) ) ;
#6 = ORIENTED_EDGE ( 'NONE', *, *, #149, .F. ) ;
#7 = EDGE_LOOP ( 'NONE', ( #30, #174, #10, #129 ) ) ;
#8 = ORIENTED_EDGE ( 'NONE', *, *, #246, .F. ) ;
#9 =( GEOMETRIC_REPRESENTATION_CONTEXT ( 3 ) GLOBAL_UNCERTAINTY_ASSIGNED_CONTEXT ( ( #118 ) ) GLOBAL_UNIT_ASSIGNED_CONTEXT ( ( #184, #115, #238 ) ) REPRESENTATION_CONTEXT ( 'NONE', 'WORKASPACE' ) );
#10 = ORIENTED_EDGE ( 'NONE', *, *, #135, .T. ) ;
#11 =( CONVERSION_BASED_UNIT ( 'INCH', #234 ) LENGTH_UNIT ( ) NAMED_UNIT ( #216 ) );
#12 = PRESENTATION_LAYER_ASSIGNMENT (  '', '', ( #210 ) ) ;
#13 = ADVANCED_FACE ( 'NONE', ( #103 ), #171, .T. ) ;
#14 = FILL_AREA_STYLE ('',( #64 ) ) ;
#15 = CIRCLE ( 'NONE', #145, 0.5000000000000000000 ) ;
#16 = CARTESIAN_POINT ( 'NONE',  ( -6.123233995736772199E-17, 4.500000000000000000, 0.000000000000000000 ) ) ;
#17 = DIRECTION ( 'NONE',  ( -1.000000000000000000, 0.000000000000000000, 0.000000000000000000 ) ) ;
#18 = SURFACE_SIDE_STYLE ('',( #66 ) ) ;
#19 = MANIFOLD_SOLID_BREP ( 'Revolve - Tool Body (Straight Shanked)', #94 ) ;
#20 = DIRECTION ( 'NONE',  ( -2.449293598294708695E-17, 1.000000000000000000, -0.000000000000000000 ) ) ;
#21 = CIRCLE ( 'NONE', #194, 0.5000000000000001110 ) ;
#22 = MANIFOLD_SOLID_BREP ( 'Revolve - Cutting Edge', #67 ) ;
#23 = AXIS2_PLACEMENT_3D ( 'NONE', #38, #116, #137 ) ;
#24 = PLANE ( 'NONE',  #263 ) ;
#25 = DIRECTION ( 'NONE',  ( -2.449293598294708695E-17, 1.000000000000000000, -0.000000000000000000 ) ) ;
#26 = AXIS2_PLACEMENT_3D ( 'NONE', #63, #256, #305 ) ;
#27 = FACE_OUTER_BOUND ( 'NONE', #198, .T. ) ;
#28 = DIRECTION ( 'NONE',  ( -2.449293598294709003E-17, 1.000000000000000000, 0.000000000000000000 ) ) ;
#29 = VECTOR ( 'NONE', #132, 39.37007874015748143 ) ;
#30 = ORIENTED_EDGE ( 'NONE', *, *, #155, .F. ) ;
#31 = DIMENSIONAL_EXPONENTS ( 1.000000000000000000, 0.000000000000000000, 0.000000000000000000, 0.000000000000000000, 0.000000000000000000, 0.000000000000000000, 0.000000000000000000 ) ;
#32 = EDGE_CURVE ( 'NONE', #223, #143, #186, .T. ) ;
#33 = ORIENTED_EDGE ( 'NONE', *, *, #135, .F. ) ;
#34 = ORIENTED_EDGE ( 'NONE', *, *, #257, .F. ) ;
#35 = AXIS2_PLACEMENT_3D ( 'NONE', #110, #297, #201 ) ;
#36 = PRODUCT ( '23340', '23340', '', ( #159 ) ) ;
#37 =( LENGTH_UNIT ( ) NAMED_UNIT ( * ) SI_UNIT ( $, .METRE. ) );
#38 = CARTESIAN_POINT ( 'NONE',  ( 0.000000000000000000, 0.000000000000000000, 0.000000000000000000 ) ) ;
#39 = STYLED_ITEM ( 'NONE', ( #264 ), #22 ) ;
#40 = DIRECTION ( 'NONE',  ( 0.000000000000000000, 0.000000000000000000, -1.000000000000000000 ) ) ;
#41 = CYLINDRICAL_SURFACE ( 'NONE', #307, 0.5000000000000000000 ) ;
#42 = EDGE_CURVE ( 'NONE', #104, #54, #21, .T. ) ;
#43 =( LENGTH_UNIT ( ) NAMED_UNIT ( * ) SI_UNIT ( $, .METRE. ) );
#44 = FACE_OUTER_BOUND ( 'NONE', #7, .T. ) ;
#45 = AXIS2_PLACEMENT_3D ( 'NONE', #273, #243, #195 ) ;
#46 = DIRECTION ( 'NONE',  ( -2.449293598294709003E-17, 1.000000000000000000, -0.000000000000000000 ) ) ;
#47 = ADVANCED_FACE ( 'NONE', ( #308 ), #301, .T. ) ;
#48 =( NAMED_UNIT ( * ) PLANE_ANGLE_UNIT ( ) SI_UNIT ( $, .RADIAN. ) );
#49 = CIRCLE ( 'NONE', #124, 0.5000000000000000000 ) ;
#50 = CARTESIAN_POINT ( 'NONE',  ( 0.000000000000000000, 2.000000000000000000, 0.000000000000000000 ) ) ;
#51 = CARTESIAN_POINT ( 'NONE',  ( -0.5000000000000001110, 4.500000000000000000, 0.000000000000000000 ) ) ;
#52 = ORIENTED_EDGE ( 'NONE', *, *, #149, .T. ) ;
#53 = APPLICATION_CONTEXT ( 'automotive_design' ) ;
#54 = VERTEX_POINT ( 'NONE', #51 ) ;
#55 = AXIS2_PLACEMENT_3D ( 'NONE', #213, #233, #176 ) ;
#56 = DIRECTION ( 'NONE',  ( -1.000000000000000000, 0.000000000000000000, 0.000000000000000000 ) ) ;
#57 = DIMENSIONAL_EXPONENTS ( 1.000000000000000000, 0.000000000000000000, 0.000000000000000000, 0.000000000000000000, 0.000000000000000000, 0.000000000000000000, 0.000000000000000000 ) ;
#58 = EDGE_LOOP ( 'NONE', ( #127, #151 ) ) ;
#59 = FILL_AREA_STYLE ('',( #228 ) ) ;
#60 = ORIENTED_EDGE ( 'NONE', *, *, #270, .F. ) ;
#61 = ORIENTED_EDGE ( 'NONE', *, *, #32, .F. ) ;
#62 =( CONVERSION_BASED_UNIT ( 'INCH', #85 ) LENGTH_UNIT ( ) NAMED_UNIT ( #81 ) );
#63 = CARTESIAN_POINT ( 'NONE',  ( 0.000000000000000000, 0.000000000000000000, 0.000000000000000000 ) ) ;
#64 = FILL_AREA_STYLE_COLOUR ( '', #276 ) ;
#65 =( NAMED_UNIT ( * ) PLANE_ANGLE_UNIT ( ) SI_UNIT ( $, .RADIAN. ) );
#66 = SURFACE_STYLE_FILL_AREA ( #206 ) ;
#67 = CLOSED_SHELL ( 'NONE', ( #95, #241, #47, #79 ) ) ;
#68 = CARTESIAN_POINT ( 'NONE',  ( -6.123233995736772199E-17, 4.500000000000000000, 0.000000000000000000 ) ) ;
#69 = PRESENTATION_STYLE_ASSIGNMENT (( #153 ) ) ;
#70 = SURFACE_STYLE_USAGE ( .BOTH. , #18 ) ;
#71 =( CONVERSION_BASED_UNIT ( 'INCH', #269 ) LENGTH_UNIT ( ) NAMED_UNIT ( #57 ) );
#72 = CYLINDRICAL_SURFACE ( 'NONE', #277, 0.5000000000000000000 ) ;
#73 = SURFACE_STYLE_FILL_AREA ( #284 ) ;
#74 = SHAPE_DEFINITION_REPRESENTATION ( #187, #217 ) ;
#75 = UNCERTAINTY_MEASURE_WITH_UNIT (LENGTH_MEASURE( 1.000000000000000082E-05 ), #11, 'distance_accuracy_value', 'NONE');
#76 = STYLED_ITEM ( 'NONE', ( #178 ), #241 ) ;
#77 = SURFACE_STYLE_USAGE ( .BOTH. , #242 ) ;
#78 = CARTESIAN_POINT ( 'NONE',  ( -0.5000000000000000000, 2.000000000000000000, 0.000000000000000000 ) ) ;
#79 = ADVANCED_FACE ( 'NONE', ( #80 ), #144, .T. ) ;
#80 = FACE_OUTER_BOUND ( 'NONE', #252, .T. ) ;
#81 = DIMENSIONAL_EXPONENTS ( 1.000000000000000000, 0.000000000000000000, 0.000000000000000000, 0.000000000000000000, 0.000000000000000000, 0.000000000000000000, 0.000000000000000000 ) ;
#82 = COLOUR_RGB ( '',1.000000000000000000, 0.000000000000000000, 0.000000000000000000 ) ;
#83 = ORIENTED_EDGE ( 'NONE', *, *, #140, .F. ) ;
#84 =( NAMED_UNIT ( * ) PLANE_ANGLE_UNIT ( ) SI_UNIT ( $, .RADIAN. ) );
#85 = LENGTH_MEASURE_WITH_UNIT ( LENGTH_MEASURE( 0.02539999999999999897 ), #37 );
#86 =( GEOMETRIC_REPRESENTATION_CONTEXT ( 3 ) GLOBAL_UNCERTAINTY_ASSIGNED_CONTEXT ( ( #271 ) ) GLOBAL_UNIT_ASSIGNED_CONTEXT ( ( #289, #193, #207 ) ) REPRESENTATION_CONTEXT ( 'NONE', 'WORKASPACE' ) );
#87 = FILL_AREA_STYLE_COLOUR ( '', #199 ) ;
#88 = FILL_AREA_STYLE_COLOUR ( '', #142 ) ;
#89 = SURFACE_STYLE_USAGE ( .BOTH. , #177 ) ;
#90 = MECHANICAL_DESIGN_GEOMETRIC_PRESENTATION_REPRESENTATION (  '', ( #76 ), #180 ) ;
#91 = DIRECTION ( 'NONE',  ( 1.000000000000000000, 2.449293598294709003E-17, 0.000000000000000000 ) ) ;
#92 = DIRECTION ( 'NONE',  ( 0.000000000000000000, 0.000000000000000000, -1.000000000000000000 ) ) ;
#93 = SURFACE_SIDE_STYLE ('',( #73 ) ) ;
#94 = CLOSED_SHELL ( 'NONE', ( #13, #166, #208, #120 ) ) ;
#95 = ADVANCED_FACE ( 'NONE', ( #303 ), #41, .T. ) ;
#96 = CARTESIAN_POINT ( 'NONE',  ( 0.5000000000000000000, 2.000000000000000000, 6.123233995736766036E-17 ) ) ;
#97 = DIRECTION ( 'NONE',  ( 0.000000000000000000, 0.000000000000000000, -1.000000000000000000 ) ) ;
#98 = COLOUR_RGB ( '',0.7921568627450980005, 0.8196078431372548767, 0.9333333333333333481 ) ;
#99 = VECTOR ( 'NONE', #232, 39.37007874015748143 ) ;
#100 = ORIENTED_EDGE ( 'NONE', *, *, #285, .T. ) ;
#101 = DIRECTION ( 'NONE',  ( -2.449293598294708695E-17, 1.000000000000000000, -0.000000000000000000 ) ) ;
#102 = DIRECTION ( 'NONE',  ( -0.000000000000000000, -1.000000000000000000, -0.000000000000000000 ) ) ;
#103 = FACE_OUTER_BOUND ( 'NONE', #245, .T. ) ;
#104 = VERTEX_POINT ( 'NONE', #113 ) ;
#105 = PRESENTATION_LAYER_ASSIGNMENT (  '', '', ( #164 ) ) ;
#106 = ORIENTED_EDGE ( 'NONE', *, *, #257, .T. ) ;
#107 = SURFACE_STYLE_FILL_AREA ( #261 ) ;
#108 =( NAMED_UNIT ( * ) SI_UNIT ( $, .STERADIAN. ) SOLID_ANGLE_UNIT ( ) );
#109 = CARTESIAN_POINT ( 'NONE',  ( 0.000000000000000000, 0.000000000000000000, 0.000000000000000000 ) ) ;
#110 = CARTESIAN_POINT ( 'NONE',  ( 0.000000000000000000, 0.000000000000000000, 0.000000000000000000 ) ) ;
#111 = CARTESIAN_POINT ( 'NONE',  ( 6.123233995736766036E-17, 0.000000000000000000, 0.5000000000000000000 ) ) ;
#112 = PLANE ( 'NONE',  #55 ) ;
#113 = CARTESIAN_POINT ( 'NONE',  ( 0.5000000000000000000, 4.500000000000000000, 6.123233995736766036E-17 ) ) ;
#114 = UNCERTAINTY_MEASURE_WITH_UNIT (LENGTH_MEASURE( 1.000000000000000082E-05 ), #283, 'distance_accuracy_value', 'NONE');
#115 =( NAMED_UNIT ( * ) PLANE_ANGLE_UNIT ( ) SI_UNIT ( $, .RADIAN. ) );
#116 = DIRECTION ( 'NONE',  ( 0.000000000000000000, 0.000000000000000000, 1.000000000000000000 ) ) ;
#117 =( GEOMETRIC_REPRESENTATION_CONTEXT ( 3 ) GLOBAL_UNCERTAINTY_ASSIGNED_CONTEXT ( ( #114 ) ) GLOBAL_UNIT_ASSIGNED_CONTEXT ( ( #283, #183, #108 ) ) REPRESENTATION_CONTEXT ( 'NONE', 'WORKASPACE' ) );
#118 = UNCERTAINTY_MEASURE_WITH_UNIT (LENGTH_MEASURE( 1.000000000000000082E-05 ), #184, 'distance_accuracy_value', 'NONE');
#119 = STYLED_ITEM ( 'NONE', ( #69 ), #79 ) ;
#120 = ADVANCED_FACE ( 'NONE', ( #211 ), #24, .F. ) ;
#121 = CARTESIAN_POINT ( 'NONE',  ( 0.000000000000000000, 0.000000000000000000, 0.000000000000000000 ) ) ;
#122 = DIMENSIONAL_EXPONENTS ( 1.000000000000000000, 0.000000000000000000, 0.000000000000000000, 0.000000000000000000, 0.000000000000000000, 0.000000000000000000, 0.000000000000000000 ) ;
#123 = DIRECTION ( 'NONE',  ( -1.000000000000000000, 0.000000000000000000, 0.000000000000000000 ) ) ;
#124 = AXIS2_PLACEMENT_3D ( 'NONE', #202, #293, #279 ) ;
#125 = PRESENTATION_LAYER_ASSIGNMENT (  '', '', ( #265 ) ) ;
#126 = DIRECTION ( 'NONE',  ( -1.000000000000000000, -2.449293598294709003E-17, 0.000000000000000000 ) ) ;
#127 = ORIENTED_EDGE ( 'NONE', *, *, #304, .T. ) ;
#128 = LINE ( 'NONE', #300, #225 ) ;
#129 = ORIENTED_EDGE ( 'NONE', *, *, #42, .F. ) ;
#130 = PRODUCT_RELATED_PRODUCT_CATEGORY ( 'part', '', ( #36 ) ) ;
#131 = CIRCLE ( 'NONE', #35, 0.5000000000000000000 ) ;
#132 = DIRECTION ( 'NONE',  ( -0.000000000000000000, -1.000000000000000000, -0.000000000000000000 ) ) ;
#133 = LENGTH_MEASURE_WITH_UNIT ( LENGTH_MEASURE( 0.02539999999999999897 ), #182 );
#134 =( NAMED_UNIT ( * ) PLANE_ANGLE_UNIT ( ) SI_UNIT ( $, .RADIAN. ) );
#135 = EDGE_CURVE ( 'NONE', #148, #54, #165, .T. ) ;
#136 = APPLICATION_CONTEXT ( 'automotive_design' ) ;
#137 = DIRECTION ( 'NONE',  ( 1.000000000000000000, 0.000000000000000000, 0.000000000000000000 ) ) ;
#138 =( CONVERSION_BASED_UNIT ( 'INCH', #133 ) LENGTH_UNIT ( ) NAMED_UNIT ( #196 ) );
#139 = AXIS2_PLACEMENT_3D ( 'NONE', #250, #101, #56 ) ;
#140 = EDGE_CURVE ( 'NONE', #150, #148, #15, .T. ) ;
#141 = PRODUCT_DEFINITION_CONTEXT ( 'detailed design', #136, 'design' ) ;
#142 = COLOUR_RGB ( '',1.000000000000000000, 0.000000000000000000, 0.000000000000000000 ) ;
#143 = VERTEX_POINT ( 'NONE', #287 ) ;
#144 = PLANE ( 'NONE',  #26 ) ;
#145 = AXIS2_PLACEMENT_3D ( 'NONE', #239, #25, #167 ) ;
#146 = ORIENTED_EDGE ( 'NONE', *, *, #155, .T. ) ;
#147 =( LENGTH_UNIT ( ) NAMED_UNIT ( * ) SI_UNIT ( $, .METRE. ) );
#148 = VERTEX_POINT ( 'NONE', #78 ) ;
#149 = EDGE_CURVE ( 'NONE', #148, #150, #237, .T. ) ;
#150 = VERTEX_POINT ( 'NONE', #96 ) ;
#151 = ORIENTED_EDGE ( 'NONE', *, *, #42, .T. ) ;
#152 = DIRECTION ( 'NONE',  ( -0.000000000000000000, -1.000000000000000000, -0.000000000000000000 ) ) ;
#153 = SURFACE_STYLE_USAGE ( .BOTH. , #278 ) ;
#154 = SURFACE_STYLE_FILL_AREA ( #14 ) ;
#155 = EDGE_CURVE ( 'NONE', #150, #104, #296, .T. ) ;
#156 =( NAMED_UNIT ( * ) SI_UNIT ( $, .STERADIAN. ) SOLID_ANGLE_UNIT ( ) );
#157 =( GEOMETRIC_REPRESENTATION_CONTEXT ( 3 ) GLOBAL_UNCERTAINTY_ASSIGNED_CONTEXT ( ( #75 ) ) GLOBAL_UNIT_ASSIGNED_CONTEXT ( ( #11, #134, #236 ) ) REPRESENTATION_CONTEXT ( 'NONE', 'WORKASPACE' ) );
#158 = FACE_OUTER_BOUND ( 'NONE', #292, .T. ) ;
#159 = PRODUCT_CONTEXT ( 'NONE', #53, 'mechanical' ) ;
#160 = DIRECTION ( 'NONE',  ( -1.000000000000000000, 0.000000000000000000, 0.000000000000000000 ) ) ;
#161 = APPLICATION_PROTOCOL_DEFINITION ( 'draft international standard', 'automotive_design', 1998, #53 ) ;
#162 = CARTESIAN_POINT ( 'NONE',  ( 6.123233995736766036E-17, 2.000000000000000000, 0.5000000000000000000 ) ) ;
#163 = SURFACE_STYLE_USAGE ( .BOTH. , #93 ) ;
#164 = STYLED_ITEM ( 'NONE', ( #295 ), #95 ) ;
#165 = LINE ( 'NONE', #188, #240 ) ;
#166 = ADVANCED_FACE ( 'NONE', ( #27 ), #288, .F. ) ;
#167 = DIRECTION ( 'NONE',  ( -1.000000000000000000, 0.000000000000000000, 0.000000000000000000 ) ) ;
#168 = MECHANICAL_DESIGN_GEOMETRIC_PRESENTATION_REPRESENTATION (  '', ( #164 ), #157 ) ;
#169 = CARTESIAN_POINT ( 'NONE',  ( 0.4999999999999999445, 4.500000000000000000, 6.123233995736766036E-17 ) ) ;
#170 = CARTESIAN_POINT ( 'NONE',  ( 1.499759782661860216E-34, 2.000000000000000000, 0.000000000000000000 ) ) ;
#171 = CYLINDRICAL_SURFACE ( 'NONE', #45, 0.5000000000000000000 ) ;
#172 = VERTEX_POINT ( 'NONE', #226 ) ;
#173 = CARTESIAN_POINT ( 'NONE',  ( 0.000000000000000000, 2.000000000000000000, -0.5000000000000000000 ) ) ;
#174 = ORIENTED_EDGE ( 'NONE', *, *, #140, .T. ) ;
#175 = CARTESIAN_POINT ( 'NONE',  ( 0.000000000000000000, 2.000000000000000000, 0.000000000000000000 ) ) ;
#176 = DIRECTION ( 'NONE',  ( 0.000000000000000000, -0.000000000000000000, 1.000000000000000000 ) ) ;
#177 = SURFACE_SIDE_STYLE ('',( #107 ) ) ;
#178 = PRESENTATION_STYLE_ASSIGNMENT (( #259 ) ) ;
#179 = PRESENTATION_LAYER_ASSIGNMENT (  '', '', ( #39 ) ) ;
#180 =( GEOMETRIC_REPRESENTATION_CONTEXT ( 3 ) GLOBAL_UNCERTAINTY_ASSIGNED_CONTEXT ( ( #266 ) ) GLOBAL_UNIT_ASSIGNED_CONTEXT ( ( #138, #65, #156 ) ) REPRESENTATION_CONTEXT ( 'NONE', 'WORKASPACE' ) );
#181 = PRODUCT_DEFINITION ( 'UNKNOWN', '', #224, #141 ) ;
#182 =( LENGTH_UNIT ( ) NAMED_UNIT ( * ) SI_UNIT ( $, .METRE. ) );
#183 =( NAMED_UNIT ( * ) PLANE_ANGLE_UNIT ( ) SI_UNIT ( $, .RADIAN. ) );
#184 =( CONVERSION_BASED_UNIT ( 'INCH', #220 ) LENGTH_UNIT ( ) NAMED_UNIT ( #286 ) );
#185 = UNCERTAINTY_MEASURE_WITH_UNIT (LENGTH_MEASURE( 1.000000000000000082E-05 ), #62, 'distance_accuracy_value', 'NONE');
#186 = LINE ( 'NONE', #111, #29 ) ;
#187 = PRODUCT_DEFINITION_SHAPE ( 'NONE', 'NONE',  #181 ) ;
#188 = CARTESIAN_POINT ( 'NONE',  ( -0.5000000000000001110, 4.500000000000000000, 0.000000000000000000 ) ) ;
#189 =( GEOMETRIC_REPRESENTATION_CONTEXT ( 3 ) GLOBAL_UNCERTAINTY_ASSIGNED_CONTEXT ( ( #1 ) ) GLOBAL_UNIT_ASSIGNED_CONTEXT ( ( #71, #48, #192 ) ) REPRESENTATION_CONTEXT ( 'NONE', 'WORKASPACE' ) );
#190 = PRESENTATION_LAYER_ASSIGNMENT (  '', '', ( #76 ) ) ;
#191 =( LENGTH_UNIT ( ) NAMED_UNIT ( * ) SI_UNIT ( $, .METRE. ) );
#192 =( NAMED_UNIT ( * ) SI_UNIT ( $, .STERADIAN. ) SOLID_ANGLE_UNIT ( ) );
#193 =( NAMED_UNIT ( * ) PLANE_ANGLE_UNIT ( ) SI_UNIT ( $, .RADIAN. ) );
#194 = AXIS2_PLACEMENT_3D ( 'NONE', #16, #203, #160 ) ;
#195 = DIRECTION ( 'NONE',  ( -1.000000000000000000, 0.000000000000000000, 0.000000000000000000 ) ) ;
#196 = DIMENSIONAL_EXPONENTS ( 1.000000000000000000, 0.000000000000000000, 0.000000000000000000, 0.000000000000000000, 0.000000000000000000, 0.000000000000000000, 0.000000000000000000 ) ;
#197 = EDGE_CURVE ( 'NONE', #172, #143, #302, .T. ) ;
#198 = EDGE_LOOP ( 'NONE', ( #6, #83 ) ) ;
#199 = COLOUR_RGB ( '',1.000000000000000000, 0.000000000000000000, 0.000000000000000000 ) ;
#200 = ORIENTED_EDGE ( 'NONE', *, *, #246, .T. ) ;
#201 = DIRECTION ( 'NONE',  ( 0.000000000000000000, 0.000000000000000000, -1.000000000000000000 ) ) ;
#202 = CARTESIAN_POINT ( 'NONE',  ( 0.000000000000000000, 2.000000000000000000, 0.000000000000000000 ) ) ;
#203 = DIRECTION ( 'NONE',  ( -2.449293598294708695E-17, 1.000000000000000000, -0.000000000000000000 ) ) ;
#204 = MECHANICAL_DESIGN_GEOMETRIC_PRESENTATION_REPRESENTATION (  '', ( #265 ), #189 ) ;
#205 = DIRECTION ( 'NONE',  ( -0.000000000000000000, -1.000000000000000000, -0.000000000000000000 ) ) ;
#206 = FILL_AREA_STYLE ('',( #255 ) ) ;
#207 =( NAMED_UNIT ( * ) SI_UNIT ( $, .STERADIAN. ) SOLID_ANGLE_UNIT ( ) );
#208 = ADVANCED_FACE ( 'NONE', ( #44 ), #72, .T. ) ;
#209 = SURFACE_STYLE_FILL_AREA ( #254 ) ;
#210 = STYLED_ITEM ( 'NONE', ( #215 ), #19 ) ;
#211 = FACE_OUTER_BOUND ( 'NONE', #58, .T. ) ;
#212 = AXIS2_PLACEMENT_3D ( 'NONE', #175, #152, #40 ) ;
#213 = CARTESIAN_POINT ( 'NONE',  ( 0.000000000000000000, 2.000000000000000000, 0.000000000000000000 ) ) ;
#214 =( LENGTH_UNIT ( ) NAMED_UNIT ( * ) SI_UNIT ( $, .METRE. ) );
#215 = PRESENTATION_STYLE_ASSIGNMENT (( #70 ) ) ;
#216 = DIMENSIONAL_EXPONENTS ( 1.000000000000000000, 0.000000000000000000, 0.000000000000000000, 0.000000000000000000, 0.000000000000000000, 0.000000000000000000, 0.000000000000000000 ) ;
#217 = ADVANCED_BREP_SHAPE_REPRESENTATION ( '23340', ( #22, #19, #23 ), #86 ) ;
#218 = MECHANICAL_DESIGN_GEOMETRIC_PRESENTATION_REPRESENTATION (  '', ( #210 ), #9 ) ;
#219 = LENGTH_MEASURE_WITH_UNIT ( LENGTH_MEASURE( 0.02539999999999999897 ), #147 );
#220 = LENGTH_MEASURE_WITH_UNIT ( LENGTH_MEASURE( 0.02539999999999999897 ), #191 );
#221 = DIRECTION ( 'NONE',  ( 2.449293598294709003E-17, -1.000000000000000000, 0.000000000000000000 ) ) ;
#222 = DIRECTION ( 'NONE',  ( -2.449293598294708695E-17, 1.000000000000000000, -0.000000000000000000 ) ) ;
#223 = VERTEX_POINT ( 'NONE', #162 ) ;
#224 = PRODUCT_DEFINITION_FORMATION_WITH_SPECIFIED_SOURCE ( 'ANY', '', #36, .NOT_KNOWN. ) ;
#225 = VECTOR ( 'NONE', #229, 39.37007874015748143 ) ;
#226 = CARTESIAN_POINT ( 'NONE',  ( 0.000000000000000000, 0.000000000000000000, -0.5000000000000000000 ) ) ;
#227 = EDGE_LOOP ( 'NONE', ( #61, #200, #106, #60 ) ) ;
#228 = FILL_AREA_STYLE_COLOUR ( '', #82 ) ;
#229 = DIRECTION ( 'NONE',  ( -0.000000000000000000, -1.000000000000000000, -0.000000000000000000 ) ) ;
#230 = ORIENTED_EDGE ( 'NONE', *, *, #304, .F. ) ;
#231 = AXIS2_PLACEMENT_3D ( 'NONE', #5, #102, #92 ) ;
#232 = DIRECTION ( 'NONE',  ( -2.449293598294709003E-17, 1.000000000000000000, -0.000000000000000000 ) ) ;
#233 = DIRECTION ( 'NONE',  ( 0.000000000000000000, 1.000000000000000000, 0.000000000000000000 ) ) ;
#234 = LENGTH_MEASURE_WITH_UNIT ( LENGTH_MEASURE( 0.02539999999999999897 ), #43 );
#235 = CIRCLE ( 'NONE', #139, 0.5000000000000001110 ) ;
#236 =( NAMED_UNIT ( * ) SI_UNIT ( $, .STERADIAN. ) SOLID_ANGLE_UNIT ( ) );
#237 = CIRCLE ( 'NONE', #251, 0.5000000000000000000 ) ;
#238 =( NAMED_UNIT ( * ) SI_UNIT ( $, .STERADIAN. ) SOLID_ANGLE_UNIT ( ) );
#239 = CARTESIAN_POINT ( 'NONE',  ( 0.000000000000000000, 2.000000000000000000, 0.000000000000000000 ) ) ;
#240 = VECTOR ( 'NONE', #46, 39.37007874015748143 ) ;
#241 = ADVANCED_FACE ( 'NONE', ( #158 ), #112, .T. ) ;
#242 = SURFACE_SIDE_STYLE ('',( #154 ) ) ;
#243 = DIRECTION ( 'NONE',  ( -2.449293598294708695E-17, 1.000000000000000000, -0.000000000000000000 ) ) ;
#244 = COLOUR_RGB ( '',0.7921568627450980005, 0.8196078431372548767, 0.9333333333333333481 ) ;
#245 = EDGE_LOOP ( 'NONE', ( #52, #146, #230, #33 ) ) ;
#246 = EDGE_CURVE ( 'NONE', #223, #275, #49, .T. ) ;
#247 = ORIENTED_EDGE ( 'NONE', *, *, #32, .T. ) ;
#248 = EDGE_LOOP ( 'NONE', ( #100, #247, #4, #34 ) ) ;
#249 = MECHANICAL_DESIGN_GEOMETRIC_PRESENTATION_REPRESENTATION (  '', ( #39 ), #117 ) ;
#250 = CARTESIAN_POINT ( 'NONE',  ( -6.123233995736772199E-17, 4.500000000000000000, 0.000000000000000000 ) ) ;
#251 = AXIS2_PLACEMENT_3D ( 'NONE', #50, #222, #123 ) ;
#252 = EDGE_LOOP ( 'NONE', ( #274, #294 ) ) ;
#253 =( LENGTH_UNIT ( ) NAMED_UNIT ( * ) SI_UNIT ( $, .METRE. ) );
#254 = FILL_AREA_STYLE ('',( #88 ) ) ;
#255 = FILL_AREA_STYLE_COLOUR ( '', #244 ) ;
#256 = DIRECTION ( 'NONE',  ( 0.000000000000000000, -1.000000000000000000, -0.000000000000000000 ) ) ;
#257 = EDGE_CURVE ( 'NONE', #275, #172, #128, .T. ) ;
#258 = PRESENTATION_STYLE_ASSIGNMENT (( #77 ) ) ;
#259 = SURFACE_STYLE_USAGE ( .BOTH. , #306 ) ;
#260 = AXIS2_PLACEMENT_3D ( 'NONE', #121, #2, #97 ) ;
#261 = FILL_AREA_STYLE ('',( #87 ) ) ;
#262 = APPLICATION_PROTOCOL_DEFINITION ( 'draft international standard', 'automotive_design', 1998, #136 ) ;
#263 = AXIS2_PLACEMENT_3D ( 'NONE', #309, #221, #91 ) ;
#264 = PRESENTATION_STYLE_ASSIGNMENT (( #163 ) ) ;
#265 = STYLED_ITEM ( 'NONE', ( #258 ), #47 ) ;
#266 = UNCERTAINTY_MEASURE_WITH_UNIT (LENGTH_MEASURE( 1.000000000000000082E-05 ), #138, 'distance_accuracy_value', 'NONE');
#267 = FILL_AREA_STYLE_COLOUR ( '', #98 ) ;
#268 = DIRECTION ( 'NONE',  ( 0.000000000000000000, 0.000000000000000000, -1.000000000000000000 ) ) ;
#269 = LENGTH_MEASURE_WITH_UNIT ( LENGTH_MEASURE( 0.02539999999999999897 ), #214 );
#270 = EDGE_CURVE ( 'NONE', #143, #172, #131, .T. ) ;
#271 = UNCERTAINTY_MEASURE_WITH_UNIT (LENGTH_MEASURE( 1.000000000000000082E-05 ), #289, 'distance_accuracy_value', 'NONE');
#272 = MECHANICAL_DESIGN_GEOMETRIC_PRESENTATION_REPRESENTATION (  '', ( #119 ), #299 ) ;
#273 = CARTESIAN_POINT ( 'NONE',  ( -6.123233995736772199E-17, 4.500000000000000000, 0.000000000000000000 ) ) ;
#274 = ORIENTED_EDGE ( 'NONE', *, *, #197, .T. ) ;
#275 = VERTEX_POINT ( 'NONE', #173 ) ;
#276 = COLOUR_RGB ( '',1.000000000000000000, 0.000000000000000000, 0.000000000000000000 ) ;
#277 = AXIS2_PLACEMENT_3D ( 'NONE', #68, #20, #17 ) ;
#278 = SURFACE_SIDE_STYLE ('',( #298 ) ) ;
#279 = DIRECTION ( 'NONE',  ( 0.000000000000000000, 0.000000000000000000, -1.000000000000000000 ) ) ;
#280 = LENGTH_MEASURE_WITH_UNIT ( LENGTH_MEASURE( 0.02539999999999999897 ), #253 );
#281 = AXIS2_PLACEMENT_3D ( 'NONE', #170, #28, #126 ) ;
#282 =( NAMED_UNIT ( * ) SI_UNIT ( $, .STERADIAN. ) SOLID_ANGLE_UNIT ( ) );
#283 =( CONVERSION_BASED_UNIT ( 'INCH', #280 ) LENGTH_UNIT ( ) NAMED_UNIT ( #122 ) );
#284 = FILL_AREA_STYLE ('',( #267 ) ) ;
#285 = EDGE_CURVE ( 'NONE', #275, #223, #3, .T. ) ;
#286 = DIMENSIONAL_EXPONENTS ( 1.000000000000000000, 0.000000000000000000, 0.000000000000000000, 0.000000000000000000, 0.000000000000000000, 0.000000000000000000, 0.000000000000000000 ) ;
#287 = CARTESIAN_POINT ( 'NONE',  ( 6.123233995736766036E-17, 0.000000000000000000, 0.5000000000000000000 ) ) ;
#288 = PLANE ( 'NONE',  #281 ) ;
#289 =( CONVERSION_BASED_UNIT ( 'INCH', #219 ) LENGTH_UNIT ( ) NAMED_UNIT ( #31 ) );
#290 = ORIENTED_EDGE ( 'NONE', *, *, #285, .F. ) ;
#291 = PRESENTATION_LAYER_ASSIGNMENT (  '', '', ( #119 ) ) ;
#292 = EDGE_LOOP ( 'NONE', ( #290, #8 ) ) ;
#293 = DIRECTION ( 'NONE',  ( -0.000000000000000000, -1.000000000000000000, -0.000000000000000000 ) ) ;
#294 = ORIENTED_EDGE ( 'NONE', *, *, #270, .T. ) ;
#295 = PRESENTATION_STYLE_ASSIGNMENT (( #89 ) ) ;
#296 = LINE ( 'NONE', #169, #99 ) ;
#297 = DIRECTION ( 'NONE',  ( -0.000000000000000000, -1.000000000000000000, -0.000000000000000000 ) ) ;
#298 = SURFACE_STYLE_FILL_AREA ( #59 ) ;
#299 =( GEOMETRIC_REPRESENTATION_CONTEXT ( 3 ) GLOBAL_UNCERTAINTY_ASSIGNED_CONTEXT ( ( #185 ) ) GLOBAL_UNIT_ASSIGNED_CONTEXT ( ( #62, #84, #282 ) ) REPRESENTATION_CONTEXT ( 'NONE', 'WORKASPACE' ) );
#300 = CARTESIAN_POINT ( 'NONE',  ( 0.000000000000000000, 0.000000000000000000, -0.5000000000000000000 ) ) ;
#301 = CYLINDRICAL_SURFACE ( 'NONE', #260, 0.5000000000000000000 ) ;
#302 = CIRCLE ( 'NONE', #231, 0.5000000000000000000 ) ;
#303 = FACE_OUTER_BOUND ( 'NONE', #248, .T. ) ;
#304 = EDGE_CURVE ( 'NONE', #54, #104, #235, .T. ) ;
#305 = DIRECTION ( 'NONE',  ( 0.000000000000000000, 0.000000000000000000, -1.000000000000000000 ) ) ;
#306 = SURFACE_SIDE_STYLE ('',( #209 ) ) ;
#307 = AXIS2_PLACEMENT_3D ( 'NONE', #109, #205, #268 ) ;
#308 = FACE_OUTER_BOUND ( 'NONE', #227, .T. ) ;
#309 = CARTESIAN_POINT ( 'NONE',  ( 0.5000000000000000000, 4.500000000000000000, 0.000000000000000000 ) ) ;
ENDSEC;
END-ISO-10303-21;
