ISO-10303-21;
HEADER;
FILE_DESCRIPTION (( 'STEP AP214' ),
    '1' );
FILE_NAME ('84089.STEP',
    '2023-06-23T11:45:21',
    ( '' ),
    ( '' ),
    'SwSTEP 2.0',
    'SolidWorks 2023',
    '' );
FILE_SCHEMA (( 'AUTOMOTIVE_DESIGN' ));
ENDSEC;

DATA;
#1 = MANIFOLD_SOLID_BREP ( 'Revolve - Tool Body (Reduced Cut Diameter)', #124 ) ;
#2 = ORIENTED_EDGE ( 'NONE', *, *, #226, .F. ) ;
#3 = SURFACE_STYLE_USAGE ( .BOTH. , #273 ) ;
#4 = EDGE_LOOP ( 'NONE', ( #185, #335, #33, #316 ) ) ;
#5 = ADVANCED_FACE ( 'NONE', ( #347 ), #220, .T. ) ;
#6 = LENGTH_MEASURE_WITH_UNIT ( LENGTH_MEASURE( 0.02539999999999999897 ), #37 );
#7 = ADVANCED_FACE ( 'NONE', ( #175 ), #205, .T. ) ;
#8 =( NAMED_UNIT ( * ) SI_UNIT ( $, .STERADIAN. ) SOLID_ANGLE_UNIT ( ) );
#9 = DIRECTION ( 'NONE',  ( 0.000000000000000000, 0.000000000000000000, -1.000000000000000000 ) ) ;
#10 = EDGE_CURVE ( 'NONE', #303, #26, #324, .T. ) ;
#11 = AXIS2_PLACEMENT_3D ( 'NONE', #337, #222, #162 ) ;
#12 = DIRECTION ( 'NONE',  ( -2.759456510021075690E-17, 1.000000000000000000, -0.000000000000000000 ) ) ;
#13 = SURFACE_STYLE_FILL_AREA ( #266 ) ;
#14 = UNCERTAINTY_MEASURE_WITH_UNIT (LENGTH_MEASURE( 1.000000000000000082E-05 ), #86, 'distance_accuracy_value', 'NONE');
#15 = VECTOR ( 'NONE', #323, 39.37007874015747433 ) ;
#16 = APPLICATION_PROTOCOL_DEFINITION ( 'draft international standard', 'automotive_design', 1998, #327 ) ;
#17 = COLOUR_RGB ( '',0.7921568627450980005, 0.8196078431372548767, 0.9333333333333333481 ) ;
#18 = CIRCLE ( 'NONE', #133, 0.04684999999999999581 ) ;
#19 = DIRECTION ( 'NONE',  ( -2.759456510021075690E-17, 1.000000000000000000, -0.000000000000000000 ) ) ;
#20 = EDGE_CURVE ( 'NONE', #85, #188, #251, .T. ) ;
#21 = CYLINDRICAL_SURFACE ( 'NONE', #299, 0.1250000000000000278 ) ;
#22 = LENGTH_MEASURE_WITH_UNIT ( LENGTH_MEASURE( 0.02539999999999999897 ), #242 );
#23 =( NAMED_UNIT ( * ) SI_UNIT ( $, .STERADIAN. ) SOLID_ANGLE_UNIT ( ) );
#24 = ORIENTED_EDGE ( 'NONE', *, *, #10, .F. ) ;
#25 = FACE_OUTER_BOUND ( 'NONE', #29, .T. ) ;
#26 = VERTEX_POINT ( 'NONE', #49 ) ;
#27 = ORIENTED_EDGE ( 'NONE', *, *, #102, .T. ) ;
#28 = CARTESIAN_POINT ( 'NONE',  ( -8.048224527251757369E-18, 0.5726597706115070796, 0.000000000000000000 ) ) ;
#29 = EDGE_LOOP ( 'NONE', ( #282, #243 ) ) ;
#30 = PRESENTATION_STYLE_ASSIGNMENT (( #190 ) ) ;
#31 = DIRECTION ( 'NONE',  ( -2.759456510021075690E-17, 1.000000000000000000, -0.000000000000000000 ) ) ;
#32 = LENGTH_MEASURE_WITH_UNIT ( LENGTH_MEASURE( 0.02539999999999999897 ), #290 );
#33 = ORIENTED_EDGE ( 'NONE', *, *, #345, .F. ) ;
#34 = SURFACE_STYLE_USAGE ( .BOTH. , #66 ) ;
#35 = SURFACE_STYLE_USAGE ( .BOTH. , #129 ) ;
#36 = DIRECTION ( 'NONE',  ( -0.000000000000000000, -1.000000000000000000, -0.000000000000000000 ) ) ;
#37 =( LENGTH_UNIT ( ) NAMED_UNIT ( * ) SI_UNIT ( $, .METRE. ) );
#38 = CARTESIAN_POINT ( 'NONE',  ( -0.1249999999999999861, 0.5726597706115070796, 0.000000000000000000 ) ) ;
#39 = FILL_AREA_STYLE_COLOUR ( '', #98 ) ;
#40 =( NAMED_UNIT ( * ) SI_UNIT ( $, .STERADIAN. ) SOLID_ANGLE_UNIT ( ) );
#41 = MECHANICAL_DESIGN_GEOMETRIC_PRESENTATION_REPRESENTATION (  '', ( #166 ), #91 ) ;
#42 = CARTESIAN_POINT ( 'NONE',  ( 7.582401355855259480E-33, 0.2810000000000000830, 0.000000000000000000 ) ) ;
#43 = EDGE_CURVE ( 'NONE', #138, #85, #353, .T. ) ;
#44 = FACE_OUTER_BOUND ( 'NONE', #291, .T. ) ;
#45 = CYLINDRICAL_SURFACE ( 'NONE', #354, 0.04684999999999999581 ) ;
#46 = PRESENTATION_LAYER_ASSIGNMENT (  '', '', ( #321 ) ) ;
#47 = ADVANCED_FACE ( 'NONE', ( #235 ), #287, .T. ) ;
#48 =( NAMED_UNIT ( * ) SI_UNIT ( $, .STERADIAN. ) SOLID_ANGLE_UNIT ( ) );
#49 = CARTESIAN_POINT ( 'NONE',  ( 0.000000000000000000, 0.000000000000000000, -0.04684999999999999581 ) ) ;
#50 =( GEOMETRIC_REPRESENTATION_CONTEXT ( 3 ) GLOBAL_UNCERTAINTY_ASSIGNED_CONTEXT ( ( #355 ) ) GLOBAL_UNIT_ASSIGNED_CONTEXT ( ( #307, #213, #78 ) ) REPRESENTATION_CONTEXT ( 'NONE', 'WORKASPACE' ) );
#51 = FILL_AREA_STYLE ('',( #87 ) ) ;
#52 = DIRECTION ( 'NONE',  ( 0.000000000000000000, 0.000000000000000000, -1.000000000000000000 ) ) ;
#53 = PRODUCT_DEFINITION_CONTEXT ( 'detailed design', #327, 'design' ) ;
#54 = ADVANCED_FACE ( 'NONE', ( #44 ), #310, .T. ) ;
#55 = DIRECTION ( 'NONE',  ( -1.000000000000000000, 0.000000000000000000, 0.000000000000000000 ) ) ;
#56 = ORIENTED_EDGE ( 'NONE', *, *, #20, .F. ) ;
#57 = STYLED_ITEM ( 'NONE', ( #182 ), #54 ) ;
#58 = VERTEX_POINT ( 'NONE', #168 ) ;
#59 = FACE_OUTER_BOUND ( 'NONE', #136, .T. ) ;
#60 = DIRECTION ( 'NONE',  ( -0.000000000000000000, -1.000000000000000000, -0.000000000000000000 ) ) ;
#61 = ORIENTED_EDGE ( 'NONE', *, *, #161, .T. ) ;
#62 = CARTESIAN_POINT ( 'NONE',  ( 5.737470254005349551E-18, 0.000000000000000000, 0.04684999999999999581 ) ) ;
#63 = DIMENSIONAL_EXPONENTS ( 1.000000000000000000, 0.000000000000000000, 0.000000000000000000, 0.000000000000000000, 0.000000000000000000, 0.000000000000000000, 0.000000000000000000 ) ;
#64 = AXIS2_PLACEMENT_3D ( 'NONE', #151, #286, #103 ) ;
#65 = MECHANICAL_DESIGN_GEOMETRIC_PRESENTATION_REPRESENTATION (  '', ( #321 ), #249 ) ;
#66 = SURFACE_SIDE_STYLE ('',( #92 ) ) ;
#67 = EDGE_CURVE ( 'NONE', #188, #85, #173, .T. ) ;
#68 = DIRECTION ( 'NONE',  ( 0.000000000000000000, 0.000000000000000000, -1.000000000000000000 ) ) ;
#69 = UNCERTAINTY_MEASURE_WITH_UNIT (LENGTH_MEASURE( 1.000000000000000082E-05 ), #230, 'distance_accuracy_value', 'NONE');
#70 = SURFACE_STYLE_USAGE ( .BOTH. , #208 ) ;
#71 = CIRCLE ( 'NONE', #206, 0.04684999999999999581 ) ;
#72 = COLOUR_RGB ( '',1.000000000000000000, 0.000000000000000000, 0.000000000000000000 ) ;
#73 = CARTESIAN_POINT ( 'NONE',  ( 0.000000000000000000, 0.000000000000000000, 0.000000000000000000 ) ) ;
#74 = EDGE_LOOP ( 'NONE', ( #271, #343, #254, #320 ) ) ;
#75 = DIRECTION ( 'NONE',  ( -2.759456510021075690E-17, 1.000000000000000000, -0.000000000000000000 ) ) ;
#76 = SURFACE_SIDE_STYLE ('',( #159 ) ) ;
#77 = EDGE_CURVE ( 'NONE', #195, #167, #247, .T. ) ;
#78 =( NAMED_UNIT ( * ) SI_UNIT ( $, .STERADIAN. ) SOLID_ANGLE_UNIT ( ) );
#79 = PRESENTATION_LAYER_ASSIGNMENT (  '', '', ( #276 ) ) ;
#80 =( GEOMETRIC_REPRESENTATION_CONTEXT ( 3 ) GLOBAL_UNCERTAINTY_ASSIGNED_CONTEXT ( ( #359 ) ) GLOBAL_UNIT_ASSIGNED_CONTEXT ( ( #144, #180, #23 ) ) REPRESENTATION_CONTEXT ( 'NONE', 'WORKASPACE' ) );
#81 =( LENGTH_UNIT ( ) NAMED_UNIT ( * ) SI_UNIT ( $, .METRE. ) );
#82 = CARTESIAN_POINT ( 'NONE',  ( -0.04684999999999999581, 0.2810000000000000830, 0.000000000000000000 ) ) ;
#83 = LENGTH_MEASURE_WITH_UNIT ( LENGTH_MEASURE( 0.02539999999999999897 ), #81 );
#84 = CARTESIAN_POINT ( 'NONE',  ( -0.04684999999999999581, 0.2810000000000000830, 0.000000000000000000 ) ) ;
#85 = VERTEX_POINT ( 'NONE', #285 ) ;
#86 =( CONVERSION_BASED_UNIT ( 'INCH', #137 ) LENGTH_UNIT ( ) NAMED_UNIT ( #292 ) );
#87 = FILL_AREA_STYLE_COLOUR ( '', #17 ) ;
#88 = CARTESIAN_POINT ( 'NONE',  ( 0.000000000000000000, 0.000000000000000000, 0.000000000000000000 ) ) ;
#89 = PLANE ( 'NONE',  #239 ) ;
#90 = AXIS2_PLACEMENT_3D ( 'NONE', #201, #346, #301 ) ;
#91 =( GEOMETRIC_REPRESENTATION_CONTEXT ( 3 ) GLOBAL_UNCERTAINTY_ASSIGNED_CONTEXT ( ( #69 ) ) GLOBAL_UNIT_ASSIGNED_CONTEXT ( ( #230, #113, #40 ) ) REPRESENTATION_CONTEXT ( 'NONE', 'WORKASPACE' ) );
#92 = SURFACE_STYLE_FILL_AREA ( #257 ) ;
#93 = SURFACE_STYLE_USAGE ( .BOTH. , #294 ) ;
#94 = DIRECTION ( 'NONE',  ( -1.000000000000000000, 0.000000000000000000, 0.000000000000000000 ) ) ;
#95 = EDGE_CURVE ( 'NONE', #138, #167, #200, .T. ) ;
#96 = CARTESIAN_POINT ( 'NONE',  ( 0.000000000000000000, 0.2810000000000000275, -0.04684999999999999581 ) ) ;
#97 = PLANE ( 'NONE',  #123 ) ;
#98 = COLOUR_RGB ( '',1.000000000000000000, 0.000000000000000000, 0.000000000000000000 ) ;
#99 = AXIS2_PLACEMENT_3D ( 'NONE', #147, #263, #52 ) ;
#100 = STYLED_ITEM ( 'NONE', ( #328 ), #116 ) ;
#101 = CARTESIAN_POINT ( 'NONE',  ( 0.000000000000000000, 0.000000000000000000, 0.000000000000000000 ) ) ;
#102 = EDGE_CURVE ( 'NONE', #270, #26, #319, .T. ) ;
#103 = DIRECTION ( 'NONE',  ( -1.000000000000000000, 0.000000000000000000, 0.000000000000000000 ) ) ;
#104 = DIRECTION ( 'NONE',  ( -2.759456510021075690E-17, 1.000000000000000000, -0.000000000000000000 ) ) ;
#105 = MECHANICAL_DESIGN_GEOMETRIC_PRESENTATION_REPRESENTATION (  '', ( #57 ), #135 ) ;
#106 = EDGE_LOOP ( 'NONE', ( #61, #194, #210, #197 ) ) ;
#107 = EDGE_CURVE ( 'NONE', #245, #303, #224, .T. ) ;
#108 = DIRECTION ( 'NONE',  ( 1.000000000000000000, 2.759456510021075690E-17, 0.000000000000000000 ) ) ;
#109 = EDGE_LOOP ( 'NONE', ( #248, #341 ) ) ;
#110 = DIRECTION ( 'NONE',  ( -0.000000000000000000, -1.000000000000000000, -0.000000000000000000 ) ) ;
#111 = ADVANCED_FACE ( 'NONE', ( #225 ), #89, .T. ) ;
#112 = PRODUCT_DEFINITION_SHAPE ( 'NONE', 'NONE',  #318 ) ;
#113 =( NAMED_UNIT ( * ) PLANE_ANGLE_UNIT ( ) SI_UNIT ( $, .RADIAN. ) );
#114 = CARTESIAN_POINT ( 'NONE',  ( 5.737470254005349551E-18, 0.000000000000000000, 0.04684999999999999581 ) ) ;
#115 =( GEOMETRIC_REPRESENTATION_CONTEXT ( 3 ) GLOBAL_UNCERTAINTY_ASSIGNED_CONTEXT ( ( #154 ) ) GLOBAL_UNIT_ASSIGNED_CONTEXT ( ( #172, #258, #8 ) ) REPRESENTATION_CONTEXT ( 'NONE', 'WORKASPACE' ) );
#116 = MANIFOLD_SOLID_BREP ( 'Revolve - Cutting Edge', #352 ) ;
#117 = VECTOR ( 'NONE', #179, 39.37007874015748143 ) ;
#118 = DIRECTION ( 'NONE',  ( -2.759456510021075690E-17, 1.000000000000000000, -0.000000000000000000 ) ) ;
#119 = AXIS2_PLACEMENT_3D ( 'NONE', #308, #187, #156 ) ;
#120 = CARTESIAN_POINT ( 'NONE',  ( 7.582401355855259480E-33, 0.2810000000000000830, 0.000000000000000000 ) ) ;
#121 = CARTESIAN_POINT ( 'NONE',  ( -6.123233995736766036E-17, 2.500000000000000000, 0.000000000000000000 ) ) ;
#122 = DIRECTION ( 'NONE',  ( 0.000000000000000000, 0.000000000000000000, -1.000000000000000000 ) ) ;
#123 = AXIS2_PLACEMENT_3D ( 'NONE', #139, #264, #209 ) ;
#124 = CLOSED_SHELL ( 'NONE', ( #150, #47, #267, #5, #297, #196 ) ) ;
#125 = DIRECTION ( 'NONE',  ( -0.000000000000000000, -1.000000000000000000, -0.000000000000000000 ) ) ;
#126 = FACE_OUTER_BOUND ( 'NONE', #252, .T. ) ;
#127 =( NAMED_UNIT ( * ) PLANE_ANGLE_UNIT ( ) SI_UNIT ( $, .RADIAN. ) );
#128 = ORIENTED_EDGE ( 'NONE', *, *, #174, .T. ) ;
#129 = SURFACE_SIDE_STYLE ('',( #279 ) ) ;
#130 = DIRECTION ( 'NONE',  ( 2.759456510021075690E-17, -1.000000000000000000, 0.000000000000000000 ) ) ;
#131 = CARTESIAN_POINT ( 'NONE',  ( -6.123233995736766036E-17, 2.500000000000000000, 0.000000000000000000 ) ) ;
#132 = EDGE_LOOP ( 'NONE', ( #223, #128, #27, #24 ) ) ;
#133 = AXIS2_PLACEMENT_3D ( 'NONE', #281, #60, #9 ) ;
#134 = MECHANICAL_DESIGN_GEOMETRIC_PRESENTATION_REPRESENTATION (  '', ( #202 ), #115 ) ;
#135 =( GEOMETRIC_REPRESENTATION_CONTEXT ( 3 ) GLOBAL_UNCERTAINTY_ASSIGNED_CONTEXT ( ( #14 ) ) GLOBAL_UNIT_ASSIGNED_CONTEXT ( ( #86, #127, #244 ) ) REPRESENTATION_CONTEXT ( 'NONE', 'WORKASPACE' ) );
#136 = EDGE_LOOP ( 'NONE', ( #218, #289, #342, #56 ) ) ;
#137 = LENGTH_MEASURE_WITH_UNIT ( LENGTH_MEASURE( 0.02539999999999999897 ), #237 );
#138 = VERTEX_POINT ( 'NONE', #211 ) ;
#139 = CARTESIAN_POINT ( 'NONE',  ( 1.783720104040935264E-35, 0.2810000000000000275, 0.000000000000000000 ) ) ;
#140 = CARTESIAN_POINT ( 'NONE',  ( -6.123233995736766036E-17, 2.500000000000000000, 0.000000000000000000 ) ) ;
#141 = DIMENSIONAL_EXPONENTS ( 1.000000000000000000, 0.000000000000000000, 0.000000000000000000, 0.000000000000000000, 0.000000000000000000, 0.000000000000000000, 0.000000000000000000 ) ;
#142 = PRESENTATION_STYLE_ASSIGNMENT (( #34 ) ) ;
#143 = ADVANCED_BREP_SHAPE_REPRESENTATION ( '84089', ( #116, #1, #260 ), #296 ) ;
#144 =( CONVERSION_BASED_UNIT ( 'INCH', #32 ) LENGTH_UNIT ( ) NAMED_UNIT ( #141 ) );
#145 = FILL_AREA_STYLE ('',( #39 ) ) ;
#146 = MECHANICAL_DESIGN_GEOMETRIC_PRESENTATION_REPRESENTATION (  '', ( #276 ), #50 ) ;
#147 = CARTESIAN_POINT ( 'NONE',  ( 0.000000000000000000, 0.2810000000000000275, 0.000000000000000000 ) ) ;
#148 = AXIS2_PLACEMENT_3D ( 'NONE', #131, #104, #221 ) ;
#149 = FILL_AREA_STYLE_COLOUR ( '', #350 ) ;
#150 = ADVANCED_FACE ( 'NONE', ( #274 ), #21, .T. ) ;
#151 = CARTESIAN_POINT ( 'NONE',  ( 7.582401355855259480E-33, 0.2810000000000000830, 0.000000000000000000 ) ) ;
#152 = VECTOR ( 'NONE', #193, 39.37007874015747433 ) ;
#153 = ORIENTED_EDGE ( 'NONE', *, *, #67, .T. ) ;
#154 = UNCERTAINTY_MEASURE_WITH_UNIT (LENGTH_MEASURE( 1.000000000000000082E-05 ), #172, 'distance_accuracy_value', 'NONE');
#155 = CARTESIAN_POINT ( 'NONE',  ( 0.04684999999999999581, 0.2810000000000000830, 5.737470254005349551E-18 ) ) ;
#156 = DIRECTION ( 'NONE',  ( 0.000000000000000000, 0.000000000000000000, -1.000000000000000000 ) ) ;
#157 = CARTESIAN_POINT ( 'NONE',  ( 0.1249999999999999584, 2.500000000000000000, 1.530808498934191817E-17 ) ) ;
#158 = SHAPE_DEFINITION_REPRESENTATION ( #112, #143 ) ;
#159 = SURFACE_STYLE_FILL_AREA ( #334 ) ;
#160 = LENGTH_MEASURE_WITH_UNIT ( LENGTH_MEASURE( 0.02539999999999999897 ), #336 );
#161 = EDGE_CURVE ( 'NONE', #167, #138, #339, .T. ) ;
#162 = DIRECTION ( 'NONE',  ( 0.000000000000000000, -0.000000000000000000, 1.000000000000000000 ) ) ;
#163 = ORIENTED_EDGE ( 'NONE', *, *, #95, .F. ) ;
#164 = PRODUCT ( '84089', '84089', '', ( #250 ) ) ;
#165 = AXIS2_PLACEMENT_3D ( 'NONE', #28, #31, #198 ) ;
#166 = STYLED_ITEM ( 'NONE', ( #142 ), #111 ) ;
#167 = VERTEX_POINT ( 'NONE', #38 ) ;
#168 = CARTESIAN_POINT ( 'NONE',  ( 0.04684999999999999581, 0.2810000000000000830, 1.052277762167363039E-17 ) ) ;
#169 = ORIENTED_EDGE ( 'NONE', *, *, #278, .F. ) ;
#170 = CYLINDRICAL_SURFACE ( 'NONE', #256, 0.1250000000000000278 ) ;
#171 = CARTESIAN_POINT ( 'NONE',  ( 0.000000000000000000, 0.000000000000000000, -0.04684999999999999581 ) ) ;
#172 =( CONVERSION_BASED_UNIT ( 'INCH', #261 ) LENGTH_UNIT ( ) NAMED_UNIT ( #63 ) );
#173 = CIRCLE ( 'NONE', #148, 0.1250000000000000555 ) ;
#174 = EDGE_CURVE ( 'NONE', #245, #270, #18, .T. ) ;
#175 = FACE_OUTER_BOUND ( 'NONE', #132, .T. ) ;
#176 =( LENGTH_UNIT ( ) NAMED_UNIT ( * ) SI_UNIT ( $, .METRE. ) );
#177 = CIRCLE ( 'NONE', #64, 0.04684999999999999581 ) ;
#178 = DIMENSIONAL_EXPONENTS ( 1.000000000000000000, 0.000000000000000000, 0.000000000000000000, 0.000000000000000000, 0.000000000000000000, 0.000000000000000000, 0.000000000000000000 ) ;
#179 = DIRECTION ( 'NONE',  ( -2.759456510021075690E-17, 1.000000000000000000, -0.000000000000000000 ) ) ;
#180 =( NAMED_UNIT ( * ) PLANE_ANGLE_UNIT ( ) SI_UNIT ( $, .RADIAN. ) );
#181 = DIRECTION ( 'NONE',  ( 0.000000000000000000, 0.000000000000000000, 1.000000000000000000 ) ) ;
#182 = PRESENTATION_STYLE_ASSIGNMENT (( #70 ) ) ;
#183 =( NAMED_UNIT ( * ) PLANE_ANGLE_UNIT ( ) SI_UNIT ( $, .RADIAN. ) );
#184 = COLOUR_RGB ( '',0.7921568627450980005, 0.8196078431372548767, 0.9333333333333333481 ) ;
#185 = ORIENTED_EDGE ( 'NONE', *, *, #226, .T. ) ;
#186 = AXIS2_PLACEMENT_3D ( 'NONE', #329, #306, #313 ) ;
#187 = DIRECTION ( 'NONE',  ( -0.000000000000000000, -1.000000000000000000, -0.000000000000000000 ) ) ;
#188 = VERTEX_POINT ( 'NONE', #272 ) ;
#189 = APPLICATION_PROTOCOL_DEFINITION ( 'draft international standard', 'automotive_design', 1998, #265 ) ;
#190 = SURFACE_STYLE_USAGE ( .BOTH. , #76 ) ;
#191 =( CONVERSION_BASED_UNIT ( 'INCH', #160 ) LENGTH_UNIT ( ) NAMED_UNIT ( #228 ) );
#192 = UNCERTAINTY_MEASURE_WITH_UNIT (LENGTH_MEASURE( 1.000000000000000082E-05 ), #191, 'distance_accuracy_value', 'NONE');
#193 = DIRECTION ( 'NONE',  ( -0.2588190451025213501, 0.9659258262890682012, 0.000000000000000000 ) ) ;
#194 = ORIENTED_EDGE ( 'NONE', *, *, #43, .T. ) ;
#195 = VERTEX_POINT ( 'NONE', #84 ) ;
#196 = ADVANCED_FACE ( 'NONE', ( #126 ), #284, .F. ) ;
#197 = ORIENTED_EDGE ( 'NONE', *, *, #262, .F. ) ;
#198 = DIRECTION ( 'NONE',  ( -1.000000000000000000, 0.000000000000000000, 0.000000000000000000 ) ) ;
#199 = ORIENTED_EDGE ( 'NONE', *, *, #77, .T. ) ;
#200 = CIRCLE ( 'NONE', #165, 0.1250000000000000278 ) ;
#201 = CARTESIAN_POINT ( 'NONE',  ( -8.048224527251757369E-18, 0.5726597706115070796, 0.000000000000000000 ) ) ;
#202 = STYLED_ITEM ( 'NONE', ( #227 ), #1 ) ;
#203 = DIRECTION ( 'NONE',  ( -1.000000000000000000, 0.000000000000000000, 0.000000000000000000 ) ) ;
#204 = PRESENTATION_STYLE_ASSIGNMENT (( #93 ) ) ;
#205 = CYLINDRICAL_SURFACE ( 'NONE', #232, 0.04684999999999999581 ) ;
#206 = AXIS2_PLACEMENT_3D ( 'NONE', #42, #19, #94 ) ;
#207 =( CONVERSION_BASED_UNIT ( 'INCH', #22 ) LENGTH_UNIT ( ) NAMED_UNIT ( #178 ) );
#208 = SURFACE_SIDE_STYLE ('',( #13 ) ) ;
#209 = DIRECTION ( 'NONE',  ( -1.000000000000000000, -2.759456510021075690E-17, 0.000000000000000000 ) ) ;
#210 = ORIENTED_EDGE ( 'NONE', *, *, #67, .F. ) ;
#211 = CARTESIAN_POINT ( 'NONE',  ( 0.1250000000000000000, 0.5726597706115070796, 1.530808498934191201E-17 ) ) ;
#212 = VECTOR ( 'NONE', #36, 39.37007874015748143 ) ;
#213 =( NAMED_UNIT ( * ) PLANE_ANGLE_UNIT ( ) SI_UNIT ( $, .RADIAN. ) );
#214 = FILL_AREA_STYLE_COLOUR ( '', #268 ) ;
#215 = EDGE_LOOP ( 'NONE', ( #169, #288, #199, #163 ) ) ;
#216 = DIRECTION ( 'NONE',  ( -0.000000000000000000, -1.000000000000000000, -0.000000000000000000 ) ) ;
#217 = EDGE_CURVE ( 'NONE', #195, #58, #71, .T. ) ;
#218 = ORIENTED_EDGE ( 'NONE', *, *, #43, .F. ) ;
#219 = CIRCLE ( 'NONE', #322, 0.04684999999999999581 ) ;
#220 = CONICAL_SURFACE ( 'NONE', #309, 0.04684999999999999581, 0.2617993877991500740 ) ;
#221 = DIRECTION ( 'NONE',  ( -1.000000000000000000, 0.000000000000000000, 0.000000000000000000 ) ) ;
#222 = DIRECTION ( 'NONE',  ( 0.000000000000000000, 1.000000000000000000, 0.000000000000000000 ) ) ;
#223 = ORIENTED_EDGE ( 'NONE', *, *, #107, .F. ) ;
#224 = LINE ( 'NONE', #62, #212 ) ;
#225 = FACE_OUTER_BOUND ( 'NONE', #109, .T. ) ;
#226 = EDGE_CURVE ( 'NONE', #270, #245, #332, .T. ) ;
#227 = PRESENTATION_STYLE_ASSIGNMENT (( #35 ) ) ;
#228 = DIMENSIONAL_EXPONENTS ( 1.000000000000000000, 0.000000000000000000, 0.000000000000000000, 0.000000000000000000, 0.000000000000000000, 0.000000000000000000, 0.000000000000000000 ) ;
#229 = AXIS2_PLACEMENT_3D ( 'NONE', #120, #118, #275 ) ;
#230 =( CONVERSION_BASED_UNIT ( 'INCH', #6 ) LENGTH_UNIT ( ) NAMED_UNIT ( #295 ) );
#231 = DIRECTION ( 'NONE',  ( -2.759456510021075690E-17, 1.000000000000000000, -0.000000000000000000 ) ) ;
#232 = AXIS2_PLACEMENT_3D ( 'NONE', #73, #236, #68 ) ;
#233 = DIMENSIONAL_EXPONENTS ( 1.000000000000000000, 0.000000000000000000, 0.000000000000000000, 0.000000000000000000, 0.000000000000000000, 0.000000000000000000, 0.000000000000000000 ) ;
#234 = DIRECTION ( 'NONE',  ( -1.000000000000000000, 0.000000000000000000, 0.000000000000000000 ) ) ;
#235 = FACE_OUTER_BOUND ( 'NONE', #74, .T. ) ;
#236 = DIRECTION ( 'NONE',  ( -0.000000000000000000, -1.000000000000000000, -0.000000000000000000 ) ) ;
#237 =( LENGTH_UNIT ( ) NAMED_UNIT ( * ) SI_UNIT ( $, .METRE. ) );
#238 = PRODUCT_RELATED_PRODUCT_CATEGORY ( 'part', '', ( #164 ) ) ;
#239 = AXIS2_PLACEMENT_3D ( 'NONE', #88, #325, #300 ) ;
#240 = CARTESIAN_POINT ( 'NONE',  ( -0.1250000000000001110, 2.500000000000000000, 0.000000000000000000 ) ) ;
#241 = PRODUCT_DEFINITION_FORMATION_WITH_SPECIFIED_SOURCE ( 'ANY', '', #164, .NOT_KNOWN. ) ;
#242 =( LENGTH_UNIT ( ) NAMED_UNIT ( * ) SI_UNIT ( $, .METRE. ) );
#243 = ORIENTED_EDGE ( 'NONE', *, *, #351, .F. ) ;
#244 =( NAMED_UNIT ( * ) SI_UNIT ( $, .STERADIAN. ) SOLID_ANGLE_UNIT ( ) );
#245 = VERTEX_POINT ( 'NONE', #280 ) ;
#246 = LINE ( 'NONE', #240, #305 ) ;
#247 = LINE ( 'NONE', #82, #152 ) ;
#248 = ORIENTED_EDGE ( 'NONE', *, *, #345, .T. ) ;
#249 =( GEOMETRIC_REPRESENTATION_CONTEXT ( 3 ) GLOBAL_UNCERTAINTY_ASSIGNED_CONTEXT ( ( #315 ) ) GLOBAL_UNIT_ASSIGNED_CONTEXT ( ( #207, #183, #48 ) ) REPRESENTATION_CONTEXT ( 'NONE', 'WORKASPACE' ) );
#250 = PRODUCT_CONTEXT ( 'NONE', #265, 'mechanical' ) ;
#251 = CIRCLE ( 'NONE', #186, 0.1250000000000000555 ) ;
#252 = EDGE_LOOP ( 'NONE', ( #153, #344 ) ) ;
#253 = FILL_AREA_STYLE_COLOUR ( '', #184 ) ;
#254 = ORIENTED_EDGE ( 'NONE', *, *, #161, .F. ) ;
#255 = CARTESIAN_POINT ( 'NONE',  ( 7.582401355855259480E-33, 0.2810000000000000830, 0.000000000000000000 ) ) ;
#256 = AXIS2_PLACEMENT_3D ( 'NONE', #140, #12, #55 ) ;
#257 = FILL_AREA_STYLE ('',( #293 ) ) ;
#258 =( NAMED_UNIT ( * ) PLANE_ANGLE_UNIT ( ) SI_UNIT ( $, .RADIAN. ) );
#259 = SURFACE_STYLE_FILL_AREA ( #145 ) ;
#260 = AXIS2_PLACEMENT_3D ( 'NONE', #358, #181, #340 ) ;
#261 = LENGTH_MEASURE_WITH_UNIT ( LENGTH_MEASURE( 0.02539999999999999897 ), #176 );
#262 = EDGE_CURVE ( 'NONE', #167, #188, #246, .T. ) ;
#263 = DIRECTION ( 'NONE',  ( -0.000000000000000000, -1.000000000000000000, -0.000000000000000000 ) ) ;
#264 = DIRECTION ( 'NONE',  ( -2.759456510021075690E-17, 1.000000000000000000, 0.000000000000000000 ) ) ;
#265 = APPLICATION_CONTEXT ( 'automotive_design' ) ;
#266 = FILL_AREA_STYLE ('',( #149 ) ) ;
#267 = ADVANCED_FACE ( 'NONE', ( #25 ), #97, .F. ) ;
#268 = COLOUR_RGB ( '',1.000000000000000000, 0.000000000000000000, 0.000000000000000000 ) ;
#269 = AXIS2_PLACEMENT_3D ( 'NONE', #283, #130, #108 ) ;
#270 = VERTEX_POINT ( 'NONE', #96 ) ;
#271 = ORIENTED_EDGE ( 'NONE', *, *, #217, .T. ) ;
#272 = CARTESIAN_POINT ( 'NONE',  ( -0.1250000000000001388, 2.500000000000000000, 0.000000000000000000 ) ) ;
#273 = SURFACE_SIDE_STYLE ('',( #302 ) ) ;
#274 = FACE_OUTER_BOUND ( 'NONE', #106, .T. ) ;
#275 = DIRECTION ( 'NONE',  ( -1.000000000000000000, 0.000000000000000000, 0.000000000000000000 ) ) ;
#276 = STYLED_ITEM ( 'NONE', ( #30 ), #349 ) ;
#277 = CARTESIAN_POINT ( 'NONE',  ( 0.000000000000000000, 0.000000000000000000, 0.000000000000000000 ) ) ;
#278 = EDGE_CURVE ( 'NONE', #58, #138, #331, .T. ) ;
#279 = SURFACE_STYLE_FILL_AREA ( #51 ) ;
#280 = CARTESIAN_POINT ( 'NONE',  ( 5.737470254005349551E-18, 0.2810000000000000275, 0.04684999999999999581 ) ) ;
#281 = CARTESIAN_POINT ( 'NONE',  ( 0.000000000000000000, 0.2810000000000000275, 0.000000000000000000 ) ) ;
#282 = ORIENTED_EDGE ( 'NONE', *, *, #217, .F. ) ;
#283 = CARTESIAN_POINT ( 'NONE',  ( 0.1250000000000000000, 2.500000000000000000, 0.000000000000000000 ) ) ;
#284 = PLANE ( 'NONE',  #269 ) ;
#285 = CARTESIAN_POINT ( 'NONE',  ( 0.1250000000000000278, 2.500000000000000000, 1.530808498934192125E-17 ) ) ;
#286 = DIRECTION ( 'NONE',  ( -2.759456510021075690E-17, 1.000000000000000000, -0.000000000000000000 ) ) ;
#287 = CONICAL_SURFACE ( 'NONE', #229, 0.04684999999999999581, 0.2617993877991500740 ) ;
#288 = ORIENTED_EDGE ( 'NONE', *, *, #351, .T. ) ;
#289 = ORIENTED_EDGE ( 'NONE', *, *, #95, .T. ) ;
#290 =( LENGTH_UNIT ( ) NAMED_UNIT ( * ) SI_UNIT ( $, .METRE. ) );
#291 = EDGE_LOOP ( 'NONE', ( #2, #338 ) ) ;
#292 = DIMENSIONAL_EXPONENTS ( 1.000000000000000000, 0.000000000000000000, 0.000000000000000000, 0.000000000000000000, 0.000000000000000000, 0.000000000000000000, 0.000000000000000000 ) ;
#293 = FILL_AREA_STYLE_COLOUR ( '', #72 ) ;
#294 = SURFACE_SIDE_STYLE ('',( #259 ) ) ;
#295 = DIMENSIONAL_EXPONENTS ( 1.000000000000000000, 0.000000000000000000, 0.000000000000000000, 0.000000000000000000, 0.000000000000000000, 0.000000000000000000, 0.000000000000000000 ) ;
#296 =( GEOMETRIC_REPRESENTATION_CONTEXT ( 3 ) GLOBAL_UNCERTAINTY_ASSIGNED_CONTEXT ( ( #192 ) ) GLOBAL_UNIT_ASSIGNED_CONTEXT ( ( #191, #314, #330 ) ) REPRESENTATION_CONTEXT ( 'NONE', 'WORKASPACE' ) );
#297 = ADVANCED_FACE ( 'NONE', ( #59 ), #170, .T. ) ;
#298 = FILL_AREA_STYLE ('',( #253 ) ) ;
#299 = AXIS2_PLACEMENT_3D ( 'NONE', #121, #317, #234 ) ;
#300 = DIRECTION ( 'NONE',  ( 0.000000000000000000, 0.000000000000000000, -1.000000000000000000 ) ) ;
#301 = DIRECTION ( 'NONE',  ( -1.000000000000000000, 0.000000000000000000, 0.000000000000000000 ) ) ;
#302 = SURFACE_STYLE_FILL_AREA ( #298 ) ;
#303 = VERTEX_POINT ( 'NONE', #114 ) ;
#304 = MECHANICAL_DESIGN_GEOMETRIC_PRESENTATION_REPRESENTATION (  '', ( #100 ), #80 ) ;
#305 = VECTOR ( 'NONE', #75, 39.37007874015748143 ) ;
#306 = DIRECTION ( 'NONE',  ( -2.759456510021075690E-17, 1.000000000000000000, -0.000000000000000000 ) ) ;
#307 =( CONVERSION_BASED_UNIT ( 'INCH', #83 ) LENGTH_UNIT ( ) NAMED_UNIT ( #233 ) );
#308 = CARTESIAN_POINT ( 'NONE',  ( 0.000000000000000000, 0.000000000000000000, 0.000000000000000000 ) ) ;
#309 = AXIS2_PLACEMENT_3D ( 'NONE', #255, #231, #203 ) ;
#310 = PLANE ( 'NONE',  #11 ) ;
#311 = PRESENTATION_LAYER_ASSIGNMENT (  '', '', ( #202 ) ) ;
#312 = PRESENTATION_LAYER_ASSIGNMENT (  '', '', ( #100 ) ) ;
#313 = DIRECTION ( 'NONE',  ( -1.000000000000000000, 0.000000000000000000, 0.000000000000000000 ) ) ;
#314 =( NAMED_UNIT ( * ) PLANE_ANGLE_UNIT ( ) SI_UNIT ( $, .RADIAN. ) );
#315 = UNCERTAINTY_MEASURE_WITH_UNIT (LENGTH_MEASURE( 1.000000000000000082E-05 ), #207, 'distance_accuracy_value', 'NONE');
#316 = ORIENTED_EDGE ( 'NONE', *, *, #102, .F. ) ;
#317 = DIRECTION ( 'NONE',  ( -2.759456510021075690E-17, 1.000000000000000000, -0.000000000000000000 ) ) ;
#318 = PRODUCT_DEFINITION ( 'UNKNOWN', '', #241, #53 ) ;
#319 = LINE ( 'NONE', #171, #348 ) ;
#320 = ORIENTED_EDGE ( 'NONE', *, *, #77, .F. ) ;
#321 = STYLED_ITEM ( 'NONE', ( #204 ), #7 ) ;
#322 = AXIS2_PLACEMENT_3D ( 'NONE', #101, #125, #356 ) ;
#323 = DIRECTION ( 'NONE',  ( 0.2588190451025213501, 0.9659258262890682012, 3.169619151431772953E-17 ) ) ;
#324 = CIRCLE ( 'NONE', #119, 0.04684999999999999581 ) ;
#325 = DIRECTION ( 'NONE',  ( 0.000000000000000000, -1.000000000000000000, -0.000000000000000000 ) ) ;
#326 = PRESENTATION_LAYER_ASSIGNMENT (  '', '', ( #166 ) ) ;
#327 = APPLICATION_CONTEXT ( 'automotive_design' ) ;
#328 = PRESENTATION_STYLE_ASSIGNMENT (( #3 ) ) ;
#329 = CARTESIAN_POINT ( 'NONE',  ( -6.123233995736766036E-17, 2.500000000000000000, 0.000000000000000000 ) ) ;
#330 =( NAMED_UNIT ( * ) SI_UNIT ( $, .STERADIAN. ) SOLID_ANGLE_UNIT ( ) );
#331 = LINE ( 'NONE', #155, #15 ) ;
#332 = CIRCLE ( 'NONE', #99, 0.04684999999999999581 ) ;
#333 = PRESENTATION_LAYER_ASSIGNMENT (  '', '', ( #57 ) ) ;
#334 = FILL_AREA_STYLE ('',( #214 ) ) ;
#335 = ORIENTED_EDGE ( 'NONE', *, *, #107, .T. ) ;
#336 =( LENGTH_UNIT ( ) NAMED_UNIT ( * ) SI_UNIT ( $, .METRE. ) );
#337 = CARTESIAN_POINT ( 'NONE',  ( 0.000000000000000000, 0.2810000000000000275, 0.000000000000000000 ) ) ;
#338 = ORIENTED_EDGE ( 'NONE', *, *, #174, .F. ) ;
#339 = CIRCLE ( 'NONE', #90, 0.1250000000000000278 ) ;
#340 = DIRECTION ( 'NONE',  ( 1.000000000000000000, 0.000000000000000000, 0.000000000000000000 ) ) ;
#341 = ORIENTED_EDGE ( 'NONE', *, *, #10, .T. ) ;
#342 = ORIENTED_EDGE ( 'NONE', *, *, #262, .T. ) ;
#343 = ORIENTED_EDGE ( 'NONE', *, *, #278, .T. ) ;
#344 = ORIENTED_EDGE ( 'NONE', *, *, #20, .T. ) ;
#345 = EDGE_CURVE ( 'NONE', #26, #303, #219, .T. ) ;
#346 = DIRECTION ( 'NONE',  ( -2.759456510021075690E-17, 1.000000000000000000, -0.000000000000000000 ) ) ;
#347 = FACE_OUTER_BOUND ( 'NONE', #215, .T. ) ;
#348 = VECTOR ( 'NONE', #110, 39.37007874015748143 ) ;
#349 = ADVANCED_FACE ( 'NONE', ( #357 ), #45, .T. ) ;
#350 = COLOUR_RGB ( '',1.000000000000000000, 0.000000000000000000, 0.000000000000000000 ) ;
#351 = EDGE_CURVE ( 'NONE', #58, #195, #177, .T. ) ;
#352 = CLOSED_SHELL ( 'NONE', ( #349, #54, #7, #111 ) ) ;
#353 = LINE ( 'NONE', #157, #117 ) ;
#354 = AXIS2_PLACEMENT_3D ( 'NONE', #277, #216, #122 ) ;
#355 = UNCERTAINTY_MEASURE_WITH_UNIT (LENGTH_MEASURE( 1.000000000000000082E-05 ), #307, 'distance_accuracy_value', 'NONE');
#356 = DIRECTION ( 'NONE',  ( 0.000000000000000000, 0.000000000000000000, -1.000000000000000000 ) ) ;
#357 = FACE_OUTER_BOUND ( 'NONE', #4, .T. ) ;
#358 = CARTESIAN_POINT ( 'NONE',  ( 0.000000000000000000, 0.000000000000000000, 0.000000000000000000 ) ) ;
#359 = UNCERTAINTY_MEASURE_WITH_UNIT (LENGTH_MEASURE( 1.000000000000000082E-05 ), #144, 'distance_accuracy_value', 'NONE');
ENDSEC;
END-ISO-10303-21;
