ISO-10303-21;
HEADER;
FILE_DESCRIPTION (( 'STEP AP214' ),
    '1' );
FILE_NAME ('59797.STEP',
    '2023-07-24T15:40:59',
    ( '' ),
    ( '' ),
    'SwSTEP 2.0',
    'SolidWorks 2023',
    '' );
FILE_SCHEMA (( 'AUTOMOTIVE_DESIGN' ));
ENDSEC;

DATA;
#1 =( NAMED_UNIT ( * ) SI_UNIT ( $, .STERADIAN. ) SOLID_ANGLE_UNIT ( ) );
#2 = ORIENTED_EDGE ( 'NONE', *, *, #201, .F. ) ;
#3 =( GEOMETRIC_REPRESENTATION_CONTEXT ( 3 ) GLOBAL_UNCERTAINTY_ASSIGNED_CONTEXT ( ( #268 ) ) GLOBAL_UNIT_ASSIGNED_CONTEXT ( ( #59, #317, #1 ) ) REPRESENTATION_CONTEXT ( 'NONE', 'WORKASPACE' ) );
#4 = PRODUCT_CONTEXT ( 'NONE', #68, 'mechanical' ) ;
#5 = PRESENTATION_STYLE_ASSIGNMENT (( #249 ) ) ;
#6 = FACE_OUTER_BOUND ( 'NONE', #291, .T. ) ;
#7 = EDGE_LOOP ( 'NONE', ( #112, #69 ) ) ;
#8 =( NAMED_UNIT ( * ) PLANE_ANGLE_UNIT ( ) SI_UNIT ( $, .RADIAN. ) );
#9 = PRODUCT_DEFINITION ( 'UNKNOWN', '', #263, #288 ) ;
#10 = ORIENTED_EDGE ( 'NONE', *, *, #94, .F. ) ;
#11 =( LENGTH_UNIT ( ) NAMED_UNIT ( * ) SI_UNIT ( .MILLI., .METRE. ) );
#12 = DIRECTION ( 'NONE',  ( -0.000000000000000000, -1.000000000000000000, -0.000000000000000000 ) ) ;
#13 =( LENGTH_UNIT ( ) NAMED_UNIT ( * ) SI_UNIT ( .MILLI., .METRE. ) );
#14 = CARTESIAN_POINT ( 'NONE',  ( 7.592810154713587074E-15, 63.00000000000000000, 0.000000000000000000 ) ) ;
#15 = AXIS2_PLACEMENT_3D ( 'NONE', #290, #346, #150 ) ;
#16 = SURFACE_STYLE_FILL_AREA ( #271 ) ;
#17 =( NAMED_UNIT ( * ) PLANE_ANGLE_UNIT ( ) SI_UNIT ( $, .RADIAN. ) );
#18 = ADVANCED_FACE ( 'NONE', ( #98 ), #356, .F. ) ;
#19 = CIRCLE ( 'NONE', #322, 0.5000000000000004441 ) ;
#20 = AXIS2_PLACEMENT_3D ( 'NONE', #189, #55, #22 ) ;
#21 = MECHANICAL_DESIGN_GEOMETRIC_PRESENTATION_REPRESENTATION (  '', ( #142 ), #235 ) ;
#22 = DIRECTION ( 'NONE',  ( -1.000000000000000000, 0.000000000000000000, 0.000000000000000000 ) ) ;
#23 = CYLINDRICAL_SURFACE ( 'NONE', #212, 2.999999999999988454 ) ;
#24 = SURFACE_STYLE_FILL_AREA ( #28 ) ;
#25 = SURFACE_SIDE_STYLE ('',( #278 ) ) ;
#26 =( NAMED_UNIT ( * ) SI_UNIT ( $, .STERADIAN. ) SOLID_ANGLE_UNIT ( ) );
#27 = AXIS2_PLACEMENT_3D ( 'NONE', #140, #367, #359 ) ;
#28 = FILL_AREA_STYLE ('',( #213 ) ) ;
#29 = AXIS2_PLACEMENT_3D ( 'NONE', #239, #240, #106 ) ;
#30 = ORIENTED_EDGE ( 'NONE', *, *, #300, .T. ) ;
#31 = FILL_AREA_STYLE_COLOUR ( '', #242 ) ;
#32 = CARTESIAN_POINT ( 'NONE',  ( 0.000000000000000000, 0.000000000000000000, -2.999999999999999112 ) ) ;
#33 = PRESENTATION_STYLE_ASSIGNMENT (( #197 ) ) ;
#34 = ORIENTED_EDGE ( 'NONE', *, *, #61, .F. ) ;
#35 = DIRECTION ( 'NONE',  ( -1.444848463910660280E-16, 1.000000000000000000, -0.000000000000000000 ) ) ;
#36 = CIRCLE ( 'NONE', #154, 2.499999999999998668 ) ;
#37 = DIRECTION ( 'NONE',  ( 0.000000000000000000, 0.000000000000000000, -1.000000000000000000 ) ) ;
#38 = UNCERTAINTY_MEASURE_WITH_UNIT (LENGTH_MEASURE( 1.000000000000000082E-05 ), #49, 'distance_accuracy_value', 'NONE');
#39 = ORIENTED_EDGE ( 'NONE', *, *, #347, .F. ) ;
#40 = CARTESIAN_POINT ( 'NONE',  ( 0.000000000000000000, 18.00000000000000355, 0.000000000000000000 ) ) ;
#41 = STYLED_ITEM ( 'NONE', ( #79 ), #119 ) ;
#42 = APPLICATION_PROTOCOL_DEFINITION ( 'draft international standard', 'automotive_design', 1998, #68 ) ;
#43 =( GEOMETRIC_REPRESENTATION_CONTEXT ( 3 ) GLOBAL_UNCERTAINTY_ASSIGNED_CONTEXT ( ( #207 ) ) GLOBAL_UNIT_ASSIGNED_CONTEXT ( ( #13, #138, #73 ) ) REPRESENTATION_CONTEXT ( 'NONE', 'WORKASPACE' ) );
#44 = FILL_AREA_STYLE ('',( #182 ) ) ;
#45 = CARTESIAN_POINT ( 'NONE',  ( 7.592810154713587074E-15, 63.00000000000000000, 0.000000000000000000 ) ) ;
#46 = FACE_OUTER_BOUND ( 'NONE', #62, .T. ) ;
#47 = PRESENTATION_LAYER_ASSIGNMENT (  '', '', ( #92 ) ) ;
#48 = MECHANICAL_DESIGN_GEOMETRIC_PRESENTATION_REPRESENTATION (  '', ( #204 ), #60 ) ;
#49 =( LENGTH_UNIT ( ) NAMED_UNIT ( * ) SI_UNIT ( .MILLI., .METRE. ) );
#50 = CIRCLE ( 'NONE', #218, 0.5000000000000004441 ) ;
#51 = DIRECTION ( 'NONE',  ( -0.000000000000000000, -1.000000000000000000, -0.000000000000000000 ) ) ;
#52 = AXIS2_PLACEMENT_3D ( 'NONE', #304, #159, #103 ) ;
#53 = MECHANICAL_DESIGN_GEOMETRIC_PRESENTATION_REPRESENTATION (  '', ( #196 ), #43 ) ;
#54 = PRODUCT_DEFINITION_SHAPE ( 'NONE', 'NONE',  #9 ) ;
#55 = DIRECTION ( 'NONE',  ( -1.444848463910660280E-16, 1.000000000000000000, -0.000000000000000000 ) ) ;
#56 = DIRECTION ( 'NONE',  ( -1.444848463910660280E-16, 1.000000000000000000, -0.000000000000000000 ) ) ;
#57 = FILL_AREA_STYLE ('',( #220 ) ) ;
#58 = MECHANICAL_DESIGN_GEOMETRIC_PRESENTATION_REPRESENTATION (  '', ( #65 ), #272 ) ;
#59 =( LENGTH_UNIT ( ) NAMED_UNIT ( * ) SI_UNIT ( .MILLI., .METRE. ) );
#60 =( GEOMETRIC_REPRESENTATION_CONTEXT ( 3 ) GLOBAL_UNCERTAINTY_ASSIGNED_CONTEXT ( ( #147 ) ) GLOBAL_UNIT_ASSIGNED_CONTEXT ( ( #168, #333, #370 ) ) REPRESENTATION_CONTEXT ( 'NONE', 'WORKASPACE' ) );
#61 = EDGE_CURVE ( 'NONE', #205, #194, #178, .T. ) ;
#62 = EDGE_LOOP ( 'NONE', ( #82, #284, #321, #311 ) ) ;
#63 =( LENGTH_UNIT ( ) NAMED_UNIT ( * ) SI_UNIT ( .MILLI., .METRE. ) );
#64 = DIRECTION ( 'NONE',  ( -0.000000000000000000, -1.000000000000000000, -0.000000000000000000 ) ) ;
#65 = STYLED_ITEM ( 'NONE', ( #83 ), #360 ) ;
#66 = DIRECTION ( 'NONE',  ( -0.000000000000000000, -1.000000000000000000, -0.000000000000000000 ) ) ;
#67 = TOROIDAL_SURFACE ( 'NONE', #354, 2.499999999999998668, 0.5000000000000002220 ) ;
#68 = APPLICATION_CONTEXT ( 'automotive_design' ) ;
#69 = ORIENTED_EDGE ( 'NONE', *, *, #325, .T. ) ;
#70 = LINE ( 'NONE', #328, #93 ) ;
#71 = CARTESIAN_POINT ( 'NONE',  ( 1.409462824231155764E-14, 18.00000000000000355, 0.000000000000000000 ) ) ;
#72 = DIRECTION ( 'NONE',  ( 0.000000000000000000, 0.000000000000000000, -1.000000000000000000 ) ) ;
#73 =( NAMED_UNIT ( * ) SI_UNIT ( $, .STERADIAN. ) SOLID_ANGLE_UNIT ( ) );
#74 = FACE_OUTER_BOUND ( 'NONE', #151, .T. ) ;
#75 = ADVANCED_FACE ( 'NONE', ( #74 ), #269, .T. ) ;
#76 = PRESENTATION_LAYER_ASSIGNMENT (  '', '', ( #204 ) ) ;
#77 = CARTESIAN_POINT ( 'NONE',  ( 0.000000000000000000, 0.000000000000000000, 0.000000000000000000 ) ) ;
#78 =( GEOMETRIC_REPRESENTATION_CONTEXT ( 3 ) GLOBAL_UNCERTAINTY_ASSIGNED_CONTEXT ( ( #306 ) ) GLOBAL_UNIT_ASSIGNED_CONTEXT ( ( #96, #208, #184 ) ) REPRESENTATION_CONTEXT ( 'NONE', 'WORKASPACE' ) );
#79 = PRESENTATION_STYLE_ASSIGNMENT (( #362 ) ) ;
#80 = EDGE_LOOP ( 'NONE', ( #30, #125, #117, #294 ) ) ;
#81 = DIRECTION ( 'NONE',  ( 0.000000000000000000, 0.000000000000000000, 1.000000000000000000 ) ) ;
#82 = ORIENTED_EDGE ( 'NONE', *, *, #261, .F. ) ;
#83 = PRESENTATION_STYLE_ASSIGNMENT (( #316 ) ) ;
#84 = ADVANCED_FACE ( 'NONE', ( #137 ), #246, .F. ) ;
#85 =( GEOMETRIC_REPRESENTATION_CONTEXT ( 3 ) GLOBAL_UNCERTAINTY_ASSIGNED_CONTEXT ( ( #38 ) ) GLOBAL_UNIT_ASSIGNED_CONTEXT ( ( #49, #17, #310 ) ) REPRESENTATION_CONTEXT ( 'NONE', 'WORKASPACE' ) );
#86 = SURFACE_SIDE_STYLE ('',( #174 ) ) ;
#87 = VERTEX_POINT ( 'NONE', #335 ) ;
#88 = PRESENTATION_STYLE_ASSIGNMENT (( #277 ) ) ;
#89 = DIRECTION ( 'NONE',  ( 0.000000000000000000, 0.000000000000000000, -1.000000000000000000 ) ) ;
#90 = LINE ( 'NONE', #32, #251 ) ;
#91 = VERTEX_POINT ( 'NONE', #170 ) ;
#92 = STYLED_ITEM ( 'NONE', ( #134 ), #75 ) ;
#93 = VECTOR ( 'NONE', #164, 1000.000000000000000 ) ;
#94 = EDGE_CURVE ( 'NONE', #144, #202, #111, .T. ) ;
#95 = ORIENTED_EDGE ( 'NONE', *, *, #180, .F. ) ;
#96 =( LENGTH_UNIT ( ) NAMED_UNIT ( * ) SI_UNIT ( .MILLI., .METRE. ) );
#97 = PRESENTATION_STYLE_ASSIGNMENT (( #211 ) ) ;
#98 = FACE_OUTER_BOUND ( 'NONE', #231, .T. ) ;
#99 = FACE_OUTER_BOUND ( 'NONE', #177, .T. ) ;
#100 = AXIS2_PLACEMENT_3D ( 'NONE', #40, #12, #72 ) ;
#101 = CIRCLE ( 'NONE', #365, 2.999999999999999112 ) ;
#102 = DIRECTION ( 'NONE',  ( -1.444848463910660280E-16, 1.000000000000000000, -0.000000000000000000 ) ) ;
#103 = DIRECTION ( 'NONE',  ( -1.000000000000000000, -1.444848463910660280E-16, 0.000000000000000000 ) ) ;
#104 = CIRCLE ( 'NONE', #259, 2.999999999999991562 ) ;
#105 = CARTESIAN_POINT ( 'NONE',  ( -2.999999999999980460, 63.00000000000000000, 0.000000000000000000 ) ) ;
#106 = DIRECTION ( 'NONE',  ( 0.000000000000000000, -0.000000000000000000, 1.000000000000000000 ) ) ;
#107 = DIRECTION ( 'NONE',  ( 0.000000000000000000, -1.000000000000000000, -0.000000000000000000 ) ) ;
#108 = CARTESIAN_POINT ( 'NONE',  ( 0.000000000000000000, 0.5000000000000000000, 0.000000000000000000 ) ) ;
#109 = EDGE_CURVE ( 'NONE', #175, #87, #217, .T. ) ;
#110 = DIRECTION ( 'NONE',  ( 0.000000000000000000, 0.000000000000000000, -1.000000000000000000 ) ) ;
#111 = CIRCLE ( 'NONE', #195, 2.999999999999999112 ) ;
#112 = ORIENTED_EDGE ( 'NONE', *, *, #276, .T. ) ;
#113 = CARTESIAN_POINT ( 'NONE',  ( 3.061616997868381662E-16, 0.5000000000000000000, 2.499999999999998668 ) ) ;
#114 = SURFACE_SIDE_STYLE ('',( #24 ) ) ;
#115 = SURFACE_SIDE_STYLE ('',( #368 ) ) ;
#116 = DIRECTION ( 'NONE',  ( -0.000000000000000000, -1.000000000000000000, -0.000000000000000000 ) ) ;
#117 = ORIENTED_EDGE ( 'NONE', *, *, #276, .F. ) ;
#118 = ADVANCED_BREP_SHAPE_REPRESENTATION ( '59797', ( #119, #360, #258 ), #78 ) ;
#119 = MANIFOLD_SOLID_BREP ( 'Revolve - Cutting Edge', #153 ) ;
#120 = DIRECTION ( 'NONE',  ( -0.000000000000000000, -1.000000000000000000, -0.000000000000000000 ) ) ;
#121 = APPLICATION_PROTOCOL_DEFINITION ( 'draft international standard', 'automotive_design', 1998, #308 ) ;
#122 = DIRECTION ( 'NONE',  ( 0.000000000000000000, 0.000000000000000000, -1.000000000000000000 ) ) ;
#123 = EDGE_CURVE ( 'NONE', #281, #175, #343, .T. ) ;
#124 = ORIENTED_EDGE ( 'NONE', *, *, #330, .T. ) ;
#125 = ORIENTED_EDGE ( 'NONE', *, *, #261, .T. ) ;
#126 = VECTOR ( 'NONE', #116, 1000.000000000000000 ) ;
#127 = SURFACE_STYLE_USAGE ( .BOTH. , #133 ) ;
#128 = CARTESIAN_POINT ( 'NONE',  ( 0.000000000000000000, 0.000000000000000000, -2.499999999999998668 ) ) ;
#129 = FILL_AREA_STYLE_COLOUR ( '', #244 ) ;
#130 = AXIS2_PLACEMENT_3D ( 'NONE', #71, #102, #265 ) ;
#131 = FILL_AREA_STYLE ('',( #129 ) ) ;
#132 = FILL_AREA_STYLE_COLOUR ( '', #190 ) ;
#133 = SURFACE_SIDE_STYLE ('',( #16 ) ) ;
#134 = PRESENTATION_STYLE_ASSIGNMENT (( #127 ) ) ;
#135 = COLOUR_RGB ( '',0.7921568627450980005, 0.8196078431372548767, 0.9333333333333333481 ) ;
#136 = PRESENTATION_LAYER_ASSIGNMENT (  '', '', ( #298 ) ) ;
#137 = FACE_OUTER_BOUND ( 'NONE', #7, .T. ) ;
#138 =( NAMED_UNIT ( * ) PLANE_ANGLE_UNIT ( ) SI_UNIT ( $, .RADIAN. ) );
#139 = UNCERTAINTY_MEASURE_WITH_UNIT (LENGTH_MEASURE( 1.000000000000000082E-05 ), #63, 'distance_accuracy_value', 'NONE');
#140 = CARTESIAN_POINT ( 'NONE',  ( 2.999999999999999112, 63.00000000000000000, 0.000000000000000000 ) ) ;
#141 = VECTOR ( 'NONE', #56, 1000.000000000000000 ) ;
#142 = STYLED_ITEM ( 'NONE', ( #97 ), #248 ) ;
#143 = ADVANCED_FACE ( 'NONE', ( #188 ), #67, .T. ) ;
#144 = VERTEX_POINT ( 'NONE', #247 ) ;
#145 = DIRECTION ( 'NONE',  ( -1.000000000000000000, 0.000000000000000000, 0.000000000000000000 ) ) ;
#146 = CARTESIAN_POINT ( 'NONE',  ( 0.000000000000000000, 18.00000000000000355, -2.999999999999999112 ) ) ;
#147 = UNCERTAINTY_MEASURE_WITH_UNIT (LENGTH_MEASURE( 1.000000000000000082E-05 ), #168, 'distance_accuracy_value', 'NONE');
#148 = EDGE_LOOP ( 'NONE', ( #257, #351, #10, #95 ) ) ;
#149 = PRESENTATION_LAYER_ASSIGNMENT (  '', '', ( #142 ) ) ;
#150 = DIRECTION ( 'NONE',  ( 0.000000000000000000, 0.000000000000000000, -1.000000000000000000 ) ) ;
#151 = EDGE_LOOP ( 'NONE', ( #238, #348 ) ) ;
#152 = CARTESIAN_POINT ( 'NONE',  ( 2.999999999999999112, 18.00000000000000355, 3.673940397442046556E-16 ) ) ;
#153 = CLOSED_SHELL ( 'NONE', ( #248, #313, #75, #143, #338, #228 ) ) ;
#154 = AXIS2_PLACEMENT_3D ( 'NONE', #314, #120, #89 ) ;
#155 = DIRECTION ( 'NONE',  ( -1.444848463910660280E-16, 1.000000000000000000, -0.000000000000000000 ) ) ;
#156 = SURFACE_SIDE_STYLE ('',( #266 ) ) ;
#157 = COLOUR_RGB ( '',1.000000000000000000, 0.000000000000000000, 0.000000000000000000 ) ;
#158 = EDGE_CURVE ( 'NONE', #91, #230, #36, .T. ) ;
#159 = DIRECTION ( 'NONE',  ( -1.444848463910660280E-16, 1.000000000000000000, 0.000000000000000000 ) ) ;
#160 = FILL_AREA_STYLE ('',( #167 ) ) ;
#161 = ORIENTED_EDGE ( 'NONE', *, *, #357, .F. ) ;
#162 = PRESENTATION_LAYER_ASSIGNMENT (  '', '', ( #273 ) ) ;
#163 =( GEOMETRIC_REPRESENTATION_CONTEXT ( 3 ) GLOBAL_UNCERTAINTY_ASSIGNED_CONTEXT ( ( #139 ) ) GLOBAL_UNIT_ASSIGNED_CONTEXT ( ( #63, #198, #26 ) ) REPRESENTATION_CONTEXT ( 'NONE', 'WORKASPACE' ) );
#164 = DIRECTION ( 'NONE',  ( -1.444848463910660280E-16, 1.000000000000000000, -0.000000000000000000 ) ) ;
#165 = AXIS2_PLACEMENT_3D ( 'NONE', #366, #361, #110 ) ;
#166 = DIRECTION ( 'NONE',  ( -0.000000000000000000, -1.000000000000000000, -0.000000000000000000 ) ) ;
#167 = FILL_AREA_STYLE_COLOUR ( '', #364 ) ;
#168 =( LENGTH_UNIT ( ) NAMED_UNIT ( * ) SI_UNIT ( .MILLI., .METRE. ) );
#169 = EDGE_CURVE ( 'NONE', #230, #91, #210, .T. ) ;
#170 = CARTESIAN_POINT ( 'NONE',  ( 3.367778697655220026E-16, 0.000000000000000000, 2.499999999999998668 ) ) ;
#171 = AXIS2_PLACEMENT_3D ( 'NONE', #303, #35, #309 ) ;
#172 = CARTESIAN_POINT ( 'NONE',  ( -2.999999999999970690, 18.00000000000000355, 0.000000000000000000 ) ) ;
#173 =( LENGTH_UNIT ( ) NAMED_UNIT ( * ) SI_UNIT ( .MILLI., .METRE. ) );
#174 = SURFACE_STYLE_FILL_AREA ( #342 ) ;
#175 = VERTEX_POINT ( 'NONE', #172 ) ;
#176 = PLANE ( 'NONE',  #29 ) ;
#177 = EDGE_LOOP ( 'NONE', ( #340, #350, #262, #161 ) ) ;
#178 = CIRCLE ( 'NONE', #100, 2.999999999999999112 ) ;
#179 = ORIENTED_EDGE ( 'NONE', *, *, #300, .F. ) ;
#180 = EDGE_CURVE ( 'NONE', #194, #144, #90, .T. ) ;
#181 = CARTESIAN_POINT ( 'NONE',  ( 7.592810154713587074E-15, 63.00000000000000000, 0.000000000000000000 ) ) ;
#182 = FILL_AREA_STYLE_COLOUR ( '', #157 ) ;
#183 = TOROIDAL_SURFACE ( 'NONE', #280, 2.499999999999998668, 0.5000000000000002220 ) ;
#184 =( NAMED_UNIT ( * ) SI_UNIT ( $, .STERADIAN. ) SOLID_ANGLE_UNIT ( ) );
#185 = CYLINDRICAL_SURFACE ( 'NONE', #289, 2.999999999999988454 ) ;
#186 = FACE_OUTER_BOUND ( 'NONE', #80, .T. ) ;
#187 = PRESENTATION_LAYER_ASSIGNMENT (  '', '', ( #196 ) ) ;
#188 = FACE_OUTER_BOUND ( 'NONE', #349, .T. ) ;
#189 = CARTESIAN_POINT ( 'NONE',  ( 1.409462824231155764E-14, 18.00000000000000355, 0.000000000000000000 ) ) ;
#190 = COLOUR_RGB ( '',1.000000000000000000, 0.000000000000000000, 0.000000000000000000 ) ;
#191 = DIRECTION ( 'NONE',  ( 0.000000000000000000, 0.000000000000000000, -1.000000000000000000 ) ) ;
#192 = ORIENTED_EDGE ( 'NONE', *, *, #61, .T. ) ;
#193 = PRODUCT ( '59797', '59797', '', ( #4 ) ) ;
#194 = VERTEX_POINT ( 'NONE', #146 ) ;
#195 = AXIS2_PLACEMENT_3D ( 'NONE', #307, #166, #275 ) ;
#196 = STYLED_ITEM ( 'NONE', ( #33 ), #228 ) ;
#197 = SURFACE_STYLE_USAGE ( .BOTH. , #86 ) ;
#198 =( NAMED_UNIT ( * ) PLANE_ANGLE_UNIT ( ) SI_UNIT ( $, .RADIAN. ) );
#199 = CARTESIAN_POINT ( 'NONE',  ( 3.673940397442058389E-16, 0.5000000000000000000, 2.999999999999999112 ) ) ;
#200 = UNCERTAINTY_MEASURE_WITH_UNIT (LENGTH_MEASURE( 1.000000000000000082E-05 ), #11, 'distance_accuracy_value', 'NONE');
#201 = EDGE_CURVE ( 'NONE', #205, #202, #255, .T. ) ;
#202 = VERTEX_POINT ( 'NONE', #199 ) ;
#203 = MECHANICAL_DESIGN_GEOMETRIC_PRESENTATION_REPRESENTATION (  '', ( #273 ), #3 ) ;
#204 = STYLED_ITEM ( 'NONE', ( #88 ), #313 ) ;
#205 = VERTEX_POINT ( 'NONE', #225 ) ;
#206 = DIRECTION ( 'NONE',  ( 0.000000000000000000, 0.000000000000000000, 1.000000000000000000 ) ) ;
#207 = UNCERTAINTY_MEASURE_WITH_UNIT (LENGTH_MEASURE( 1.000000000000000082E-05 ), #13, 'distance_accuracy_value', 'NONE');
#208 =( NAMED_UNIT ( * ) PLANE_ANGLE_UNIT ( ) SI_UNIT ( $, .RADIAN. ) );
#209 =( NAMED_UNIT ( * ) SI_UNIT ( $, .STERADIAN. ) SOLID_ANGLE_UNIT ( ) );
#210 = CIRCLE ( 'NONE', #15, 2.499999999999998668 ) ;
#211 = SURFACE_STYLE_USAGE ( .BOTH. , #267 ) ;
#212 = AXIS2_PLACEMENT_3D ( 'NONE', #14, #155, #299 ) ;
#213 = FILL_AREA_STYLE_COLOUR ( '', #135 ) ;
#214 = SURFACE_STYLE_FILL_AREA ( #131 ) ;
#215 = DIRECTION ( 'NONE',  ( 0.000000000000000000, 0.000000000000000000, -1.000000000000000000 ) ) ;
#216 = DIRECTION ( 'NONE',  ( 0.000000000000000000, 0.000000000000000000, -1.000000000000000000 ) ) ;
#217 = LINE ( 'NONE', #105, #141 ) ;
#218 = AXIS2_PLACEMENT_3D ( 'NONE', #282, #145, #81 ) ;
#219 = MECHANICAL_DESIGN_GEOMETRIC_PRESENTATION_REPRESENTATION (  '', ( #92 ), #327 ) ;
#220 = FILL_AREA_STYLE_COLOUR ( '', #358 ) ;
#221 = EDGE_CURVE ( 'NONE', #194, #205, #101, .T. ) ;
#222 = DIRECTION ( 'NONE',  ( 1.000000000000000000, 0.000000000000000000, -1.224646799147353207E-16 ) ) ;
#223 = VERTEX_POINT ( 'NONE', #260 ) ;
#224 = SURFACE_STYLE_FILL_AREA ( #57 ) ;
#225 = CARTESIAN_POINT ( 'NONE',  ( 3.673940397442058882E-16, 18.00000000000000355, 2.999999999999999112 ) ) ;
#226 = PRESENTATION_LAYER_ASSIGNMENT (  '', '', ( #65 ) ) ;
#227 = SURFACE_STYLE_USAGE ( .BOTH. , #337 ) ;
#228 = ADVANCED_FACE ( 'NONE', ( #6 ), #176, .T. ) ;
#229 = CARTESIAN_POINT ( 'NONE',  ( 3.673940397442058882E-16, 0.000000000000000000, 2.999999999999999112 ) ) ;
#230 = VERTEX_POINT ( 'NONE', #128 ) ;
#231 = EDGE_LOOP ( 'NONE', ( #179, #296 ) ) ;
#232 = DIRECTION ( 'NONE',  ( -0.000000000000000000, -1.000000000000000000, -0.000000000000000000 ) ) ;
#233 = ORIENTED_EDGE ( 'NONE', *, *, #357, .T. ) ;
#234 = ORIENTED_EDGE ( 'NONE', *, *, #158, .F. ) ;
#235 =( GEOMETRIC_REPRESENTATION_CONTEXT ( 3 ) GLOBAL_UNCERTAINTY_ASSIGNED_CONTEXT ( ( #200 ) ) GLOBAL_UNIT_ASSIGNED_CONTEXT ( ( #11, #355, #209 ) ) REPRESENTATION_CONTEXT ( 'NONE', 'WORKASPACE' ) );
#236 = CARTESIAN_POINT ( 'NONE',  ( 0.000000000000000000, 0.5000000000000000000, 0.000000000000000000 ) ) ;
#237 = UNCERTAINTY_MEASURE_WITH_UNIT (LENGTH_MEASURE( 1.000000000000000082E-05 ), #252, 'distance_accuracy_value', 'NONE');
#238 = ORIENTED_EDGE ( 'NONE', *, *, #169, .T. ) ;
#239 = CARTESIAN_POINT ( 'NONE',  ( 0.000000000000000000, 18.00000000000000355, 0.000000000000000000 ) ) ;
#240 = DIRECTION ( 'NONE',  ( 0.000000000000000000, 1.000000000000000000, 0.000000000000000000 ) ) ;
#241 = AXIS2_PLACEMENT_3D ( 'NONE', #77, #51, #245 ) ;
#242 = COLOUR_RGB ( '',0.7921568627450980005, 0.8196078431372548767, 0.9333333333333333481 ) ;
#243 = PRESENTATION_LAYER_ASSIGNMENT (  '', '', ( #41 ) ) ;
#244 = COLOUR_RGB ( '',1.000000000000000000, 0.000000000000000000, 0.000000000000000000 ) ;
#245 = DIRECTION ( 'NONE',  ( 0.000000000000000000, 0.000000000000000000, -1.000000000000000000 ) ) ;
#246 = PLANE ( 'NONE',  #27 ) ;
#247 = CARTESIAN_POINT ( 'NONE',  ( 0.000000000000000000, 0.5000000000000000000, -2.999999999999999112 ) ) ;
#248 = ADVANCED_FACE ( 'NONE', ( #329 ), #353, .T. ) ;
#249 = SURFACE_STYLE_USAGE ( .BOTH. , #25 ) ;
#250 = AXIS2_PLACEMENT_3D ( 'NONE', #305, #107, #215 ) ;
#251 = VECTOR ( 'NONE', #66, 1000.000000000000000 ) ;
#252 =( LENGTH_UNIT ( ) NAMED_UNIT ( * ) SI_UNIT ( .MILLI., .METRE. ) );
#253 = EDGE_LOOP ( 'NONE', ( #2, #192, #285, #345 ) ) ;
#254 = FILL_AREA_STYLE ('',( #31 ) ) ;
#255 = LINE ( 'NONE', #229, #126 ) ;
#256 = DIRECTION ( 'NONE',  ( -0.000000000000000000, -1.000000000000000000, -0.000000000000000000 ) ) ;
#257 = ORIENTED_EDGE ( 'NONE', *, *, #221, .T. ) ;
#258 = AXIS2_PLACEMENT_3D ( 'NONE', #301, #206, #324 ) ;
#259 = AXIS2_PLACEMENT_3D ( 'NONE', #45, #326, #274 ) ;
#260 = CARTESIAN_POINT ( 'NONE',  ( 2.999999999999999556, 63.00000000000000000, 3.673940397442047542E-16 ) ) ;
#261 = EDGE_CURVE ( 'NONE', #281, #223, #70, .T. ) ;
#262 = ORIENTED_EDGE ( 'NONE', *, *, #169, .F. ) ;
#263 = PRODUCT_DEFINITION_FORMATION_WITH_SPECIFIED_SOURCE ( 'ANY', '', #193, .NOT_KNOWN. ) ;
#264 = CIRCLE ( 'NONE', #315, 2.999999999999999112 ) ;
#265 = DIRECTION ( 'NONE',  ( -1.000000000000000000, 0.000000000000000000, 0.000000000000000000 ) ) ;
#266 = SURFACE_STYLE_FILL_AREA ( #44 ) ;
#267 = SURFACE_SIDE_STYLE ('',( #214 ) ) ;
#268 = UNCERTAINTY_MEASURE_WITH_UNIT (LENGTH_MEASURE( 1.000000000000000082E-05 ), #59, 'distance_accuracy_value', 'NONE');
#269 = PLANE ( 'NONE',  #250 ) ;
#270 = ADVANCED_FACE ( 'NONE', ( #46 ), #185, .T. ) ;
#271 = FILL_AREA_STYLE ('',( #132 ) ) ;
#272 =( GEOMETRIC_REPRESENTATION_CONTEXT ( 3 ) GLOBAL_UNCERTAINTY_ASSIGNED_CONTEXT ( ( #293 ) ) GLOBAL_UNIT_ASSIGNED_CONTEXT ( ( #173, #8, #295 ) ) REPRESENTATION_CONTEXT ( 'NONE', 'WORKASPACE' ) );
#273 = STYLED_ITEM ( 'NONE', ( #5 ), #143 ) ;
#274 = DIRECTION ( 'NONE',  ( -1.000000000000000000, 0.000000000000000000, 0.000000000000000000 ) ) ;
#275 = DIRECTION ( 'NONE',  ( 0.000000000000000000, 0.000000000000000000, -1.000000000000000000 ) ) ;
#276 = EDGE_CURVE ( 'NONE', #87, #223, #104, .T. ) ;
#277 = SURFACE_STYLE_USAGE ( .BOTH. , #156 ) ;
#278 = SURFACE_STYLE_FILL_AREA ( #160 ) ;
#279 =( NAMED_UNIT ( * ) PLANE_ANGLE_UNIT ( ) SI_UNIT ( $, .RADIAN. ) );
#280 = AXIS2_PLACEMENT_3D ( 'NONE', #363, #286, #191 ) ;
#281 = VERTEX_POINT ( 'NONE', #152 ) ;
#282 = CARTESIAN_POINT ( 'NONE',  ( 0.000000000000000000, 0.5000000000000000000, -2.499999999999998668 ) ) ;
#283 = PRODUCT_RELATED_PRODUCT_CATEGORY ( 'part', '', ( #193 ) ) ;
#284 = ORIENTED_EDGE ( 'NONE', *, *, #123, .T. ) ;
#285 = ORIENTED_EDGE ( 'NONE', *, *, #180, .T. ) ;
#286 = DIRECTION ( 'NONE',  ( -0.000000000000000000, -1.000000000000000000, -0.000000000000000000 ) ) ;
#287 = FILL_AREA_STYLE_COLOUR ( '', #336 ) ;
#288 = PRODUCT_DEFINITION_CONTEXT ( 'detailed design', #308, 'design' ) ;
#289 = AXIS2_PLACEMENT_3D ( 'NONE', #181, #352, #302 ) ;
#290 = CARTESIAN_POINT ( 'NONE',  ( 0.000000000000000000, 0.000000000000000000, 0.000000000000000000 ) ) ;
#291 = EDGE_LOOP ( 'NONE', ( #369, #34 ) ) ;
#292 = ADVANCED_FACE ( 'NONE', ( #186 ), #23, .T. ) ;
#293 = UNCERTAINTY_MEASURE_WITH_UNIT (LENGTH_MEASURE( 1.000000000000000082E-05 ), #173, 'distance_accuracy_value', 'NONE');
#294 = ORIENTED_EDGE ( 'NONE', *, *, #109, .F. ) ;
#295 =( NAMED_UNIT ( * ) SI_UNIT ( $, .STERADIAN. ) SOLID_ANGLE_UNIT ( ) );
#296 = ORIENTED_EDGE ( 'NONE', *, *, #123, .F. ) ;
#297 = MECHANICAL_DESIGN_GEOMETRIC_PRESENTATION_REPRESENTATION (  '', ( #41 ), #85 ) ;
#298 = STYLED_ITEM ( 'NONE', ( #318 ), #338 ) ;
#299 = DIRECTION ( 'NONE',  ( -1.000000000000000000, 0.000000000000000000, 0.000000000000000000 ) ) ;
#300 = EDGE_CURVE ( 'NONE', #175, #281, #323, .T. ) ;
#301 = CARTESIAN_POINT ( 'NONE',  ( 0.000000000000000000, 0.000000000000000000, 0.000000000000000000 ) ) ;
#302 = DIRECTION ( 'NONE',  ( -1.000000000000000000, 0.000000000000000000, 0.000000000000000000 ) ) ;
#303 = CARTESIAN_POINT ( 'NONE',  ( 7.592810154713587074E-15, 63.00000000000000000, 0.000000000000000000 ) ) ;
#304 = CARTESIAN_POINT ( 'NONE',  ( 1.409462824231155764E-14, 18.00000000000000355, 0.000000000000000000 ) ) ;
#305 = CARTESIAN_POINT ( 'NONE',  ( 0.000000000000000000, 0.000000000000000000, 0.000000000000000000 ) ) ;
#306 = UNCERTAINTY_MEASURE_WITH_UNIT (LENGTH_MEASURE( 1.000000000000000082E-05 ), #96, 'distance_accuracy_value', 'NONE');
#307 = CARTESIAN_POINT ( 'NONE',  ( 0.000000000000000000, 0.5000000000000000000, 0.000000000000000000 ) ) ;
#308 = APPLICATION_CONTEXT ( 'automotive_design' ) ;
#309 = DIRECTION ( 'NONE',  ( -1.000000000000000000, 0.000000000000000000, 0.000000000000000000 ) ) ;
#310 =( NAMED_UNIT ( * ) SI_UNIT ( $, .STERADIAN. ) SOLID_ANGLE_UNIT ( ) );
#311 = ORIENTED_EDGE ( 'NONE', *, *, #325, .F. ) ;
#312 = FACE_OUTER_BOUND ( 'NONE', #253, .T. ) ;
#313 = ADVANCED_FACE ( 'NONE', ( #99 ), #183, .T. ) ;
#314 = CARTESIAN_POINT ( 'NONE',  ( 0.000000000000000000, 0.000000000000000000, 0.000000000000000000 ) ) ;
#315 = AXIS2_PLACEMENT_3D ( 'NONE', #108, #256, #216 ) ;
#316 = SURFACE_STYLE_USAGE ( .BOTH. , #115 ) ;
#317 =( NAMED_UNIT ( * ) PLANE_ANGLE_UNIT ( ) SI_UNIT ( $, .RADIAN. ) );
#318 = PRESENTATION_STYLE_ASSIGNMENT (( #227 ) ) ;
#319 = CARTESIAN_POINT ( 'NONE',  ( 0.000000000000000000, 18.00000000000000355, 0.000000000000000000 ) ) ;
#320 = SHAPE_DEFINITION_REPRESENTATION ( #54, #118 ) ;
#321 = ORIENTED_EDGE ( 'NONE', *, *, #109, .T. ) ;
#322 = AXIS2_PLACEMENT_3D ( 'NONE', #113, #222, #339 ) ;
#323 = CIRCLE ( 'NONE', #130, 2.999999999999984457 ) ;
#324 = DIRECTION ( 'NONE',  ( 1.000000000000000000, 0.000000000000000000, 0.000000000000000000 ) ) ;
#325 = EDGE_CURVE ( 'NONE', #223, #87, #331, .T. ) ;
#326 = DIRECTION ( 'NONE',  ( -1.444848463910660280E-16, 1.000000000000000000, -0.000000000000000000 ) ) ;
#327 =( GEOMETRIC_REPRESENTATION_CONTEXT ( 3 ) GLOBAL_UNCERTAINTY_ASSIGNED_CONTEXT ( ( #237 ) ) GLOBAL_UNIT_ASSIGNED_CONTEXT ( ( #252, #279, #332 ) ) REPRESENTATION_CONTEXT ( 'NONE', 'WORKASPACE' ) );
#328 = CARTESIAN_POINT ( 'NONE',  ( 2.999999999999996003, 63.00000000000000000, 3.673940397442045077E-16 ) ) ;
#329 = FACE_OUTER_BOUND ( 'NONE', #148, .T. ) ;
#330 = EDGE_CURVE ( 'NONE', #202, #144, #264, .T. ) ;
#331 = CIRCLE ( 'NONE', #171, 2.999999999999991562 ) ;
#332 =( NAMED_UNIT ( * ) SI_UNIT ( $, .STERADIAN. ) SOLID_ANGLE_UNIT ( ) );
#333 =( NAMED_UNIT ( * ) PLANE_ANGLE_UNIT ( ) SI_UNIT ( $, .RADIAN. ) );
#334 = CLOSED_SHELL ( 'NONE', ( #292, #18, #270, #84 ) ) ;
#335 = CARTESIAN_POINT ( 'NONE',  ( -2.999999999999983569, 63.00000000000000000, 0.000000000000000000 ) ) ;
#336 = COLOUR_RGB ( '',1.000000000000000000, 0.000000000000000000, 0.000000000000000000 ) ;
#337 = SURFACE_SIDE_STYLE ('',( #224 ) ) ;
#338 = ADVANCED_FACE ( 'NONE', ( #312 ), #341, .T. ) ;
#339 = DIRECTION ( 'NONE',  ( -1.224646799147352468E-16, 0.000000000000000000, -1.000000000000000000 ) ) ;
#340 = ORIENTED_EDGE ( 'NONE', *, *, #94, .T. ) ;
#341 = CYLINDRICAL_SURFACE ( 'NONE', #165, 2.999999999999999112 ) ;
#342 = FILL_AREA_STYLE ('',( #287 ) ) ;
#343 = CIRCLE ( 'NONE', #20, 2.999999999999984457 ) ;
#344 = MECHANICAL_DESIGN_GEOMETRIC_PRESENTATION_REPRESENTATION (  '', ( #298 ), #163 ) ;
#345 = ORIENTED_EDGE ( 'NONE', *, *, #330, .F. ) ;
#346 = DIRECTION ( 'NONE',  ( -0.000000000000000000, -1.000000000000000000, -0.000000000000000000 ) ) ;
#347 = EDGE_CURVE ( 'NONE', #202, #91, #19, .T. ) ;
#348 = ORIENTED_EDGE ( 'NONE', *, *, #158, .T. ) ;
#349 = EDGE_LOOP ( 'NONE', ( #39, #124, #233, #234 ) ) ;
#350 = ORIENTED_EDGE ( 'NONE', *, *, #347, .T. ) ;
#351 = ORIENTED_EDGE ( 'NONE', *, *, #201, .T. ) ;
#352 = DIRECTION ( 'NONE',  ( -1.444848463910660280E-16, 1.000000000000000000, -0.000000000000000000 ) ) ;
#353 = CYLINDRICAL_SURFACE ( 'NONE', #241, 2.999999999999999112 ) ;
#354 = AXIS2_PLACEMENT_3D ( 'NONE', #236, #232, #122 ) ;
#355 =( NAMED_UNIT ( * ) PLANE_ANGLE_UNIT ( ) SI_UNIT ( $, .RADIAN. ) );
#356 = PLANE ( 'NONE',  #52 ) ;
#357 = EDGE_CURVE ( 'NONE', #144, #230, #50, .T. ) ;
#358 = COLOUR_RGB ( '',1.000000000000000000, 0.000000000000000000, 0.000000000000000000 ) ;
#359 = DIRECTION ( 'NONE',  ( 1.000000000000000000, 1.444848463910660280E-16, 0.000000000000000000 ) ) ;
#360 = MANIFOLD_SOLID_BREP ( 'Revolve - Tool Body (Straight Shanked)', #334 ) ;
#361 = DIRECTION ( 'NONE',  ( -0.000000000000000000, -1.000000000000000000, -0.000000000000000000 ) ) ;
#362 = SURFACE_STYLE_USAGE ( .BOTH. , #114 ) ;
#363 = CARTESIAN_POINT ( 'NONE',  ( 0.000000000000000000, 0.5000000000000000000, 0.000000000000000000 ) ) ;
#364 = COLOUR_RGB ( '',1.000000000000000000, 0.000000000000000000, 0.000000000000000000 ) ;
#365 = AXIS2_PLACEMENT_3D ( 'NONE', #319, #64, #37 ) ;
#366 = CARTESIAN_POINT ( 'NONE',  ( 0.000000000000000000, 0.000000000000000000, 0.000000000000000000 ) ) ;
#367 = DIRECTION ( 'NONE',  ( 1.444848463910660280E-16, -1.000000000000000000, 0.000000000000000000 ) ) ;
#368 = SURFACE_STYLE_FILL_AREA ( #254 ) ;
#369 = ORIENTED_EDGE ( 'NONE', *, *, #221, .F. ) ;
#370 =( NAMED_UNIT ( * ) SI_UNIT ( $, .STERADIAN. ) SOLID_ANGLE_UNIT ( ) );
ENDSEC;
END-ISO-10303-21;
