ISO-10303-21;
HEADER;
FILE_DESCRIPTION (( 'STEP AP214' ),
    '1' );
FILE_NAME ('Micro_SBMM-020-410X.STEP',
    '2021-09-02T17:05:59',
    ( '' ),
    ( '' ),
    'SwSTEP 2.0',
    'SolidWorks 2020',
    '' );
FILE_SCHEMA (( 'AUTOMOTIVE_DESIGN' ));
ENDSEC;

DATA;
#1 = CIRCLE ( 'NONE', #254, 0.02559049999999998132 ) ;
#2 = CYLINDRICAL_SURFACE ( 'NONE', #289, 0.02559049999999996397 ) ;
#3 = CARTESIAN_POINT ( 'NONE',  ( -0.02559049999999995356, 8.799117868043711275E-18, 0.3937009999999999676 ) ) ;
#4 =( NAMED_UNIT ( * ) PLANE_ANGLE_UNIT ( ) SI_UNIT ( $, .RADIAN. ) );
#5 = AXIS2_PLACEMENT_3D ( 'NONE', #305, #61, #42 ) ;
#6 = DIRECTION ( 'NONE',  ( 0.0000000000000000000, 0.0000000000000000000, 1.000000000000000000 ) ) ;
#7 = ORIENTED_EDGE ( 'NONE', *, *, #82, .T. ) ;
#8 =( CONVERSION_BASED_UNIT ( 'INCH', #138 ) LENGTH_UNIT ( ) NAMED_UNIT ( #246 ) );
#9 = ORIENTED_EDGE ( 'NONE', *, *, #250, .F. ) ;
#10 = CARTESIAN_POINT ( 'NONE',  ( 0.0000000000000000000, 2.410717224121564242E-18, 1.707404996040164512E-17 ) ) ;
#11 = CIRCLE ( 'NONE', #123, 0.03936999999999999528 ) ;
#12 = VERTEX_POINT ( 'NONE', #167 ) ;
#13 =( GEOMETRIC_REPRESENTATION_CONTEXT ( 3 ) GLOBAL_UNCERTAINTY_ASSIGNED_CONTEXT ( ( #103 ) ) GLOBAL_UNIT_ASSIGNED_CONTEXT ( ( #8, #4, #324 ) ) REPRESENTATION_CONTEXT ( 'NONE', 'WORKASPACE' ) );
#14 = FILL_AREA_STYLE ('',( #142 ) ) ;
#15 = EDGE_LOOP ( 'NONE', ( #114, #244, #125, #264 ) ) ;
#16 = CYLINDRICAL_SURFACE ( 'NONE', #276, 0.02559049999999996397 ) ;
#17 = DIRECTION ( 'NONE',  ( 1.000000000000000000, 0.0000000000000000000, -0.0000000000000000000 ) ) ;
#18 = AXIS2_PLACEMENT_3D ( 'NONE', #303, #65, #205 ) ;
#19 = CARTESIAN_POINT ( 'NONE',  ( 0.0000000000000000000, 0.0000000000000000000, 1.417323000000000333 ) ) ;
#20 = LINE ( 'NONE', #93, #326 ) ;
#21 = LINE ( 'NONE', #304, #135 ) ;
#22 = CIRCLE ( 'NONE', #5, 0.1031099999999991745 ) ;
#23 = DIRECTION ( 'NONE',  ( 1.000000000000000000, 0.0000000000000000000, 0.0000000000000000000 ) ) ;
#24 = LENGTH_MEASURE_WITH_UNIT ( LENGTH_MEASURE( 0.02539999999999999897 ), #238 );
#25 = PRESENTATION_LAYER_ASSIGNMENT (  '', '', ( #168 ) ) ;
#26 = EDGE_CURVE ( 'NONE', #109, #332, #269, .T. ) ;
#27 = FACE_OUTER_BOUND ( 'NONE', #137, .T. ) ;
#28 = SURFACE_STYLE_FILL_AREA ( #100 ) ;
#29 = CIRCLE ( 'NONE', #67, 0.02559049999999998132 ) ;
#30 = CARTESIAN_POINT ( 'NONE',  ( 0.02559049999999996397, 3.133932391358030164E-18, 0.0000000000000000000 ) ) ;
#31 =( NAMED_UNIT ( * ) SI_UNIT ( $, .STERADIAN. ) SOLID_ANGLE_UNIT ( ) );
#32 = ORIENTED_EDGE ( 'NONE', *, *, #90, .T. ) ;
#33 = DIRECTION ( 'NONE',  ( 1.000000000000000000, 0.0000000000000000000, 0.0000000000000000000 ) ) ;
#34 = ORIENTED_EDGE ( 'NONE', *, *, #82, .F. ) ;
#35 = VECTOR ( 'NONE', #242, 39.37007874015748854 ) ;
#36 = DIRECTION ( 'NONE',  ( -0.0000000000000000000, -0.0000000000000000000, -1.000000000000000000 ) ) ;
#37 = CIRCLE ( 'NONE', #200, 0.1181100000000000344 ) ;
#38 = EDGE_LOOP ( 'NONE', ( #218, #169, #301, #263 ) ) ;
#39 = CARTESIAN_POINT ( 'NONE',  ( 0.02559049999999995356, 0.0000000000000000000, 0.3937009999999999676 ) ) ;
#40 = DIRECTION ( 'NONE',  ( -1.224646799147352961E-16, 1.000000000000000000, 0.0000000000000000000 ) ) ;
#41 = DIRECTION ( 'NONE',  ( -1.000000000000000000, 0.0000000000000000000, 0.0000000000000000000 ) ) ;
#42 = DIRECTION ( 'NONE',  ( 1.000000000000000000, 0.0000000000000000000, 0.0000000000000000000 ) ) ;
#43 = DIRECTION ( 'NONE',  ( 0.0000000000000000000, 0.0000000000000000000, -1.000000000000000000 ) ) ;
#44 = AXIS2_PLACEMENT_3D ( 'NONE', #344, #45, #132 ) ;
#45 = DIRECTION ( 'NONE',  ( -0.0000000000000000000, -0.0000000000000000000, -1.000000000000000000 ) ) ;
#46 = APPLICATION_CONTEXT ( 'automotive_design' ) ;
#47 = CARTESIAN_POINT ( 'NONE',  ( 0.0000000000000000000, 0.0000000000000000000, 2.952755999999999936 ) ) ;
#48 = EDGE_CURVE ( 'NONE', #332, #84, #345, .T. ) ;
#49 = DIRECTION ( 'NONE',  ( 0.0000000000000000000, 0.0000000000000000000, 1.000000000000000000 ) ) ;
#50 = DIRECTION ( 'NONE',  ( -0.09001749462147050351, 1.102396366554479456E-17, 0.9959401842791932857 ) ) ;
#51 = ORIENTED_EDGE ( 'NONE', *, *, #215, .T. ) ;
#52 = EDGE_CURVE ( 'NONE', #109, #78, #198, .T. ) ;
#53 = ORIENTED_EDGE ( 'NONE', *, *, #48, .F. ) ;
#54 = PRESENTATION_LAYER_ASSIGNMENT (  '', '', ( #308 ) ) ;
#55 = ORIENTED_EDGE ( 'NONE', *, *, #293, .T. ) ;
#56 = VERTEX_POINT ( 'NONE', #266 ) ;
#57 = EDGE_LOOP ( 'NONE', ( #222, #268, #294, #34 ) ) ;
#58 = EDGE_LOOP ( 'NONE', ( #285, #86, #320, #81, #214 ) ) ;
#59 = AXIS2_PLACEMENT_3D ( 'NONE', #47, #184, #262 ) ;
#60 = DIRECTION ( 'NONE',  ( 0.0000000000000000000, 0.0000000000000000000, -1.000000000000000000 ) ) ;
#61 = DIRECTION ( 'NONE',  ( 0.0000000000000000000, 0.0000000000000000000, 1.000000000000000000 ) ) ;
#62 = CARTESIAN_POINT ( 'NONE',  ( -0.1181100000000000344, 0.0000000000000000000, 2.937755999999999368 ) ) ;
#63 = VECTOR ( 'NONE', #129, 39.37007874015748854 ) ;
#64 = CARTESIAN_POINT ( 'NONE',  ( 3.133932391358032860E-18, -0.02559049999999999173, 0.06928860975630385388 ) ) ;
#65 = DIRECTION ( 'NONE',  ( -1.000000000000000000, 0.0000000000000000000, 0.0000000000000000000 ) ) ;
#66 = CARTESIAN_POINT ( 'NONE',  ( 0.0000000000000000000, 0.0000000000000000000, 2.937755999999999368 ) ) ;
#67 = AXIS2_PLACEMENT_3D ( 'NONE', #328, #160, #299 ) ;
#68 = LINE ( 'NONE', #156, #63 ) ;
#69 = EDGE_CURVE ( 'NONE', #106, #325, #275, .T. ) ;
#70 = LINE ( 'NONE', #287, #261 ) ;
#71 = DIRECTION ( 'NONE',  ( -1.000000000000000000, 0.0000000000000000000, 0.0000000000000000000 ) ) ;
#72 = CIRCLE ( 'NONE', #174, 0.1181100000000000344 ) ;
#73 = CONICAL_SURFACE ( 'NONE', #152, 0.1031099999999991745, 0.7853981633974500554 ) ;
#74 = CARTESIAN_POINT ( 'NONE',  ( 0.0000000000000000000, 0.0000000000000000000, 1.417323000000000333 ) ) ;
#75 = CARTESIAN_POINT ( 'NONE',  ( 0.02559049999999998132, 3.133932391358031704E-18, 0.06928860975630385388 ) ) ;
#76 = ORIENTED_EDGE ( 'NONE', *, *, #293, .F. ) ;
#77 = CARTESIAN_POINT ( 'NONE',  ( 0.0000000000000000000, 0.0000000000000000000, 0.0000000000000000000 ) ) ;
#78 = VERTEX_POINT ( 'NONE', #146 ) ;
#79 = PRODUCT_CONTEXT ( 'NONE', #46, 'mechanical' ) ;
#80 = AXIS2_PLACEMENT_3D ( 'NONE', #196, #290, #105 ) ;
#81 = ORIENTED_EDGE ( 'NONE', *, *, #278, .F. ) ;
#82 = EDGE_CURVE ( 'NONE', #140, #56, #249, .T. ) ;
#83 =( LENGTH_UNIT ( ) NAMED_UNIT ( * ) SI_UNIT ( $, .METRE. ) );
#84 = VERTEX_POINT ( 'NONE', #64 ) ;
#85 = PRESENTATION_STYLE_ASSIGNMENT (( #111 ) ) ;
#86 = ORIENTED_EDGE ( 'NONE', *, *, #26, .T. ) ;
#87 = ADVANCED_FACE ( 'NONE', ( #149 ), #130, .T. ) ;
#88 = DIRECTION ( 'NONE',  ( -0.7071067811865486830, 0.0000000000000000000, -0.7071067811865462405 ) ) ;
#89 = MECHANICAL_DESIGN_GEOMETRIC_PRESENTATION_REPRESENTATION (  '', ( #168 ), #220 ) ;
#90 = EDGE_CURVE ( 'NONE', #312, #140, #20, .T. ) ;
#91 = SPHERICAL_SURFACE ( 'NONE', #95, 0.03936999999999999528 ) ;
#92 = CARTESIAN_POINT ( 'NONE',  ( 0.0000000000000000000, 0.0000000000000000000, 2.937755999999999368 ) ) ;
#93 = CARTESIAN_POINT ( 'NONE',  ( -0.1031099999999991745, 0.0000000000000000000, 2.952755999999999936 ) ) ;
#94 = EDGE_CURVE ( 'NONE', #271, #140, #72, .T. ) ;
#95 = AXIS2_PLACEMENT_3D ( 'NONE', #177, #119, #338 ) ;
#96 = FACE_OUTER_BOUND ( 'NONE', #58, .T. ) ;
#97 = CYLINDRICAL_SURFACE ( 'NONE', #59, 0.1181100000000000344 ) ;
#98 = ORIENTED_EDGE ( 'NONE', *, *, #209, .T. ) ;
#99 = ORIENTED_EDGE ( 'NONE', *, *, #256, .T. ) ;
#100 = FILL_AREA_STYLE ('',( #206 ) ) ;
#101 = FACE_OUTER_BOUND ( 'NONE', #194, .T. ) ;
#102 = EDGE_CURVE ( 'NONE', #298, #12, #21, .T. ) ;
#103 = UNCERTAINTY_MEASURE_WITH_UNIT (LENGTH_MEASURE( 1.000000000000000082E-05 ), #8, 'distance_accuracy_value', 'NONE');
#104 = COLOUR_RGB ( '',0.7921568627450980005, 0.8196078431372548767, 0.9333333333333333481 ) ;
#105 = DIRECTION ( 'NONE',  ( -1.000000000000000000, 0.0000000000000000000, 0.0000000000000000000 ) ) ;
#106 = VERTEX_POINT ( 'NONE', #122 ) ;
#107 = EDGE_LOOP ( 'NONE', ( #76, #164, #32, #145 ) ) ;
#108 = APPLICATION_PROTOCOL_DEFINITION ( 'draft international standard', 'automotive_design', 1998, #46 ) ;
#109 = VERTEX_POINT ( 'NONE', #39 ) ;
#110 = CIRCLE ( 'NONE', #307, 0.02559049999999995356 ) ;
#111 = SURFACE_STYLE_USAGE ( .BOTH. , #223 ) ;
#112 = CONICAL_SURFACE ( 'NONE', #260, 0.1299209999999998144, 0.09013951093658492675 ) ;
#113 = CIRCLE ( 'NONE', #176, 0.1181100000000000344 ) ;
#114 = ORIENTED_EDGE ( 'NONE', *, *, #343, .T. ) ;
#115 = DIMENSIONAL_EXPONENTS ( 1.000000000000000000, 0.0000000000000000000, 0.0000000000000000000, 0.0000000000000000000, 0.0000000000000000000, 0.0000000000000000000, 0.0000000000000000000 ) ;
#116 = ORIENTED_EDGE ( 'NONE', *, *, #330, .F. ) ;
#117 = CARTESIAN_POINT ( 'NONE',  ( 0.0000000000000000000, 0.0000000000000000000, 0.0000000000000000000 ) ) ;
#118 = ADVANCED_FACE ( 'NONE', ( #277 ), #112, .T. ) ;
#119 = DIRECTION ( 'NONE',  ( 1.000000000000000000, 0.0000000000000000000, 0.0000000000000000000 ) ) ;
#120 = FACE_OUTER_BOUND ( 'NONE', #107, .T. ) ;
#121 = CARTESIAN_POINT ( 'NONE',  ( 0.0000000000000000000, 0.0000000000000000000, 0.03937000000000000915 ) ) ;
#122 = CARTESIAN_POINT ( 'NONE',  ( 0.0000000000000000000, 0.02559049999999999173, 0.06928860975630385388 ) ) ;
#123 = AXIS2_PLACEMENT_3D ( 'NONE', #232, #229, #40 ) ;
#124 = VECTOR ( 'NONE', #50, 39.37007874015748854 ) ;
#125 = ORIENTED_EDGE ( 'NONE', *, *, #134, .T. ) ;
#126 =( NAMED_UNIT ( * ) SI_UNIT ( $, .STERADIAN. ) SOLID_ANGLE_UNIT ( ) );
#127 = SURFACE_SIDE_STYLE ('',( #28 ) ) ;
#128 = EDGE_CURVE ( 'NONE', #298, #109, #110, .T. ) ;
#129 = DIRECTION ( 'NONE',  ( 0.7071067811865486830, 8.659560562354947649E-17, -0.7071067811865462405 ) ) ;
#130 = CONICAL_SURFACE ( 'NONE', #219, 0.1031099999999991745, 0.7853981633974500554 ) ;
#131 = CIRCLE ( 'NONE', #336, 0.1031099999999991745 ) ;
#132 = DIRECTION ( 'NONE',  ( -1.000000000000000000, 0.0000000000000000000, 0.0000000000000000000 ) ) ;
#133 = DIRECTION ( 'NONE',  ( 0.0000000000000000000, 0.0000000000000000000, 1.000000000000000000 ) ) ;
#134 = EDGE_CURVE ( 'NONE', #84, #325, #11, .T. ) ;
#135 = VECTOR ( 'NONE', #203, 39.37007874015748143 ) ;
#136 = AXIS2_PLACEMENT_3D ( 'NONE', #221, #6, #33 ) ;
#137 = EDGE_LOOP ( 'NONE', ( #197, #284, #7, #98 ) ) ;
#138 = LENGTH_MEASURE_WITH_UNIT ( LENGTH_MEASURE( 0.02539999999999999897 ), #245 );
#139 = ORIENTED_EDGE ( 'NONE', *, *, #193, .F. ) ;
#140 = VERTEX_POINT ( 'NONE', #62 ) ;
#141 = ORIENTED_EDGE ( 'NONE', *, *, #26, .F. ) ;
#142 = FILL_AREA_STYLE_COLOUR ( '', #207 ) ;
#143 = DIRECTION ( 'NONE',  ( -0.0000000000000000000, -0.0000000000000000000, -1.000000000000000000 ) ) ;
#144 = UNCERTAINTY_MEASURE_WITH_UNIT (LENGTH_MEASURE( 1.000000000000000082E-05 ), #311, 'distance_accuracy_value', 'NONE');
#145 = ORIENTED_EDGE ( 'NONE', *, *, #94, .F. ) ;
#146 = CARTESIAN_POINT ( 'NONE',  ( 0.1181100000000000344, 1.446430334472939084E-17, 1.417323000000000333 ) ) ;
#147 = DIRECTION ( 'NONE',  ( 0.0000000000000000000, 0.0000000000000000000, 1.000000000000000000 ) ) ;
#148 = DIRECTION ( 'NONE',  ( -1.000000000000000000, 0.0000000000000000000, 0.0000000000000000000 ) ) ;
#149 = FACE_OUTER_BOUND ( 'NONE', #150, .T. ) ;
#150 = EDGE_LOOP ( 'NONE', ( #139, #55, #248, #155 ) ) ;
#151 = CARTESIAN_POINT ( 'NONE',  ( 0.0000000000000000000, 0.0000000000000000000, 0.3937009999999999676 ) ) ;
#152 = AXIS2_PLACEMENT_3D ( 'NONE', #340, #60, #41 ) ;
#153 = SURFACE_STYLE_USAGE ( .BOTH. , #127 ) ;
#154 = ADVANCED_FACE ( 'NONE', ( #120 ), #73, .T. ) ;
#155 = ORIENTED_EDGE ( 'NONE', *, *, #90, .F. ) ;
#156 = CARTESIAN_POINT ( 'NONE',  ( 0.1031099999999991745, 1.262733314600825725E-17, 2.952755999999999936 ) ) ;
#157 = CARTESIAN_POINT ( 'NONE',  ( -0.1031099999999991745, 0.0000000000000000000, 2.952755999999999936 ) ) ;
#158 = ADVANCED_FACE ( 'NONE', ( #341 ), #252, .T. ) ;
#159 = CARTESIAN_POINT ( 'NONE',  ( -0.1299209999999998144, 1.591073367920230651E-17, 1.547998148936168050 ) ) ;
#160 = DIRECTION ( 'NONE',  ( -0.0000000000000000000, -0.0000000000000000000, -1.000000000000000000 ) ) ;
#161 = EDGE_LOOP ( 'NONE', ( #9, #300, #216, #188 ) ) ;
#162 = PRODUCT_DEFINITION_FORMATION_WITH_SPECIFIED_SOURCE ( 'ANY', '', #339, .NOT_KNOWN. ) ;
#163 = DIRECTION ( 'NONE',  ( 1.000000000000000000, 0.0000000000000000000, 0.0000000000000000000 ) ) ;
#164 = ORIENTED_EDGE ( 'NONE', *, *, #215, .F. ) ;
#165 = ORIENTED_EDGE ( 'NONE', *, *, #102, .T. ) ;
#166 = FACE_OUTER_BOUND ( 'NONE', #161, .T. ) ;
#167 = CARTESIAN_POINT ( 'NONE',  ( -0.02559049999999998132, 0.0000000000000000000, 0.06928860975630385388 ) ) ;
#168 = STYLED_ITEM ( 'NONE', ( #235 ), #279 ) ;
#169 = ORIENTED_EDGE ( 'NONE', *, *, #330, .T. ) ;
#170 = SHAPE_DEFINITION_REPRESENTATION ( #258, #267 ) ;
#171 = DIRECTION ( 'NONE',  ( -1.000000000000000000, 0.0000000000000000000, 0.0000000000000000000 ) ) ;
#172 = FACE_OUTER_BOUND ( 'NONE', #15, .T. ) ;
#173 = ADVANCED_FACE ( 'NONE', ( #172 ), #91, .T. ) ;
#174 = AXIS2_PLACEMENT_3D ( 'NONE', #92, #253, #334 ) ;
#175 = CARTESIAN_POINT ( 'NONE',  ( 0.0000000000000000000, 0.0000000000000000000, 2.952755999999999936 ) ) ;
#176 = AXIS2_PLACEMENT_3D ( 'NONE', #74, #133, #342 ) ;
#177 = CARTESIAN_POINT ( 'NONE',  ( 0.0000000000000000000, 0.0000000000000000000, 0.03937000000000000915 ) ) ;
#178 = ADVANCED_FACE ( 'NONE', ( #96 ), #16, .T. ) ;
#179 = CARTESIAN_POINT ( 'NONE',  ( -0.1181100000000000344, 0.0000000000000000000, 2.952755999999999936 ) ) ;
#180 = APPLICATION_CONTEXT ( 'automotive_design' ) ;
#181 = FACE_OUTER_BOUND ( 'NONE', #57, .T. ) ;
#182 = CIRCLE ( 'NONE', #80, 0.02559049999999998132 ) ;
#183 = DIRECTION ( 'NONE',  ( 0.0000000000000000000, 0.0000000000000000000, 1.000000000000000000 ) ) ;
#184 = DIRECTION ( 'NONE',  ( -0.0000000000000000000, -0.0000000000000000000, -1.000000000000000000 ) ) ;
#185 = ADVANCED_FACE ( 'NONE', ( #202 ), #272, .T. ) ;
#186 = DIRECTION ( 'NONE',  ( 1.000000000000000000, 0.0000000000000000000, 0.0000000000000000000 ) ) ;
#187 = AXIS2_PLACEMENT_3D ( 'NONE', #291, #143, #292 ) ;
#188 = ORIENTED_EDGE ( 'NONE', *, *, #209, .F. ) ;
#189 = CARTESIAN_POINT ( 'NONE',  ( 0.1181100000000000344, 1.446430334472939084E-17, 2.937755999999999368 ) ) ;
#190 = UNCERTAINTY_MEASURE_WITH_UNIT (LENGTH_MEASURE( 1.000000000000000082E-05 ), #240, 'distance_accuracy_value', 'NONE');
#191 = ORIENTED_EDGE ( 'NONE', *, *, #52, .F. ) ;
#192 = DIRECTION ( 'NONE',  ( 0.0000000000000000000, 0.0000000000000000000, 1.000000000000000000 ) ) ;
#193 = EDGE_CURVE ( 'NONE', #195, #312, #22, .T. ) ;
#194 = EDGE_LOOP ( 'NONE', ( #141, #99, #165, #116, #53 ) ) ;
#195 = VERTEX_POINT ( 'NONE', #274 ) ;
#196 = CARTESIAN_POINT ( 'NONE',  ( 0.0000000000000000000, 0.0000000000000000000, 0.06928860975630385388 ) ) ;
#197 = ORIENTED_EDGE ( 'NONE', *, *, #310, .F. ) ;
#198 = LINE ( 'NONE', #247, #35 ) ;
#199 = DIMENSIONAL_EXPONENTS ( 1.000000000000000000, 0.0000000000000000000, 0.0000000000000000000, 0.0000000000000000000, 0.0000000000000000000, 0.0000000000000000000, 0.0000000000000000000 ) ;
#200 = AXIS2_PLACEMENT_3D ( 'NONE', #19, #49, #23 ) ;
#201 = DIRECTION ( 'NONE',  ( 1.000000000000000000, 0.0000000000000000000, 0.0000000000000000000 ) ) ;
#202 = FACE_OUTER_BOUND ( 'NONE', #335, .T. ) ;
#203 = DIRECTION ( 'NONE',  ( -0.0000000000000000000, -0.0000000000000000000, -1.000000000000000000 ) ) ;
#204 = DIRECTION ( 'NONE',  ( 0.0000000000000000000, 1.000000000000000000, 0.0000000000000000000 ) ) ;
#205 = DIRECTION ( 'NONE',  ( 0.0000000000000000000, 0.0000000000000000000, 1.000000000000000000 ) ) ;
#206 = FILL_AREA_STYLE_COLOUR ( '', #104 ) ;
#207 = COLOUR_RGB ( '',0.7921568627450980005, 0.8196078431372548767, 0.9333333333333333481 ) ;
#208 = CARTESIAN_POINT ( 'NONE',  ( 0.0000000000000000000, 0.0000000000000000000, 0.0000000000000000000 ) ) ;
#209 = EDGE_CURVE ( 'NONE', #56, #78, #37, .T. ) ;
#210 = CYLINDRICAL_SURFACE ( 'NONE', #226, 0.1181100000000000344 ) ;
#211 = CARTESIAN_POINT ( 'NONE',  ( 0.0000000000000000000, 0.0000000000000000000, 2.952755999999999936 ) ) ;
#212 = CIRCLE ( 'NONE', #44, 0.02559049999999995356 ) ;
#213 = DIRECTION ( 'NONE',  ( -0.0000000000000000000, -0.0000000000000000000, -1.000000000000000000 ) ) ;
#214 = ORIENTED_EDGE ( 'NONE', *, *, #102, .F. ) ;
#215 = EDGE_CURVE ( 'NONE', #312, #195, #131, .T. ) ;
#216 = ORIENTED_EDGE ( 'NONE', *, *, #52, .T. ) ;
#217 =( NAMED_UNIT ( * ) PLANE_ANGLE_UNIT ( ) SI_UNIT ( $, .RADIAN. ) );
#218 = ORIENTED_EDGE ( 'NONE', *, *, #134, .F. ) ;
#219 = AXIS2_PLACEMENT_3D ( 'NONE', #175, #43, #227 ) ;
#220 =( GEOMETRIC_REPRESENTATION_CONTEXT ( 3 ) GLOBAL_UNCERTAINTY_ASSIGNED_CONTEXT ( ( #144 ) ) GLOBAL_UNIT_ASSIGNED_CONTEXT ( ( #311, #237, #126 ) ) REPRESENTATION_CONTEXT ( 'NONE', 'WORKASPACE' ) );
#221 = CARTESIAN_POINT ( 'NONE',  ( 0.0000000000000000000, 0.0000000000000000000, 1.547998148936168050 ) ) ;
#222 = ORIENTED_EDGE ( 'NONE', *, *, #228, .T. ) ;
#223 = SURFACE_SIDE_STYLE ('',( #241 ) ) ;
#224 = ORIENTED_EDGE ( 'NONE', *, *, #128, .F. ) ;
#225 = DIRECTION ( 'NONE',  ( -0.0000000000000000000, -0.0000000000000000000, -1.000000000000000000 ) ) ;
#226 = AXIS2_PLACEMENT_3D ( 'NONE', #315, #213, #319 ) ;
#227 = DIRECTION ( 'NONE',  ( -1.000000000000000000, 0.0000000000000000000, 0.0000000000000000000 ) ) ;
#228 = EDGE_CURVE ( 'NONE', #140, #271, #327, .T. ) ;
#229 = DIRECTION ( 'NONE',  ( 1.000000000000000000, 1.224646799147353207E-16, -0.0000000000000000000 ) ) ;
#230 = DIRECTION ( 'NONE',  ( 1.000000000000000000, 0.0000000000000000000, 0.0000000000000000000 ) ) ;
#231 = VECTOR ( 'NONE', #281, 39.37007874015748143 ) ;
#232 = CARTESIAN_POINT ( 'NONE',  ( 0.0000000000000000000, 0.0000000000000000000, 0.03937000000000000915 ) ) ;
#233 = CARTESIAN_POINT ( 'NONE',  ( 0.0000000000000000000, 0.0000000000000000000, 0.06928860975630385388 ) ) ;
#234 = EDGE_CURVE ( 'NONE', #78, #56, #113, .T. ) ;
#235 = PRESENTATION_STYLE_ASSIGNMENT (( #153 ) ) ;
#236 = VECTOR ( 'NONE', #36, 39.37007874015748143 ) ;
#237 =( NAMED_UNIT ( * ) PLANE_ANGLE_UNIT ( ) SI_UNIT ( $, .RADIAN. ) );
#238 =( LENGTH_UNIT ( ) NAMED_UNIT ( * ) SI_UNIT ( $, .METRE. ) );
#239 = PRODUCT_DEFINITION_CONTEXT ( 'detailed design', #180, 'design' ) ;
#240 =( CONVERSION_BASED_UNIT ( 'INCH', #297 ) LENGTH_UNIT ( ) NAMED_UNIT ( #199 ) );
#241 = SURFACE_STYLE_FILL_AREA ( #14 ) ;
#242 = DIRECTION ( 'NONE',  ( 0.09001749462147050351, 0.0000000000000000000, 0.9959401842791932857 ) ) ;
#243 = EDGE_LOOP ( 'NONE', ( #224, #329, #323, #191 ) ) ;
#244 = ORIENTED_EDGE ( 'NONE', *, *, #48, .T. ) ;
#245 =( LENGTH_UNIT ( ) NAMED_UNIT ( * ) SI_UNIT ( $, .METRE. ) );
#246 = DIMENSIONAL_EXPONENTS ( 1.000000000000000000, 0.0000000000000000000, 0.0000000000000000000, 0.0000000000000000000, 0.0000000000000000000, 0.0000000000000000000, 0.0000000000000000000 ) ;
#247 = CARTESIAN_POINT ( 'NONE',  ( 0.1299209999999998144, 0.0000000000000000000, 1.547998148936168050 ) ) ;
#248 = ORIENTED_EDGE ( 'NONE', *, *, #228, .F. ) ;
#249 = LINE ( 'NONE', #179, #231 ) ;
#250 = EDGE_CURVE ( 'NONE', #298, #56, #317, .T. ) ;
#251 = MECHANICAL_DESIGN_GEOMETRIC_PRESENTATION_REPRESENTATION (  '', ( #308 ), #13 ) ;
#252 = SPHERICAL_SURFACE ( 'NONE', #318, 0.03936999999999999528 ) ;
#253 = DIRECTION ( 'NONE',  ( 0.0000000000000000000, 0.0000000000000000000, -1.000000000000000000 ) ) ;
#254 = AXIS2_PLACEMENT_3D ( 'NONE', #233, #257, #288 ) ;
#255 = DIRECTION ( 'NONE',  ( 1.000000000000000000, 0.0000000000000000000, 0.0000000000000000000 ) ) ;
#256 = EDGE_CURVE ( 'NONE', #109, #298, #212, .T. ) ;
#257 = DIRECTION ( 'NONE',  ( -0.0000000000000000000, -0.0000000000000000000, -1.000000000000000000 ) ) ;
#258 = PRODUCT_DEFINITION_SHAPE ( 'NONE', 'NONE',  #286 ) ;
#259 = DIRECTION ( 'NONE',  ( -0.0000000000000000000, -0.0000000000000000000, -1.000000000000000000 ) ) ;
#260 = AXIS2_PLACEMENT_3D ( 'NONE', #309, #306, #201 ) ;
#261 = VECTOR ( 'NONE', #259, 39.37007874015748143 ) ;
#262 = DIRECTION ( 'NONE',  ( -1.000000000000000000, 0.0000000000000000000, 0.0000000000000000000 ) ) ;
#263 = ORIENTED_EDGE ( 'NONE', *, *, #69, .T. ) ;
#264 = ORIENTED_EDGE ( 'NONE', *, *, #69, .F. ) ;
#265 = AXIS2_PLACEMENT_3D ( 'NONE', #280, #147, #17 ) ;
#266 = CARTESIAN_POINT ( 'NONE',  ( -0.1181100000000000344, 0.0000000000000000000, 1.417323000000000333 ) ) ;
#267 = ADVANCED_BREP_SHAPE_REPRESENTATION ( 'Micro_SBMM-020-410X', ( #279, #296 ), #313 ) ;
#268 = ORIENTED_EDGE ( 'NONE', *, *, #310, .T. ) ;
#269 = LINE ( 'NONE', #30, #236 ) ;
#270 = AXIS2_PLACEMENT_3D ( 'NONE', #66, #283, #255 ) ;
#271 = VERTEX_POINT ( 'NONE', #189 ) ;
#272 = PLANE ( 'NONE',  #265 ) ;
#273 = ADVANCED_FACE ( 'NONE', ( #181 ), #97, .T. ) ;
#274 = CARTESIAN_POINT ( 'NONE',  ( 0.1031099999999991745, 1.354581824536882559E-17, 2.952755999999999936 ) ) ;
#275 = CIRCLE ( 'NONE', #18, 0.03936999999999999528 ) ;
#276 = AXIS2_PLACEMENT_3D ( 'NONE', #117, #225, #171 ) ;
#277 = FACE_OUTER_BOUND ( 'NONE', #243, .T. ) ;
#278 = EDGE_CURVE ( 'NONE', #12, #106, #1, .T. ) ;
#279 = MANIFOLD_SOLID_BREP ( 'Cut-Revolve3', #295 ) ;
#280 = CARTESIAN_POINT ( 'NONE',  ( 0.0000000000000000000, 0.0000000000000000000, 2.952755999999999936 ) ) ;
#281 = DIRECTION ( 'NONE',  ( -0.0000000000000000000, -0.0000000000000000000, -1.000000000000000000 ) ) ;
#282 = CONICAL_SURFACE ( 'NONE', #136, 0.1299209999999998144, 0.09013951093658492675 ) ;
#283 = DIRECTION ( 'NONE',  ( 0.0000000000000000000, 0.0000000000000000000, -1.000000000000000000 ) ) ;
#284 = ORIENTED_EDGE ( 'NONE', *, *, #94, .T. ) ;
#285 = ORIENTED_EDGE ( 'NONE', *, *, #128, .T. ) ;
#286 = PRODUCT_DEFINITION ( 'UNKNOWN', '', #162, #239 ) ;
#287 = CARTESIAN_POINT ( 'NONE',  ( 0.1181100000000000344, 1.446430334472939084E-17, 2.952755999999999936 ) ) ;
#288 = DIRECTION ( 'NONE',  ( -1.000000000000000000, 0.0000000000000000000, 0.0000000000000000000 ) ) ;
#289 = AXIS2_PLACEMENT_3D ( 'NONE', #208, #314, #71 ) ;
#290 = DIRECTION ( 'NONE',  ( -0.0000000000000000000, -0.0000000000000000000, -1.000000000000000000 ) ) ;
#291 = CARTESIAN_POINT ( 'NONE',  ( 0.0000000000000000000, 0.0000000000000000000, 0.06928860975630385388 ) ) ;
#292 = DIRECTION ( 'NONE',  ( -1.000000000000000000, 0.0000000000000000000, 0.0000000000000000000 ) ) ;
#293 = EDGE_CURVE ( 'NONE', #195, #271, #68, .T. ) ;
#294 = ORIENTED_EDGE ( 'NONE', *, *, #234, .T. ) ;
#295 = CLOSED_SHELL ( 'NONE', ( #178, #173, #118, #87, #273, #316, #185, #154, #333, #158, #302 ) ) ;
#296 = AXIS2_PLACEMENT_3D ( 'NONE', #77, #192, #163 ) ;
#297 = LENGTH_MEASURE_WITH_UNIT ( LENGTH_MEASURE( 0.02539999999999999897 ), #83 );
#298 = VERTEX_POINT ( 'NONE', #3 ) ;
#299 = DIRECTION ( 'NONE',  ( -1.000000000000000000, 0.0000000000000000000, 0.0000000000000000000 ) ) ;
#300 = ORIENTED_EDGE ( 'NONE', *, *, #256, .F. ) ;
#301 = ORIENTED_EDGE ( 'NONE', *, *, #278, .T. ) ;
#302 = ADVANCED_FACE ( 'NONE', ( #101 ), #2, .T. ) ;
#303 = CARTESIAN_POINT ( 'NONE',  ( 0.0000000000000000000, 0.0000000000000000000, 0.03937000000000000915 ) ) ;
#304 = CARTESIAN_POINT ( 'NONE',  ( -0.02559049999999996397, 0.0000000000000000000, 0.0000000000000000000 ) ) ;
#305 = CARTESIAN_POINT ( 'NONE',  ( 0.0000000000000000000, 0.0000000000000000000, 2.952755999999999936 ) ) ;
#306 = DIRECTION ( 'NONE',  ( 0.0000000000000000000, 0.0000000000000000000, 1.000000000000000000 ) ) ;
#307 = AXIS2_PLACEMENT_3D ( 'NONE', #151, #337, #148 ) ;
#308 = STYLED_ITEM ( 'NONE', ( #85 ), #267 ) ;
#309 = CARTESIAN_POINT ( 'NONE',  ( 0.0000000000000000000, 0.0000000000000000000, 1.547998148936168050 ) ) ;
#310 = EDGE_CURVE ( 'NONE', #271, #78, #70, .T. ) ;
#311 =( CONVERSION_BASED_UNIT ( 'INCH', #24 ) LENGTH_UNIT ( ) NAMED_UNIT ( #115 ) );
#312 = VERTEX_POINT ( 'NONE', #157 ) ;
#313 =( GEOMETRIC_REPRESENTATION_CONTEXT ( 3 ) GLOBAL_UNCERTAINTY_ASSIGNED_CONTEXT ( ( #190 ) ) GLOBAL_UNIT_ASSIGNED_CONTEXT ( ( #240, #217, #31 ) ) REPRESENTATION_CONTEXT ( 'NONE', 'WORKASPACE' ) );
#314 = DIRECTION ( 'NONE',  ( -0.0000000000000000000, -0.0000000000000000000, -1.000000000000000000 ) ) ;
#315 = CARTESIAN_POINT ( 'NONE',  ( 0.0000000000000000000, 0.0000000000000000000, 2.952755999999999936 ) ) ;
#316 = ADVANCED_FACE ( 'NONE', ( #27 ), #210, .T. ) ;
#317 = LINE ( 'NONE', #159, #124 ) ;
#318 = AXIS2_PLACEMENT_3D ( 'NONE', #121, #230, #204 ) ;
#319 = DIRECTION ( 'NONE',  ( -1.000000000000000000, 0.0000000000000000000, 0.0000000000000000000 ) ) ;
#320 = ORIENTED_EDGE ( 'NONE', *, *, #343, .F. ) ;
#321 = PRODUCT_RELATED_PRODUCT_CATEGORY ( 'part', '', ( #339 ) ) ;
#322 = ORIENTED_EDGE ( 'NONE', *, *, #193, .T. ) ;
#323 = ORIENTED_EDGE ( 'NONE', *, *, #234, .F. ) ;
#324 =( NAMED_UNIT ( * ) SI_UNIT ( $, .STERADIAN. ) SOLID_ANGLE_UNIT ( ) );
#325 = VERTEX_POINT ( 'NONE', #10 ) ;
#326 = VECTOR ( 'NONE', #88, 39.37007874015748854 ) ;
#327 = CIRCLE ( 'NONE', #270, 0.1181100000000000344 ) ;
#328 = CARTESIAN_POINT ( 'NONE',  ( 0.0000000000000000000, 0.0000000000000000000, 0.06928860975630385388 ) ) ;
#329 = ORIENTED_EDGE ( 'NONE', *, *, #250, .T. ) ;
#330 = EDGE_CURVE ( 'NONE', #84, #12, #182, .T. ) ;
#331 = APPLICATION_PROTOCOL_DEFINITION ( 'draft international standard', 'automotive_design', 1998, #180 ) ;
#332 = VERTEX_POINT ( 'NONE', #75 ) ;
#333 = ADVANCED_FACE ( 'NONE', ( #166 ), #282, .T. ) ;
#334 = DIRECTION ( 'NONE',  ( 1.000000000000000000, 0.0000000000000000000, 0.0000000000000000000 ) ) ;
#335 = EDGE_LOOP ( 'NONE', ( #51, #322 ) ) ;
#336 = AXIS2_PLACEMENT_3D ( 'NONE', #211, #183, #186 ) ;
#337 = DIRECTION ( 'NONE',  ( -0.0000000000000000000, -0.0000000000000000000, -1.000000000000000000 ) ) ;
#338 = DIRECTION ( 'NONE',  ( 0.0000000000000000000, 1.000000000000000000, 0.0000000000000000000 ) ) ;
#339 = PRODUCT ( 'Micro_SBMM-020-410X', 'Micro_SBMM-020-410X', '', ( #79 ) ) ;
#340 = CARTESIAN_POINT ( 'NONE',  ( 0.0000000000000000000, 0.0000000000000000000, 2.952755999999999936 ) ) ;
#341 = FACE_OUTER_BOUND ( 'NONE', #38, .T. ) ;
#342 = DIRECTION ( 'NONE',  ( 1.000000000000000000, 0.0000000000000000000, 0.0000000000000000000 ) ) ;
#343 = EDGE_CURVE ( 'NONE', #106, #332, #29, .T. ) ;
#344 = CARTESIAN_POINT ( 'NONE',  ( 0.0000000000000000000, 0.0000000000000000000, 0.3937009999999999676 ) ) ;
#345 = CIRCLE ( 'NONE', #187, 0.02559049999999998132 ) ;
ENDSEC;
END-ISO-10303-21;
