ISO-10303-21;
HEADER;
FILE_DESCRIPTION (( 'STEP AP214' ),
    '1' );
FILE_NAME ('82522.STEP',
    '2023-06-23T06:02:09',
    ( '' ),
    ( '' ),
    'SwSTEP 2.0',
    'SolidWorks 2023',
    '' );
FILE_SCHEMA (( 'AUTOMOTIVE_DESIGN' ));
ENDSEC;

DATA;
#1 = CARTESIAN_POINT ( 'NONE',  ( 3.061616997868383018E-17, 0.000000000000000000, 0.2500000000000000000 ) ) ;
#2 = MANIFOLD_SOLID_BREP ( 'Revolve - Cutting Edge', #260 ) ;
#3 = CIRCLE ( 'NONE', #264, 0.2500000000000000000 ) ;
#4 =( NAMED_UNIT ( * ) PLANE_ANGLE_UNIT ( ) SI_UNIT ( $, .RADIAN. ) );
#5 = ORIENTED_EDGE ( 'NONE', *, *, #41, .F. ) ;
#6 = EDGE_CURVE ( 'NONE', #201, #158, #246, .T. ) ;
#7 =( NAMED_UNIT ( * ) SI_UNIT ( $, .STERADIAN. ) SOLID_ANGLE_UNIT ( ) );
#8 =( NAMED_UNIT ( * ) SI_UNIT ( $, .STERADIAN. ) SOLID_ANGLE_UNIT ( ) );
#9 = STYLED_ITEM ( 'NONE', ( #155 ), #243 ) ;
#10 = SURFACE_STYLE_FILL_AREA ( #134 ) ;
#11 = DIRECTION ( 'NONE',  ( -8.519282081025069112E-17, 1.000000000000000000, -0.000000000000000000 ) ) ;
#12 = LENGTH_MEASURE_WITH_UNIT ( LENGTH_MEASURE( 0.02539999999999999897 ), #89 );
#13 =( CONVERSION_BASED_UNIT ( 'INCH', #23 ) LENGTH_UNIT ( ) NAMED_UNIT ( #24 ) );
#14 = DIRECTION ( 'NONE',  ( -1.000000000000000000, 0.000000000000000000, 0.000000000000000000 ) ) ;
#15 = EDGE_CURVE ( 'NONE', #25, #233, #255, .T. ) ;
#16 = PRESENTATION_LAYER_ASSIGNMENT (  '', '', ( #9 ) ) ;
#17 = PRODUCT_DEFINITION_FORMATION_WITH_SPECIFIED_SOURCE ( 'ANY', '', #208, .NOT_KNOWN. ) ;
#18 = DIRECTION ( 'NONE',  ( -8.519282081025069112E-17, 1.000000000000000000, -0.000000000000000000 ) ) ;
#19 = DIRECTION ( 'NONE',  ( -1.000000000000000000, 0.000000000000000000, 0.000000000000000000 ) ) ;
#20 =( CONVERSION_BASED_UNIT ( 'INCH', #12 ) LENGTH_UNIT ( ) NAMED_UNIT ( #300 ) );
#21 = CARTESIAN_POINT ( 'NONE',  ( -2.449293598294707400E-16, 6.000000000000000888, 0.000000000000000000 ) ) ;
#22 = AXIS2_PLACEMENT_3D ( 'NONE', #48, #184, #53 ) ;
#23 = LENGTH_MEASURE_WITH_UNIT ( LENGTH_MEASURE( 0.02539999999999999897 ), #110 );
#24 = DIMENSIONAL_EXPONENTS ( 1.000000000000000000, 0.000000000000000000, 0.000000000000000000, 0.000000000000000000, 0.000000000000000000, 0.000000000000000000, 0.000000000000000000 ) ;
#25 = VERTEX_POINT ( 'NONE', #1 ) ;
#26 = DIMENSIONAL_EXPONENTS ( 1.000000000000000000, 0.000000000000000000, 0.000000000000000000, 0.000000000000000000, 0.000000000000000000, 0.000000000000000000, 0.000000000000000000 ) ;
#27 =( LENGTH_UNIT ( ) NAMED_UNIT ( * ) SI_UNIT ( $, .METRE. ) );
#28 = PRESENTATION_LAYER_ASSIGNMENT (  '', '', ( #199 ) ) ;
#29 = ADVANCED_FACE ( 'NONE', ( #56 ), #175, .T. ) ;
#30 = CYLINDRICAL_SURFACE ( 'NONE', #139, 0.2500000000000001110 ) ;
#31 = PRESENTATION_STYLE_ASSIGNMENT (( #168 ) ) ;
#32 =( GEOMETRIC_REPRESENTATION_CONTEXT ( 3 ) GLOBAL_UNCERTAINTY_ASSIGNED_CONTEXT ( ( #77 ) ) GLOBAL_UNIT_ASSIGNED_CONTEXT ( ( #149, #196, #133 ) ) REPRESENTATION_CONTEXT ( 'NONE', 'WORKASPACE' ) );
#33 = ORIENTED_EDGE ( 'NONE', *, *, #204, .F. ) ;
#34 = CARTESIAN_POINT ( 'NONE',  ( 9.072270897009353870E-34, 3.125000000000000000, 0.000000000000000000 ) ) ;
#35 = FILL_AREA_STYLE ('',( #146 ) ) ;
#36 = DIRECTION ( 'NONE',  ( 0.000000000000000000, -1.000000000000000000, -0.000000000000000000 ) ) ;
#37 = VECTOR ( 'NONE', #42, 39.37007874015748143 ) ;
#38 = DIRECTION ( 'NONE',  ( 0.000000000000000000, 1.000000000000000000, 0.000000000000000000 ) ) ;
#39 =( CONVERSION_BASED_UNIT ( 'INCH', #288 ) LENGTH_UNIT ( ) NAMED_UNIT ( #164 ) );
#40 = FILL_AREA_STYLE_COLOUR ( '', #307 ) ;
#41 = EDGE_CURVE ( 'NONE', #265, #154, #124, .T. ) ;
#42 = DIRECTION ( 'NONE',  ( -8.519282081025069112E-17, 1.000000000000000000, -0.000000000000000000 ) ) ;
#43 = LINE ( 'NONE', #197, #180 ) ;
#44 =( GEOMETRIC_REPRESENTATION_CONTEXT ( 3 ) GLOBAL_UNCERTAINTY_ASSIGNED_CONTEXT ( ( #55 ) ) GLOBAL_UNIT_ASSIGNED_CONTEXT ( ( #13, #200, #298 ) ) REPRESENTATION_CONTEXT ( 'NONE', 'WORKASPACE' ) );
#45 = DIRECTION ( 'NONE',  ( 0.000000000000000000, 0.000000000000000000, -1.000000000000000000 ) ) ;
#46 = VERTEX_POINT ( 'NONE', #271 ) ;
#47 = CYLINDRICAL_SURFACE ( 'NONE', #256, 0.2500000000000000000 ) ;
#48 = CARTESIAN_POINT ( 'NONE',  ( 0.000000000000000000, 0.000000000000000000, 0.000000000000000000 ) ) ;
#49 = UNCERTAINTY_MEASURE_WITH_UNIT (LENGTH_MEASURE( 1.000000000000000082E-05 ), #117, 'distance_accuracy_value', 'NONE');
#50 = LENGTH_MEASURE_WITH_UNIT ( LENGTH_MEASURE( 0.02539999999999999897 ), #27 );
#51 = ORIENTED_EDGE ( 'NONE', *, *, #174, .T. ) ;
#52 = ORIENTED_EDGE ( 'NONE', *, *, #248, .T. ) ;
#53 = DIRECTION ( 'NONE',  ( 0.000000000000000000, 0.000000000000000000, -1.000000000000000000 ) ) ;
#54 = ADVANCED_BREP_SHAPE_REPRESENTATION ( '82522', ( #2, #99, #119 ), #70 ) ;
#55 = UNCERTAINTY_MEASURE_WITH_UNIT (LENGTH_MEASURE( 1.000000000000000082E-05 ), #13, 'distance_accuracy_value', 'NONE');
#56 = FACE_OUTER_BOUND ( 'NONE', #123, .T. ) ;
#57 = STYLED_ITEM ( 'NONE', ( #31 ), #2 ) ;
#58 = COLOUR_RGB ( '',1.000000000000000000, 0.000000000000000000, 0.000000000000000000 ) ;
#59 = ORIENTED_EDGE ( 'NONE', *, *, #15, .F. ) ;
#60 = CARTESIAN_POINT ( 'NONE',  ( 0.000000000000000000, 0.000000000000000000, 0.000000000000000000 ) ) ;
#61 = SURFACE_STYLE_FILL_AREA ( #66 ) ;
#62 = CYLINDRICAL_SURFACE ( 'NONE', #22, 0.2500000000000000000 ) ;
#63 = CARTESIAN_POINT ( 'NONE',  ( 0.2500000000000000000, 3.125000000000000000, 3.061616997868385483E-17 ) ) ;
#64 = DIRECTION ( 'NONE',  ( 0.000000000000000000, -0.000000000000000000, 1.000000000000000000 ) ) ;
#65 = FACE_OUTER_BOUND ( 'NONE', #140, .T. ) ;
#66 = FILL_AREA_STYLE ('',( #104 ) ) ;
#67 = CARTESIAN_POINT ( 'NONE',  ( 0.000000000000000000, 3.125000000000000000, 0.000000000000000000 ) ) ;
#68 = PRESENTATION_STYLE_ASSIGNMENT (( #295 ) ) ;
#69 = MECHANICAL_DESIGN_GEOMETRIC_PRESENTATION_REPRESENTATION (  '', ( #199 ), #294 ) ;
#70 =( GEOMETRIC_REPRESENTATION_CONTEXT ( 3 ) GLOBAL_UNCERTAINTY_ASSIGNED_CONTEXT ( ( #92 ) ) GLOBAL_UNIT_ASSIGNED_CONTEXT ( ( #39, #285, #7 ) ) REPRESENTATION_CONTEXT ( 'NONE', 'WORKASPACE' ) );
#71 = APPLICATION_CONTEXT ( 'automotive_design' ) ;
#72 = PRODUCT_DEFINITION_CONTEXT ( 'detailed design', #254, 'design' ) ;
#73 = FACE_OUTER_BOUND ( 'NONE', #206, .T. ) ;
#74 = SURFACE_STYLE_USAGE ( .BOTH. , #224 ) ;
#75 = PRESENTATION_LAYER_ASSIGNMENT (  '', '', ( #282 ) ) ;
#76 = PRESENTATION_STYLE_ASSIGNMENT (( #74 ) ) ;
#77 = UNCERTAINTY_MEASURE_WITH_UNIT (LENGTH_MEASURE( 1.000000000000000082E-05 ), #149, 'distance_accuracy_value', 'NONE');
#78 = EDGE_CURVE ( 'NONE', #158, #201, #283, .T. ) ;
#79 = AXIS2_PLACEMENT_3D ( 'NONE', #236, #189, #169 ) ;
#80 = EDGE_LOOP ( 'NONE', ( #281, #173, #127, #251 ) ) ;
#81 =( LENGTH_UNIT ( ) NAMED_UNIT ( * ) SI_UNIT ( $, .METRE. ) );
#82 = SURFACE_STYLE_FILL_AREA ( #35 ) ;
#83 = ORIENTED_EDGE ( 'NONE', *, *, #41, .T. ) ;
#84 = EDGE_CURVE ( 'NONE', #265, #233, #43, .T. ) ;
#85 = AXIS2_PLACEMENT_3D ( 'NONE', #96, #165, #163 ) ;
#86 = DIRECTION ( 'NONE',  ( 0.000000000000000000, 0.000000000000000000, 1.000000000000000000 ) ) ;
#87 = DIRECTION ( 'NONE',  ( -0.000000000000000000, -1.000000000000000000, -0.000000000000000000 ) ) ;
#88 = COLOUR_RGB ( '',1.000000000000000000, 0.000000000000000000, 0.000000000000000000 ) ;
#89 =( LENGTH_UNIT ( ) NAMED_UNIT ( * ) SI_UNIT ( $, .METRE. ) );
#90 = SURFACE_STYLE_USAGE ( .BOTH. , #273 ) ;
#91 = ORIENTED_EDGE ( 'NONE', *, *, #248, .F. ) ;
#92 = UNCERTAINTY_MEASURE_WITH_UNIT (LENGTH_MEASURE( 1.000000000000000082E-05 ), #39, 'distance_accuracy_value', 'NONE');
#93 = SURFACE_STYLE_USAGE ( .BOTH. , #223 ) ;
#94 = MECHANICAL_DESIGN_GEOMETRIC_PRESENTATION_REPRESENTATION (  '', ( #215 ), #44 ) ;
#95 = CARTESIAN_POINT ( 'NONE',  ( -0.2500000000000000000, 3.125000000000000000, 0.000000000000000000 ) ) ;
#96 = CARTESIAN_POINT ( 'NONE',  ( 0.2500000000000000000, 6.000000000000000888, 0.000000000000000000 ) ) ;
#97 = SURFACE_STYLE_USAGE ( .BOTH. , #239 ) ;
#98 = AXIS2_PLACEMENT_3D ( 'NONE', #21, #250, #113 ) ;
#99 = MANIFOLD_SOLID_BREP ( 'Revolve - Tool Body (Straight Shanked)', #166 ) ;
#100 = APPLICATION_PROTOCOL_DEFINITION ( 'draft international standard', 'automotive_design', 1998, #71 ) ;
#101 = DIRECTION ( 'NONE',  ( -0.000000000000000000, -1.000000000000000000, -0.000000000000000000 ) ) ;
#102 = LINE ( 'NONE', #217, #280 ) ;
#103 = CARTESIAN_POINT ( 'NONE',  ( 0.000000000000000000, 0.000000000000000000, 0.000000000000000000 ) ) ;
#104 = FILL_AREA_STYLE_COLOUR ( '', #240 ) ;
#105 = CARTESIAN_POINT ( 'NONE',  ( -0.2500000000000004996, 6.000000000000000888, 0.000000000000000000 ) ) ;
#106 = CARTESIAN_POINT ( 'NONE',  ( 0.000000000000000000, 0.000000000000000000, -0.2500000000000000000 ) ) ;
#107 = MECHANICAL_DESIGN_GEOMETRIC_PRESENTATION_REPRESENTATION (  '', ( #57 ), #202 ) ;
#108 = DIRECTION ( 'NONE',  ( -0.000000000000000000, -1.000000000000000000, -0.000000000000000000 ) ) ;
#109 = AXIS2_PLACEMENT_3D ( 'NONE', #266, #209, #19 ) ;
#110 =( LENGTH_UNIT ( ) NAMED_UNIT ( * ) SI_UNIT ( $, .METRE. ) );
#111 = DIRECTION ( 'NONE',  ( -0.000000000000000000, -1.000000000000000000, -0.000000000000000000 ) ) ;
#112 = ORIENTED_EDGE ( 'NONE', *, *, #253, .T. ) ;
#113 = DIRECTION ( 'NONE',  ( -1.000000000000000000, 0.000000000000000000, 0.000000000000000000 ) ) ;
#114 = AXIS2_PLACEMENT_3D ( 'NONE', #103, #287, #262 ) ;
#115 = VERTEX_POINT ( 'NONE', #105 ) ;
#116 = CARTESIAN_POINT ( 'NONE',  ( 0.000000000000000000, 3.125000000000000000, -0.2500000000000000000 ) ) ;
#117 =( CONVERSION_BASED_UNIT ( 'INCH', #50 ) LENGTH_UNIT ( ) NAMED_UNIT ( #162 ) );
#118 = AXIS2_PLACEMENT_3D ( 'NONE', #34, #128, #242 ) ;
#119 = AXIS2_PLACEMENT_3D ( 'NONE', #290, #86, #270 ) ;
#120 = PRODUCT_RELATED_PRODUCT_CATEGORY ( 'part', '', ( #208 ) ) ;
#121 = SURFACE_STYLE_FILL_AREA ( #237 ) ;
#122 =( NAMED_UNIT ( * ) PLANE_ANGLE_UNIT ( ) SI_UNIT ( $, .RADIAN. ) );
#123 = EDGE_LOOP ( 'NONE', ( #112, #258 ) ) ;
#124 = CIRCLE ( 'NONE', #167, 0.2500000000000000000 ) ;
#125 = PRODUCT_DEFINITION ( 'UNKNOWN', '', #17, #72 ) ;
#126 =( CONVERSION_BASED_UNIT ( 'INCH', #190 ) LENGTH_UNIT ( ) NAMED_UNIT ( #232 ) );
#127 = ORIENTED_EDGE ( 'NONE', *, *, #306, .F. ) ;
#128 = DIRECTION ( 'NONE',  ( -8.519282081025069112E-17, 1.000000000000000000, 0.000000000000000000 ) ) ;
#129 = CARTESIAN_POINT ( 'NONE',  ( 3.061616997868383018E-17, 0.000000000000000000, 0.2500000000000000000 ) ) ;
#130 = ADVANCED_FACE ( 'NONE', ( #228 ), #192, .T. ) ;
#131 = MECHANICAL_DESIGN_GEOMETRIC_PRESENTATION_REPRESENTATION (  '', ( #282 ), #261 ) ;
#132 = CARTESIAN_POINT ( 'NONE',  ( -2.449293598294707400E-16, 6.000000000000000888, 0.000000000000000000 ) ) ;
#133 =( NAMED_UNIT ( * ) SI_UNIT ( $, .STERADIAN. ) SOLID_ANGLE_UNIT ( ) );
#134 = FILL_AREA_STYLE ('',( #218 ) ) ;
#135 = SURFACE_STYLE_FILL_AREA ( #179 ) ;
#136 = ORIENTED_EDGE ( 'NONE', *, *, #84, .F. ) ;
#137 = CARTESIAN_POINT ( 'NONE',  ( 0.000000000000000000, 0.000000000000000000, 0.000000000000000000 ) ) ;
#138 =( NAMED_UNIT ( * ) PLANE_ANGLE_UNIT ( ) SI_UNIT ( $, .RADIAN. ) );
#139 = AXIS2_PLACEMENT_3D ( 'NONE', #222, #18, #213 ) ;
#140 = EDGE_LOOP ( 'NONE', ( #5, #205 ) ) ;
#141 = EDGE_CURVE ( 'NONE', #158, #115, #198, .T. ) ;
#142 = EDGE_LOOP ( 'NONE', ( #33, #279, #305, #91 ) ) ;
#143 = AXIS2_PLACEMENT_3D ( 'NONE', #219, #38, #64 ) ;
#144 = AXIS2_PLACEMENT_3D ( 'NONE', #60, #36, #276 ) ;
#145 = FACE_OUTER_BOUND ( 'NONE', #142, .T. ) ;
#146 = FILL_AREA_STYLE_COLOUR ( '', #88 ) ;
#147 = CIRCLE ( 'NONE', #289, 0.2500000000000000000 ) ;
#148 =( LENGTH_UNIT ( ) NAMED_UNIT ( * ) SI_UNIT ( $, .METRE. ) );
#149 =( CONVERSION_BASED_UNIT ( 'INCH', #252 ) LENGTH_UNIT ( ) NAMED_UNIT ( #304 ) );
#150 = CARTESIAN_POINT ( 'NONE',  ( 0.000000000000000000, 3.125000000000000000, 0.000000000000000000 ) ) ;
#151 = PRESENTATION_LAYER_ASSIGNMENT (  '', '', ( #57 ) ) ;
#152 = COLOUR_RGB ( '',1.000000000000000000, 0.000000000000000000, 0.000000000000000000 ) ;
#153 = PLANE ( 'NONE',  #143 ) ;
#154 = VERTEX_POINT ( 'NONE', #268 ) ;
#155 = PRESENTATION_STYLE_ASSIGNMENT (( #90 ) ) ;
#156 = STYLED_ITEM ( 'NONE', ( #76 ), #157 ) ;
#157 = ADVANCED_FACE ( 'NONE', ( #177 ), #62, .T. ) ;
#158 = VERTEX_POINT ( 'NONE', #95 ) ;
#159 = PRESENTATION_LAYER_ASSIGNMENT (  '', '', ( #156 ) ) ;
#160 = ORIENTED_EDGE ( 'NONE', *, *, #84, .T. ) ;
#161 =( NAMED_UNIT ( * ) SI_UNIT ( $, .STERADIAN. ) SOLID_ANGLE_UNIT ( ) );
#162 = DIMENSIONAL_EXPONENTS ( 1.000000000000000000, 0.000000000000000000, 0.000000000000000000, 0.000000000000000000, 0.000000000000000000, 0.000000000000000000, 0.000000000000000000 ) ;
#163 = DIRECTION ( 'NONE',  ( 1.000000000000000000, 8.519282081025069112E-17, 0.000000000000000000 ) ) ;
#164 = DIMENSIONAL_EXPONENTS ( 1.000000000000000000, 0.000000000000000000, 0.000000000000000000, 0.000000000000000000, 0.000000000000000000, 0.000000000000000000, 0.000000000000000000 ) ;
#165 = DIRECTION ( 'NONE',  ( 8.519282081025069112E-17, -1.000000000000000000, 0.000000000000000000 ) ) ;
#166 = CLOSED_SHELL ( 'NONE', ( #130, #286, #183, #269 ) ) ;
#167 = AXIS2_PLACEMENT_3D ( 'NONE', #67, #111, #293 ) ;
#168 = SURFACE_STYLE_USAGE ( .BOTH. , #214 ) ;
#169 = DIRECTION ( 'NONE',  ( -1.000000000000000000, 0.000000000000000000, 0.000000000000000000 ) ) ;
#170 = ORIENTED_EDGE ( 'NONE', *, *, #187, .T. ) ;
#171 = LENGTH_MEASURE_WITH_UNIT ( LENGTH_MEASURE( 0.02539999999999999897 ), #81 );
#172 = COLOUR_RGB ( '',0.7921568627450980005, 0.8196078431372548767, 0.9333333333333333481 ) ;
#173 = ORIENTED_EDGE ( 'NONE', *, *, #204, .T. ) ;
#174 = EDGE_CURVE ( 'NONE', #154, #25, #231, .T. ) ;
#175 = PLANE ( 'NONE',  #144 ) ;
#176 = APPLICATION_PROTOCOL_DEFINITION ( 'draft international standard', 'automotive_design', 1998, #254 ) ;
#177 = FACE_OUTER_BOUND ( 'NONE', #235, .T. ) ;
#178 = CARTESIAN_POINT ( 'NONE',  ( 0.000000000000000000, 3.125000000000000000, 0.000000000000000000 ) ) ;
#179 = FILL_AREA_STYLE ('',( #296 ) ) ;
#180 = VECTOR ( 'NONE', #87, 39.37007874015748143 ) ;
#181 = UNCERTAINTY_MEASURE_WITH_UNIT (LENGTH_MEASURE( 1.000000000000000082E-05 ), #191, 'distance_accuracy_value', 'NONE');
#182 = MECHANICAL_DESIGN_GEOMETRIC_PRESENTATION_REPRESENTATION (  '', ( #9 ), #32 ) ;
#183 = ADVANCED_FACE ( 'NONE', ( #145 ), #30, .T. ) ;
#184 = DIRECTION ( 'NONE',  ( -0.000000000000000000, -1.000000000000000000, -0.000000000000000000 ) ) ;
#185 = UNCERTAINTY_MEASURE_WITH_UNIT (LENGTH_MEASURE( 1.000000000000000082E-05 ), #20, 'distance_accuracy_value', 'NONE');
#186 = EDGE_LOOP ( 'NONE', ( #308, #241 ) ) ;
#187 = EDGE_CURVE ( 'NONE', #154, #265, #3, .T. ) ;
#188 = AXIS2_PLACEMENT_3D ( 'NONE', #150, #227, #14 ) ;
#189 = DIRECTION ( 'NONE',  ( -8.519282081025069112E-17, 1.000000000000000000, -0.000000000000000000 ) ) ;
#190 = LENGTH_MEASURE_WITH_UNIT ( LENGTH_MEASURE( 0.02539999999999999897 ), #148 );
#191 =( CONVERSION_BASED_UNIT ( 'INCH', #171 ) LENGTH_UNIT ( ) NAMED_UNIT ( #26 ) );
#192 = CYLINDRICAL_SURFACE ( 'NONE', #98, 0.2500000000000001110 ) ;
#193 =( LENGTH_UNIT ( ) NAMED_UNIT ( * ) SI_UNIT ( $, .METRE. ) );
#194 = PRESENTATION_STYLE_ASSIGNMENT (( #93 ) ) ;
#195 = SURFACE_SIDE_STYLE ('',( #221 ) ) ;
#196 =( NAMED_UNIT ( * ) PLANE_ANGLE_UNIT ( ) SI_UNIT ( $, .RADIAN. ) );
#197 = CARTESIAN_POINT ( 'NONE',  ( 0.000000000000000000, 0.000000000000000000, -0.2500000000000000000 ) ) ;
#198 = LINE ( 'NONE', #299, #37 ) ;
#199 = STYLED_ITEM ( 'NONE', ( #68 ), #99 ) ;
#200 =( NAMED_UNIT ( * ) PLANE_ANGLE_UNIT ( ) SI_UNIT ( $, .RADIAN. ) );
#201 = VERTEX_POINT ( 'NONE', #63 ) ;
#202 =( GEOMETRIC_REPRESENTATION_CONTEXT ( 3 ) GLOBAL_UNCERTAINTY_ASSIGNED_CONTEXT ( ( #181 ) ) GLOBAL_UNIT_ASSIGNED_CONTEXT ( ( #191, #122, #8 ) ) REPRESENTATION_CONTEXT ( 'NONE', 'WORKASPACE' ) );
#203 = FACE_OUTER_BOUND ( 'NONE', #284, .T. ) ;
#204 = EDGE_CURVE ( 'NONE', #201, #46, #102, .T. ) ;
#205 = ORIENTED_EDGE ( 'NONE', *, *, #187, .F. ) ;
#206 = EDGE_LOOP ( 'NONE', ( #83, #51, #210, #136 ) ) ;
#207 = MECHANICAL_DESIGN_GEOMETRIC_PRESENTATION_REPRESENTATION (  '', ( #156 ), #247 ) ;
#208 = PRODUCT ( '82522', '82522', '', ( #238 ) ) ;
#209 = DIRECTION ( 'NONE',  ( -8.519282081025069112E-17, 1.000000000000000000, -0.000000000000000000 ) ) ;
#210 = ORIENTED_EDGE ( 'NONE', *, *, #253, .F. ) ;
#211 =( NAMED_UNIT ( * ) SI_UNIT ( $, .STERADIAN. ) SOLID_ANGLE_UNIT ( ) );
#212 = DIRECTION ( 'NONE',  ( -8.519282081025069112E-17, 1.000000000000000000, -0.000000000000000000 ) ) ;
#213 = DIRECTION ( 'NONE',  ( -1.000000000000000000, 0.000000000000000000, 0.000000000000000000 ) ) ;
#214 = SURFACE_SIDE_STYLE ('',( #121 ) ) ;
#215 = STYLED_ITEM ( 'NONE', ( #194 ), #259 ) ;
#216 = AXIS2_PLACEMENT_3D ( 'NONE', #132, #212, #292 ) ;
#217 = CARTESIAN_POINT ( 'NONE',  ( 0.2499999999999998890, 6.000000000000000888, 3.061616997868384251E-17 ) ) ;
#218 = FILL_AREA_STYLE_COLOUR ( '', #152 ) ;
#219 = CARTESIAN_POINT ( 'NONE',  ( 0.000000000000000000, 3.125000000000000000, 0.000000000000000000 ) ) ;
#220 =( LENGTH_UNIT ( ) NAMED_UNIT ( * ) SI_UNIT ( $, .METRE. ) );
#221 = SURFACE_STYLE_FILL_AREA ( #297 ) ;
#222 = CARTESIAN_POINT ( 'NONE',  ( -2.449293598294707400E-16, 6.000000000000000888, 0.000000000000000000 ) ) ;
#223 = SURFACE_SIDE_STYLE ('',( #135 ) ) ;
#224 = SURFACE_SIDE_STYLE ('',( #10 ) ) ;
#225 = PRESENTATION_LAYER_ASSIGNMENT (  '', '', ( #215 ) ) ;
#226 = CIRCLE ( 'NONE', #216, 0.2500000000000002220 ) ;
#227 = DIRECTION ( 'NONE',  ( -8.519282081025069112E-17, 1.000000000000000000, -0.000000000000000000 ) ) ;
#228 = FACE_OUTER_BOUND ( 'NONE', #80, .T. ) ;
#229 = PRODUCT_DEFINITION_SHAPE ( 'NONE', 'NONE',  #125 ) ;
#230 = CARTESIAN_POINT ( 'NONE',  ( 0.000000000000000000, 0.000000000000000000, 0.000000000000000000 ) ) ;
#231 = LINE ( 'NONE', #129, #272 ) ;
#232 = DIMENSIONAL_EXPONENTS ( 1.000000000000000000, 0.000000000000000000, 0.000000000000000000, 0.000000000000000000, 0.000000000000000000, 0.000000000000000000, 0.000000000000000000 ) ;
#233 = VERTEX_POINT ( 'NONE', #106 ) ;
#234 = CIRCLE ( 'NONE', #109, 0.2500000000000002220 ) ;
#235 = EDGE_LOOP ( 'NONE', ( #278, #170, #160, #59 ) ) ;
#236 = CARTESIAN_POINT ( 'NONE',  ( 0.000000000000000000, 3.125000000000000000, 0.000000000000000000 ) ) ;
#237 = FILL_AREA_STYLE ('',( #244 ) ) ;
#238 = PRODUCT_CONTEXT ( 'NONE', #71, 'mechanical' ) ;
#239 = SURFACE_SIDE_STYLE ('',( #82 ) ) ;
#240 = COLOUR_RGB ( '',1.000000000000000000, 0.000000000000000000, 0.000000000000000000 ) ;
#241 = ORIENTED_EDGE ( 'NONE', *, *, #6, .F. ) ;
#242 = DIRECTION ( 'NONE',  ( -1.000000000000000000, -8.519282081025069112E-17, 0.000000000000000000 ) ) ;
#243 = ADVANCED_FACE ( 'NONE', ( #65 ), #153, .T. ) ;
#244 = FILL_AREA_STYLE_COLOUR ( '', #172 ) ;
#245 = PLANE ( 'NONE',  #118 ) ;
#246 = CIRCLE ( 'NONE', #79, 0.2500000000000000000 ) ;
#247 =( GEOMETRIC_REPRESENTATION_CONTEXT ( 3 ) GLOBAL_UNCERTAINTY_ASSIGNED_CONTEXT ( ( #49 ) ) GLOBAL_UNIT_ASSIGNED_CONTEXT ( ( #117, #138, #161 ) ) REPRESENTATION_CONTEXT ( 'NONE', 'WORKASPACE' ) );
#248 = EDGE_CURVE ( 'NONE', #46, #115, #234, .T. ) ;
#249 = DIRECTION ( 'NONE',  ( -0.000000000000000000, -1.000000000000000000, -0.000000000000000000 ) ) ;
#250 = DIRECTION ( 'NONE',  ( -8.519282081025069112E-17, 1.000000000000000000, -0.000000000000000000 ) ) ;
#251 = ORIENTED_EDGE ( 'NONE', *, *, #141, .F. ) ;
#252 = LENGTH_MEASURE_WITH_UNIT ( LENGTH_MEASURE( 0.02539999999999999897 ), #193 );
#253 = EDGE_CURVE ( 'NONE', #233, #25, #147, .T. ) ;
#254 = APPLICATION_CONTEXT ( 'automotive_design' ) ;
#255 = CIRCLE ( 'NONE', #114, 0.2500000000000000000 ) ;
#256 = AXIS2_PLACEMENT_3D ( 'NONE', #137, #249, #301 ) ;
#257 = DIRECTION ( 'NONE',  ( -0.000000000000000000, -1.000000000000000000, -0.000000000000000000 ) ) ;
#258 = ORIENTED_EDGE ( 'NONE', *, *, #15, .T. ) ;
#259 = ADVANCED_FACE ( 'NONE', ( #73 ), #47, .T. ) ;
#260 = CLOSED_SHELL ( 'NONE', ( #259, #243, #157, #29 ) ) ;
#261 =( GEOMETRIC_REPRESENTATION_CONTEXT ( 3 ) GLOBAL_UNCERTAINTY_ASSIGNED_CONTEXT ( ( #302 ) ) GLOBAL_UNIT_ASSIGNED_CONTEXT ( ( #126, #4, #211 ) ) REPRESENTATION_CONTEXT ( 'NONE', 'WORKASPACE' ) );
#262 = DIRECTION ( 'NONE',  ( 0.000000000000000000, 0.000000000000000000, -1.000000000000000000 ) ) ;
#263 = ORIENTED_EDGE ( 'NONE', *, *, #306, .T. ) ;
#264 = AXIS2_PLACEMENT_3D ( 'NONE', #178, #108, #275 ) ;
#265 = VERTEX_POINT ( 'NONE', #116 ) ;
#266 = CARTESIAN_POINT ( 'NONE',  ( -2.449293598294707400E-16, 6.000000000000000888, 0.000000000000000000 ) ) ;
#267 = SHAPE_DEFINITION_REPRESENTATION ( #229, #54 ) ;
#268 = CARTESIAN_POINT ( 'NONE',  ( 3.061616997868383018E-17, 3.125000000000000000, 0.2500000000000000000 ) ) ;
#269 = ADVANCED_FACE ( 'NONE', ( #203 ), #303, .F. ) ;
#270 = DIRECTION ( 'NONE',  ( 1.000000000000000000, 0.000000000000000000, 0.000000000000000000 ) ) ;
#271 = CARTESIAN_POINT ( 'NONE',  ( 0.2500000000000000000, 6.000000000000000888, 3.061616997868385483E-17 ) ) ;
#272 = VECTOR ( 'NONE', #101, 39.37007874015748143 ) ;
#273 = SURFACE_SIDE_STYLE ('',( #61 ) ) ;
#274 =( NAMED_UNIT ( * ) PLANE_ANGLE_UNIT ( ) SI_UNIT ( $, .RADIAN. ) );
#275 = DIRECTION ( 'NONE',  ( 0.000000000000000000, 0.000000000000000000, -1.000000000000000000 ) ) ;
#276 = DIRECTION ( 'NONE',  ( 0.000000000000000000, 0.000000000000000000, -1.000000000000000000 ) ) ;
#277 =( NAMED_UNIT ( * ) SI_UNIT ( $, .STERADIAN. ) SOLID_ANGLE_UNIT ( ) );
#278 = ORIENTED_EDGE ( 'NONE', *, *, #174, .F. ) ;
#279 = ORIENTED_EDGE ( 'NONE', *, *, #6, .T. ) ;
#280 = VECTOR ( 'NONE', #11, 39.37007874015748143 ) ;
#281 = ORIENTED_EDGE ( 'NONE', *, *, #78, .T. ) ;
#282 = STYLED_ITEM ( 'NONE', ( #291 ), #29 ) ;
#283 = CIRCLE ( 'NONE', #188, 0.2500000000000000000 ) ;
#284 = EDGE_LOOP ( 'NONE', ( #263, #52 ) ) ;
#285 =( NAMED_UNIT ( * ) PLANE_ANGLE_UNIT ( ) SI_UNIT ( $, .RADIAN. ) );
#286 = ADVANCED_FACE ( 'NONE', ( #309 ), #245, .F. ) ;
#287 = DIRECTION ( 'NONE',  ( -0.000000000000000000, -1.000000000000000000, -0.000000000000000000 ) ) ;
#288 = LENGTH_MEASURE_WITH_UNIT ( LENGTH_MEASURE( 0.02539999999999999897 ), #220 );
#289 = AXIS2_PLACEMENT_3D ( 'NONE', #230, #257, #45 ) ;
#290 = CARTESIAN_POINT ( 'NONE',  ( 0.000000000000000000, 0.000000000000000000, 0.000000000000000000 ) ) ;
#291 = PRESENTATION_STYLE_ASSIGNMENT (( #97 ) ) ;
#292 = DIRECTION ( 'NONE',  ( -1.000000000000000000, 0.000000000000000000, 0.000000000000000000 ) ) ;
#293 = DIRECTION ( 'NONE',  ( 0.000000000000000000, 0.000000000000000000, -1.000000000000000000 ) ) ;
#294 =( GEOMETRIC_REPRESENTATION_CONTEXT ( 3 ) GLOBAL_UNCERTAINTY_ASSIGNED_CONTEXT ( ( #185 ) ) GLOBAL_UNIT_ASSIGNED_CONTEXT ( ( #20, #274, #277 ) ) REPRESENTATION_CONTEXT ( 'NONE', 'WORKASPACE' ) );
#295 = SURFACE_STYLE_USAGE ( .BOTH. , #195 ) ;
#296 = FILL_AREA_STYLE_COLOUR ( '', #58 ) ;
#297 = FILL_AREA_STYLE ('',( #40 ) ) ;
#298 =( NAMED_UNIT ( * ) SI_UNIT ( $, .STERADIAN. ) SOLID_ANGLE_UNIT ( ) );
#299 = CARTESIAN_POINT ( 'NONE',  ( -0.2500000000000003886, 6.000000000000000888, 0.000000000000000000 ) ) ;
#300 = DIMENSIONAL_EXPONENTS ( 1.000000000000000000, 0.000000000000000000, 0.000000000000000000, 0.000000000000000000, 0.000000000000000000, 0.000000000000000000, 0.000000000000000000 ) ;
#301 = DIRECTION ( 'NONE',  ( 0.000000000000000000, 0.000000000000000000, -1.000000000000000000 ) ) ;
#302 = UNCERTAINTY_MEASURE_WITH_UNIT (LENGTH_MEASURE( 1.000000000000000082E-05 ), #126, 'distance_accuracy_value', 'NONE');
#303 = PLANE ( 'NONE',  #85 ) ;
#304 = DIMENSIONAL_EXPONENTS ( 1.000000000000000000, 0.000000000000000000, 0.000000000000000000, 0.000000000000000000, 0.000000000000000000, 0.000000000000000000, 0.000000000000000000 ) ;
#305 = ORIENTED_EDGE ( 'NONE', *, *, #141, .T. ) ;
#306 = EDGE_CURVE ( 'NONE', #115, #46, #226, .T. ) ;
#307 = COLOUR_RGB ( '',0.7921568627450980005, 0.8196078431372548767, 0.9333333333333333481 ) ;
#308 = ORIENTED_EDGE ( 'NONE', *, *, #78, .F. ) ;
#309 = FACE_OUTER_BOUND ( 'NONE', #186, .T. ) ;
ENDSEC;
END-ISO-10303-21;
