ISO-10303-21;
HEADER;
FILE_DESCRIPTION (( 'STEP AP214' ),
    '1' );
FILE_NAME ('59710.STEP',
    '2023-07-24T15:27:04',
    ( '' ),
    ( '' ),
    'SwSTEP 2.0',
    'SolidWorks 2023',
    '' );
FILE_SCHEMA (( 'AUTOMOTIVE_DESIGN' ));
ENDSEC;

DATA;
#1 = DIRECTION ( 'NONE',  ( -1.208874916035850209E-16, 1.000000000000000000, -0.000000000000000000 ) ) ;
#2 = DIRECTION ( 'NONE',  ( -1.208874916035850209E-16, 1.000000000000000000, -0.000000000000000000 ) ) ;
#3 = COLOUR_RGB ( '',0.7921568627450980005, 0.8196078431372548767, 0.9333333333333333481 ) ;
#4 = DIRECTION ( 'NONE',  ( 0.000000000000000000, 0.000000000000000000, -1.000000000000000000 ) ) ;
#5 = SURFACE_STYLE_FILL_AREA ( #182 ) ;
#6 = VERTEX_POINT ( 'NONE', #142 ) ;
#7 = CARTESIAN_POINT ( 'NONE',  ( 5.421010862427522170E-15, 18.00000000000000355, 0.000000000000000000 ) ) ;
#8 = FILL_AREA_STYLE_COLOUR ( '', #220 ) ;
#9 = CARTESIAN_POINT ( 'NONE',  ( 0.000000000000000000, 0.000000000000000000, -5.500000000000000000 ) ) ;
#10 = PRESENTATION_LAYER_ASSIGNMENT (  '', '', ( #320 ) ) ;
#11 = AXIS2_PLACEMENT_3D ( 'NONE', #7, #2, #217 ) ;
#12 = PRESENTATION_LAYER_ASSIGNMENT (  '', '', ( #155 ) ) ;
#13 = SURFACE_STYLE_USAGE ( .BOTH. , #353 ) ;
#14 = VERTEX_POINT ( 'NONE', #199 ) ;
#15 = PRESENTATION_STYLE_ASSIGNMENT (( #34 ) ) ;
#16 = ADVANCED_FACE ( 'NONE', ( #226 ), #88, .T. ) ;
#17 = ORIENTED_EDGE ( 'NONE', *, *, #331, .T. ) ;
#18 = VERTEX_POINT ( 'NONE', #282 ) ;
#19 = DIRECTION ( 'NONE',  ( -0.000000000000000000, -1.000000000000000000, -0.000000000000000000 ) ) ;
#20 = AXIS2_PLACEMENT_3D ( 'NONE', #159, #1, #67 ) ;
#21 = AXIS2_PLACEMENT_3D ( 'NONE', #109, #160, #78 ) ;
#22 = EDGE_LOOP ( 'NONE', ( #146, #17 ) ) ;
#23 = PRESENTATION_STYLE_ASSIGNMENT (( #149 ) ) ;
#24 = STYLED_ITEM ( 'NONE', ( #153 ), #272 ) ;
#25 = MECHANICAL_DESIGN_GEOMETRIC_PRESENTATION_REPRESENTATION (  '', ( #155 ), #319 ) ;
#26 = SURFACE_SIDE_STYLE ('',( #96 ) ) ;
#27 = AXIS2_PLACEMENT_3D ( 'NONE', #344, #131, #4 ) ;
#28 = CIRCLE ( 'NONE', #104, 5.999999999999994671 ) ;
#29 = SURFACE_SIDE_STYLE ('',( #5 ) ) ;
#30 = DIRECTION ( 'NONE',  ( 1.000000000000000000, 1.208874916035850209E-16, 0.000000000000000000 ) ) ;
#31 = PRODUCT_DEFINITION ( 'UNKNOWN', '', #278, #184 ) ;
#32 = CYLINDRICAL_SURFACE ( 'NONE', #203, 6.000000000000000000 ) ;
#33 = FACE_OUTER_BOUND ( 'NONE', #114, .T. ) ;
#34 = SURFACE_STYLE_USAGE ( .BOTH. , #164 ) ;
#35 = CIRCLE ( 'NONE', #50, 6.000000000000000000 ) ;
#36 = COLOUR_RGB ( '',1.000000000000000000, 0.000000000000000000, 0.000000000000000000 ) ;
#37 = SURFACE_STYLE_USAGE ( .BOTH. , #29 ) ;
#38 =( LENGTH_UNIT ( ) NAMED_UNIT ( * ) SI_UNIT ( .MILLI., .METRE. ) );
#39 = CARTESIAN_POINT ( 'NONE',  ( 5.421010862427522170E-15, 18.00000000000000355, 0.000000000000000000 ) ) ;
#40 = ORIENTED_EDGE ( 'NONE', *, *, #66, .T. ) ;
#41 = STYLED_ITEM ( 'NONE', ( #103 ), #71 ) ;
#42 = DIRECTION ( 'NONE',  ( -1.208874916035850209E-16, 1.000000000000000000, 0.000000000000000000 ) ) ;
#43 = PRESENTATION_LAYER_ASSIGNMENT (  '', '', ( #79 ) ) ;
#44 = CARTESIAN_POINT ( 'NONE',  ( 0.000000000000000000, 18.00000000000000000, 0.000000000000000000 ) ) ;
#45 =( NAMED_UNIT ( * ) SI_UNIT ( $, .STERADIAN. ) SOLID_ANGLE_UNIT ( ) );
#46 = ORIENTED_EDGE ( 'NONE', *, *, #90, .T. ) ;
#47 = DIRECTION ( 'NONE',  ( -1.208874916035850209E-16, 1.000000000000000000, -0.000000000000000000 ) ) ;
#48 = ORIENTED_EDGE ( 'NONE', *, *, #93, .T. ) ;
#49 = CARTESIAN_POINT ( 'NONE',  ( 0.000000000000000000, 0.000000000000000000, 0.000000000000000000 ) ) ;
#50 = AXIS2_PLACEMENT_3D ( 'NONE', #44, #19, #113 ) ;
#51 =( NAMED_UNIT ( * ) SI_UNIT ( $, .STERADIAN. ) SOLID_ANGLE_UNIT ( ) );
#52 = AXIS2_PLACEMENT_3D ( 'NONE', #323, #242, #351 ) ;
#53 = EDGE_CURVE ( 'NONE', #139, #14, #265, .T. ) ;
#54 = PLANE ( 'NONE',  #250 ) ;
#55 = CARTESIAN_POINT ( 'NONE',  ( 0.000000000000000000, 0.5000000000000000000, -5.500000000000000000 ) ) ;
#56 = DIRECTION ( 'NONE',  ( 0.000000000000000000, 0.000000000000000000, -1.000000000000000000 ) ) ;
#57 = DIRECTION ( 'NONE',  ( 0.000000000000000000, -0.000000000000000000, 1.000000000000000000 ) ) ;
#58 =( GEOMETRIC_REPRESENTATION_CONTEXT ( 3 ) GLOBAL_UNCERTAINTY_ASSIGNED_CONTEXT ( ( #352 ) ) GLOBAL_UNIT_ASSIGNED_CONTEXT ( ( #134, #70, #97 ) ) REPRESENTATION_CONTEXT ( 'NONE', 'WORKASPACE' ) );
#59 = PRODUCT_RELATED_PRODUCT_CATEGORY ( 'part', '', ( #124 ) ) ;
#60 = UNCERTAINTY_MEASURE_WITH_UNIT (LENGTH_MEASURE( 1.000000000000000082E-05 ), #366, 'distance_accuracy_value', 'NONE');
#61 = DIRECTION ( 'NONE',  ( -0.000000000000000000, -1.000000000000000000, -0.000000000000000000 ) ) ;
#62 = CARTESIAN_POINT ( 'NONE',  ( -1.469576158976823750E-15, 75.00000000000000000, 0.000000000000000000 ) ) ;
#63 = CARTESIAN_POINT ( 'NONE',  ( 0.000000000000000000, 0.000000000000000000, -6.000000000000000000 ) ) ;
#64 = FILL_AREA_STYLE_COLOUR ( '', #306 ) ;
#65 = ORIENTED_EDGE ( 'NONE', *, *, #115, .T. ) ;
#66 = EDGE_CURVE ( 'NONE', #14, #161, #230, .T. ) ;
#67 = DIRECTION ( 'NONE',  ( -1.000000000000000000, 0.000000000000000000, 0.000000000000000000 ) ) ;
#68 = AXIS2_PLACEMENT_3D ( 'NONE', #317, #264, #126 ) ;
#69 = VECTOR ( 'NONE', #292, 1000.000000000000000 ) ;
#70 =( NAMED_UNIT ( * ) PLANE_ANGLE_UNIT ( ) SI_UNIT ( $, .RADIAN. ) );
#71 = ADVANCED_FACE ( 'NONE', ( #214 ), #210, .T. ) ;
#72 = ORIENTED_EDGE ( 'NONE', *, *, #115, .F. ) ;
#73 = PRODUCT_CONTEXT ( 'NONE', #348, 'mechanical' ) ;
#74 =( NAMED_UNIT ( * ) PLANE_ANGLE_UNIT ( ) SI_UNIT ( $, .RADIAN. ) );
#75 =( LENGTH_UNIT ( ) NAMED_UNIT ( * ) SI_UNIT ( .MILLI., .METRE. ) );
#76 = PRESENTATION_STYLE_ASSIGNMENT (( #145 ) ) ;
#77 = ORIENTED_EDGE ( 'NONE', *, *, #137, .F. ) ;
#78 = DIRECTION ( 'NONE',  ( -1.000000000000000000, 0.000000000000000000, 0.000000000000000000 ) ) ;
#79 = STYLED_ITEM ( 'NONE', ( #76 ), #157 ) ;
#80 = SURFACE_STYLE_FILL_AREA ( #106 ) ;
#81 = CARTESIAN_POINT ( 'NONE',  ( 0.000000000000000000, 18.00000000000000000, 0.000000000000000000 ) ) ;
#82 = DIRECTION ( 'NONE',  ( 0.000000000000000000, 0.000000000000000000, -1.000000000000000000 ) ) ;
#83 = ORIENTED_EDGE ( 'NONE', *, *, #314, .F. ) ;
#84 =( LENGTH_UNIT ( ) NAMED_UNIT ( * ) SI_UNIT ( .MILLI., .METRE. ) );
#85 = SURFACE_STYLE_FILL_AREA ( #297 ) ;
#86 = CIRCLE ( 'NONE', #154, 5.500000000000000000 ) ;
#87 = CARTESIAN_POINT ( 'NONE',  ( 0.000000000000000000, 0.5000000000000000000, 0.000000000000000000 ) ) ;
#88 = PLANE ( 'NONE',  #365 ) ;
#89 = ADVANCED_FACE ( 'NONE', ( #33 ), #321, .T. ) ;
#90 = EDGE_CURVE ( 'NONE', #333, #161, #86, .T. ) ;
#91 = UNCERTAINTY_MEASURE_WITH_UNIT (LENGTH_MEASURE( 1.000000000000000082E-05 ), #362, 'distance_accuracy_value', 'NONE');
#92 = DIRECTION ( 'NONE',  ( -1.000000000000000000, 0.000000000000000000, 0.000000000000000000 ) ) ;
#93 = EDGE_CURVE ( 'NONE', #18, #139, #111, .T. ) ;
#94 = EDGE_CURVE ( 'NONE', #357, #14, #261, .T. ) ;
#95 = DIRECTION ( 'NONE',  ( 0.000000000000000000, 0.000000000000000000, -1.000000000000000000 ) ) ;
#96 = SURFACE_STYLE_FILL_AREA ( #281 ) ;
#97 =( NAMED_UNIT ( * ) SI_UNIT ( $, .STERADIAN. ) SOLID_ANGLE_UNIT ( ) );
#98 = AXIS2_PLACEMENT_3D ( 'NONE', #307, #61, #233 ) ;
#99 = STYLED_ITEM ( 'NONE', ( #23 ), #277 ) ;
#100 = FILL_AREA_STYLE ('',( #325 ) ) ;
#101 = ADVANCED_FACE ( 'NONE', ( #235 ), #32, .T. ) ;
#102 =( NAMED_UNIT ( * ) SI_UNIT ( $, .STERADIAN. ) SOLID_ANGLE_UNIT ( ) );
#103 = PRESENTATION_STYLE_ASSIGNMENT (( #37 ) ) ;
#104 = AXIS2_PLACEMENT_3D ( 'NONE', #39, #295, #170 ) ;
#105 = MECHANICAL_DESIGN_GEOMETRIC_PRESENTATION_REPRESENTATION (  '', ( #360 ), #312 ) ;
#106 = FILL_AREA_STYLE ('',( #138 ) ) ;
#107 = SURFACE_STYLE_FILL_AREA ( #100 ) ;
#108 = EDGE_LOOP ( 'NONE', ( #129, #355 ) ) ;
#109 = CARTESIAN_POINT ( 'NONE',  ( -1.469576158976823750E-15, 75.00000000000000000, 0.000000000000000000 ) ) ;
#110 = ORIENTED_EDGE ( 'NONE', *, *, #53, .T. ) ;
#111 = CIRCLE ( 'NONE', #98, 6.000000000000000000 ) ;
#112 = CARTESIAN_POINT ( 'NONE',  ( 0.000000000000000000, 0.000000000000000000, 0.000000000000000000 ) ) ;
#113 = DIRECTION ( 'NONE',  ( 0.000000000000000000, 0.000000000000000000, -1.000000000000000000 ) ) ;
#114 = EDGE_LOOP ( 'NONE', ( #72, #195, #187, #335 ) ) ;
#115 = EDGE_CURVE ( 'NONE', #224, #228, #194, .T. ) ;
#116 =( NAMED_UNIT ( * ) SI_UNIT ( $, .STERADIAN. ) SOLID_ANGLE_UNIT ( ) );
#117 = ORIENTED_EDGE ( 'NONE', *, *, #94, .F. ) ;
#118 = MECHANICAL_DESIGN_GEOMETRIC_PRESENTATION_REPRESENTATION (  '', ( #79 ), #301 ) ;
#119 =( NAMED_UNIT ( * ) PLANE_ANGLE_UNIT ( ) SI_UNIT ( $, .RADIAN. ) );
#120 =( GEOMETRIC_REPRESENTATION_CONTEXT ( 3 ) GLOBAL_UNCERTAINTY_ASSIGNED_CONTEXT ( ( #231 ) ) GLOBAL_UNIT_ASSIGNED_CONTEXT ( ( #212, #363, #257 ) ) REPRESENTATION_CONTEXT ( 'NONE', 'WORKASPACE' ) );
#121 = FACE_OUTER_BOUND ( 'NONE', #248, .T. ) ;
#122 = CLOSED_SHELL ( 'NONE', ( #181, #289, #89, #206 ) ) ;
#123 = CYLINDRICAL_SURFACE ( 'NONE', #150, 5.999999999999998224 ) ;
#124 = PRODUCT ( '59710', '59710', '', ( #73 ) ) ;
#125 = MECHANICAL_DESIGN_GEOMETRIC_PRESENTATION_REPRESENTATION (  '', ( #41 ), #58 ) ;
#126 = DIRECTION ( 'NONE',  ( -1.224646799147353454E-16, 0.000000000000000000, -1.000000000000000000 ) ) ;
#127 = SURFACE_STYLE_FILL_AREA ( #368 ) ;
#128 = CARTESIAN_POINT ( 'NONE',  ( 0.000000000000000000, 0.000000000000000000, 0.000000000000000000 ) ) ;
#129 = ORIENTED_EDGE ( 'NONE', *, *, #132, .F. ) ;
#130 =( GEOMETRIC_REPRESENTATION_CONTEXT ( 3 ) GLOBAL_UNCERTAINTY_ASSIGNED_CONTEXT ( ( #341 ) ) GLOBAL_UNIT_ASSIGNED_CONTEXT ( ( #38, #238, #258 ) ) REPRESENTATION_CONTEXT ( 'NONE', 'WORKASPACE' ) );
#131 = DIRECTION ( 'NONE',  ( -0.000000000000000000, -1.000000000000000000, -0.000000000000000000 ) ) ;
#132 = EDGE_CURVE ( 'NONE', #221, #224, #28, .T. ) ;
#133 = ORIENTED_EDGE ( 'NONE', *, *, #176, .F. ) ;
#134 =( LENGTH_UNIT ( ) NAMED_UNIT ( * ) SI_UNIT ( .MILLI., .METRE. ) );
#135 = MECHANICAL_DESIGN_GEOMETRIC_PRESENTATION_REPRESENTATION (  '', ( #283 ), #130 ) ;
#136 = CIRCLE ( 'NONE', #11, 5.999999999999994671 ) ;
#137 = EDGE_CURVE ( 'NONE', #139, #18, #35, .T. ) ;
#138 = FILL_AREA_STYLE_COLOUR ( '', #343 ) ;
#139 = VERTEX_POINT ( 'NONE', #225 ) ;
#140 =( NAMED_UNIT ( * ) SI_UNIT ( $, .STERADIAN. ) SOLID_ANGLE_UNIT ( ) );
#141 = ORIENTED_EDGE ( 'NONE', *, *, #143, .F. ) ;
#142 = CARTESIAN_POINT ( 'NONE',  ( -6.000000000000003553, 75.00000000000000000, 0.000000000000000000 ) ) ;
#143 = EDGE_CURVE ( 'NONE', #221, #6, #275, .T. ) ;
#144 = VECTOR ( 'NONE', #251, 1000.000000000000000 ) ;
#145 = SURFACE_STYLE_USAGE ( .BOTH. , #200 ) ;
#146 = ORIENTED_EDGE ( 'NONE', *, *, #176, .T. ) ;
#147 = DIRECTION ( 'NONE',  ( 0.000000000000000000, 0.000000000000000000, -1.000000000000000000 ) ) ;
#148 = ORIENTED_EDGE ( 'NONE', *, *, #90, .F. ) ;
#149 = SURFACE_STYLE_USAGE ( .BOTH. , #342 ) ;
#150 = AXIS2_PLACEMENT_3D ( 'NONE', #62, #279, #205 ) ;
#151 = SURFACE_STYLE_USAGE ( .BOTH. , #26 ) ;
#152 = MECHANICAL_DESIGN_GEOMETRIC_PRESENTATION_REPRESENTATION (  '', ( #99 ), #180 ) ;
#153 = PRESENTATION_STYLE_ASSIGNMENT (( #151 ) ) ;
#154 = AXIS2_PLACEMENT_3D ( 'NONE', #128, #209, #95 ) ;
#155 = STYLED_ITEM ( 'NONE', ( #201 ), #16 ) ;
#156 = FILL_AREA_STYLE_COLOUR ( '', #3 ) ;
#157 = ADVANCED_FACE ( 'NONE', ( #166 ), #334, .T. ) ;
#158 = MANIFOLD_SOLID_BREP ( 'Revolve - Cutting Edge', #185 ) ;
#159 = CARTESIAN_POINT ( 'NONE',  ( -1.469576158976823750E-15, 75.00000000000000000, 0.000000000000000000 ) ) ;
#160 = DIRECTION ( 'NONE',  ( -1.208874916035850209E-16, 1.000000000000000000, -0.000000000000000000 ) ) ;
#161 = VERTEX_POINT ( 'NONE', #223 ) ;
#162 = FACE_OUTER_BOUND ( 'NONE', #269, .T. ) ;
#163 =( GEOMETRIC_REPRESENTATION_CONTEXT ( 3 ) GLOBAL_UNCERTAINTY_ASSIGNED_CONTEXT ( ( #208 ) ) GLOBAL_UNIT_ASSIGNED_CONTEXT ( ( #218, #273, #45 ) ) REPRESENTATION_CONTEXT ( 'NONE', 'WORKASPACE' ) );
#164 = SURFACE_SIDE_STYLE ('',( #107 ) ) ;
#165 =( GEOMETRIC_REPRESENTATION_CONTEXT ( 3 ) GLOBAL_UNCERTAINTY_ASSIGNED_CONTEXT ( ( #311 ) ) GLOBAL_UNIT_ASSIGNED_CONTEXT ( ( #294, #237, #318 ) ) REPRESENTATION_CONTEXT ( 'NONE', 'WORKASPACE' ) );
#166 = FACE_OUTER_BOUND ( 'NONE', #350, .T. ) ;
#167 = ORIENTED_EDGE ( 'NONE', *, *, #168, .T. ) ;
#168 = EDGE_CURVE ( 'NONE', #161, #333, #310, .T. ) ;
#169 = ORIENTED_EDGE ( 'NONE', *, *, #132, .T. ) ;
#170 = DIRECTION ( 'NONE',  ( -1.000000000000000000, 0.000000000000000000, 0.000000000000000000 ) ) ;
#171 = FILL_AREA_STYLE_COLOUR ( '', #213 ) ;
#172 = CIRCLE ( 'NONE', #370, 6.000000000000000000 ) ;
#173 = CARTESIAN_POINT ( 'NONE',  ( -6.000000000000000000, 75.00000000000000000, 0.000000000000000000 ) ) ;
#174 = ORIENTED_EDGE ( 'NONE', *, *, #94, .T. ) ;
#175 = CARTESIAN_POINT ( 'NONE',  ( 5.421010862427522170E-15, 18.00000000000000000, 0.000000000000000000 ) ) ;
#176 = EDGE_CURVE ( 'NONE', #6, #228, #367, .T. ) ;
#177 = CARTESIAN_POINT ( 'NONE',  ( 6.000000000000000000, 75.00000000000000000, 0.000000000000000000 ) ) ;
#178 = CIRCLE ( 'NONE', #196, 0.5000000000000004441 ) ;
#179 = PLANE ( 'NONE',  #346 ) ;
#180 =( GEOMETRIC_REPRESENTATION_CONTEXT ( 3 ) GLOBAL_UNCERTAINTY_ASSIGNED_CONTEXT ( ( #60 ) ) GLOBAL_UNIT_ASSIGNED_CONTEXT ( ( #366, #119, #116 ) ) REPRESENTATION_CONTEXT ( 'NONE', 'WORKASPACE' ) );
#181 = ADVANCED_FACE ( 'NONE', ( #183 ), #123, .T. ) ;
#182 = FILL_AREA_STYLE ('',( #8 ) ) ;
#183 = FACE_OUTER_BOUND ( 'NONE', #246, .T. ) ;
#184 = PRODUCT_DEFINITION_CONTEXT ( 'detailed design', #288, 'design' ) ;
#185 = CLOSED_SHELL ( 'NONE', ( #299, #71, #157, #277, #101, #16 ) ) ;
#186 = SURFACE_STYLE_USAGE ( .BOTH. , #285 ) ;
#187 = ORIENTED_EDGE ( 'NONE', *, *, #143, .T. ) ;
#188 = DIRECTION ( 'NONE',  ( 0.000000000000000000, 0.000000000000000000, -1.000000000000000000 ) ) ;
#189 = APPLICATION_PROTOCOL_DEFINITION ( 'draft international standard', 'automotive_design', 1998, #348 ) ;
#190 = ORIENTED_EDGE ( 'NONE', *, *, #229, .F. ) ;
#191 = APPLICATION_PROTOCOL_DEFINITION ( 'draft international standard', 'automotive_design', 1998, #288 ) ;
#192 = FILL_AREA_STYLE_COLOUR ( '', #268 ) ;
#193 = DIRECTION ( 'NONE',  ( -0.000000000000000000, -1.000000000000000000, -0.000000000000000000 ) ) ;
#194 = LINE ( 'NONE', #267, #144 ) ;
#195 = ORIENTED_EDGE ( 'NONE', *, *, #305, .T. ) ;
#196 = AXIS2_PLACEMENT_3D ( 'NONE', #55, #92, #227 ) ;
#197 = ORIENTED_EDGE ( 'NONE', *, *, #314, .T. ) ;
#198 = CARTESIAN_POINT ( 'NONE',  ( -1.469576158976823750E-15, 75.00000000000000000, 0.000000000000000000 ) ) ;
#199 = CARTESIAN_POINT ( 'NONE',  ( 7.347880794884119736E-16, 0.5000000000000000000, 6.000000000000000000 ) ) ;
#200 = SURFACE_SIDE_STYLE ('',( #80 ) ) ;
#201 = PRESENTATION_STYLE_ASSIGNMENT (( #244 ) ) ;
#202 = EDGE_CURVE ( 'NONE', #18, #357, #286, .T. ) ;
#203 = AXIS2_PLACEMENT_3D ( 'NONE', #49, #326, #361 ) ;
#204 = DIRECTION ( 'NONE',  ( -0.000000000000000000, -1.000000000000000000, -0.000000000000000000 ) ) ;
#205 = DIRECTION ( 'NONE',  ( -1.000000000000000000, 0.000000000000000000, 0.000000000000000000 ) ) ;
#206 = ADVANCED_FACE ( 'NONE', ( #255 ), #179, .F. ) ;
#207 = AXIS2_PLACEMENT_3D ( 'NONE', #356, #332, #82 ) ;
#208 = UNCERTAINTY_MEASURE_WITH_UNIT (LENGTH_MEASURE( 1.000000000000000082E-05 ), #218, 'distance_accuracy_value', 'NONE');
#209 = DIRECTION ( 'NONE',  ( -0.000000000000000000, -1.000000000000000000, -0.000000000000000000 ) ) ;
#210 = TOROIDAL_SURFACE ( 'NONE', #280, 5.500000000000000000, 0.5000000000000002220 ) ;
#211 = DIRECTION ( 'NONE',  ( -0.000000000000000000, -1.000000000000000000, -0.000000000000000000 ) ) ;
#212 =( LENGTH_UNIT ( ) NAMED_UNIT ( * ) SI_UNIT ( .MILLI., .METRE. ) );
#213 = COLOUR_RGB ( '',1.000000000000000000, 0.000000000000000000, 0.000000000000000000 ) ;
#214 = FACE_OUTER_BOUND ( 'NONE', #327, .T. ) ;
#215 = CARTESIAN_POINT ( 'NONE',  ( 0.000000000000000000, 0.000000000000000000, 0.000000000000000000 ) ) ;
#216 = CARTESIAN_POINT ( 'NONE',  ( 0.000000000000000000, 0.5000000000000000000, 0.000000000000000000 ) ) ;
#217 = DIRECTION ( 'NONE',  ( -1.000000000000000000, 0.000000000000000000, 0.000000000000000000 ) ) ;
#218 =( LENGTH_UNIT ( ) NAMED_UNIT ( * ) SI_UNIT ( .MILLI., .METRE. ) );
#219 =( NAMED_UNIT ( * ) PLANE_ANGLE_UNIT ( ) SI_UNIT ( $, .RADIAN. ) );
#220 = COLOUR_RGB ( '',1.000000000000000000, 0.000000000000000000, 0.000000000000000000 ) ;
#221 = VERTEX_POINT ( 'NONE', #309 ) ;
#222 = AXIS2_PLACEMENT_3D ( 'NONE', #87, #303, #56 ) ;
#223 = CARTESIAN_POINT ( 'NONE',  ( 7.041719095097280880E-16, 0.000000000000000000, 5.500000000000000000 ) ) ;
#224 = VERTEX_POINT ( 'NONE', #339 ) ;
#225 = CARTESIAN_POINT ( 'NONE',  ( 7.347880794884119736E-16, 18.00000000000000000, 6.000000000000000000 ) ) ;
#226 = FACE_OUTER_BOUND ( 'NONE', #271, .T. ) ;
#227 = DIRECTION ( 'NONE',  ( 0.000000000000000000, 0.000000000000000000, 1.000000000000000000 ) ) ;
#228 = VERTEX_POINT ( 'NONE', #256 ) ;
#229 = EDGE_CURVE ( 'NONE', #357, #333, #178, .T. ) ;
#230 = CIRCLE ( 'NONE', #68, 0.5000000000000004441 ) ;
#231 = UNCERTAINTY_MEASURE_WITH_UNIT (LENGTH_MEASURE( 1.000000000000000082E-05 ), #212, 'distance_accuracy_value', 'NONE');
#232 = DIRECTION ( 'NONE',  ( 0.000000000000000000, 1.000000000000000000, 0.000000000000000000 ) ) ;
#233 = DIRECTION ( 'NONE',  ( 0.000000000000000000, 0.000000000000000000, -1.000000000000000000 ) ) ;
#234 = PRESENTATION_LAYER_ASSIGNMENT (  '', '', ( #24 ) ) ;
#235 = FACE_OUTER_BOUND ( 'NONE', #300, .T. ) ;
#236 = PRESENTATION_LAYER_ASSIGNMENT (  '', '', ( #360 ) ) ;
#237 =( NAMED_UNIT ( * ) PLANE_ANGLE_UNIT ( ) SI_UNIT ( $, .RADIAN. ) );
#238 =( NAMED_UNIT ( * ) PLANE_ANGLE_UNIT ( ) SI_UNIT ( $, .RADIAN. ) );
#239 = ORIENTED_EDGE ( 'NONE', *, *, #137, .T. ) ;
#240 = DIRECTION ( 'NONE',  ( 0.000000000000000000, 0.000000000000000000, -1.000000000000000000 ) ) ;
#241 = MECHANICAL_DESIGN_GEOMETRIC_PRESENTATION_REPRESENTATION (  '', ( #320 ), #163 ) ;
#242 = DIRECTION ( 'NONE',  ( 0.000000000000000000, 0.000000000000000000, 1.000000000000000000 ) ) ;
#243 = PRESENTATION_STYLE_ASSIGNMENT (( #13 ) ) ;
#244 = SURFACE_STYLE_USAGE ( .BOTH. , #293 ) ;
#245 =( NAMED_UNIT ( * ) PLANE_ANGLE_UNIT ( ) SI_UNIT ( $, .RADIAN. ) );
#246 = EDGE_LOOP ( 'NONE', ( #169, #65, #133, #141 ) ) ;
#247 = FILL_AREA_STYLE ('',( #192 ) ) ;
#248 = EDGE_LOOP ( 'NONE', ( #364, #197, #254, #336 ) ) ;
#249 = MECHANICAL_DESIGN_GEOMETRIC_PRESENTATION_REPRESENTATION (  '', ( #24 ), #120 ) ;
#250 = AXIS2_PLACEMENT_3D ( 'NONE', #175, #42, #270 ) ;
#251 = DIRECTION ( 'NONE',  ( -1.208874916035850209E-16, 1.000000000000000000, -0.000000000000000000 ) ) ;
#252 = PRODUCT_DEFINITION_SHAPE ( 'NONE', 'NONE',  #31 ) ;
#253 = ORIENTED_EDGE ( 'NONE', *, *, #53, .F. ) ;
#254 = ORIENTED_EDGE ( 'NONE', *, *, #229, .T. ) ;
#255 = FACE_OUTER_BOUND ( 'NONE', #22, .T. ) ;
#256 = CARTESIAN_POINT ( 'NONE',  ( 6.000000000000000000, 75.00000000000000000, 7.347880794884119736E-16 ) ) ;
#257 =( NAMED_UNIT ( * ) SI_UNIT ( $, .STERADIAN. ) SOLID_ANGLE_UNIT ( ) );
#258 =( NAMED_UNIT ( * ) SI_UNIT ( $, .STERADIAN. ) SOLID_ANGLE_UNIT ( ) );
#259 = ADVANCED_BREP_SHAPE_REPRESENTATION ( '59710', ( #158, #272, #52 ), #165 ) ;
#260 = CARTESIAN_POINT ( 'NONE',  ( 7.347880794884119736E-16, 0.000000000000000000, 6.000000000000000000 ) ) ;
#261 = CIRCLE ( 'NONE', #27, 6.000000000000000000 ) ;
#262 = PRESENTATION_STYLE_ASSIGNMENT (( #186 ) ) ;
#263 = AXIS2_PLACEMENT_3D ( 'NONE', #215, #193, #188 ) ;
#264 = DIRECTION ( 'NONE',  ( 1.000000000000000000, 0.000000000000000000, -1.224646799147353207E-16 ) ) ;
#265 = LINE ( 'NONE', #260, #308 ) ;
#266 = DIRECTION ( 'NONE',  ( -0.000000000000000000, -1.000000000000000000, -0.000000000000000000 ) ) ;
#267 = CARTESIAN_POINT ( 'NONE',  ( 5.999999999999996447, 75.00000000000000000, 7.347880794884117764E-16 ) ) ;
#268 = COLOUR_RGB ( '',0.7921568627450980005, 0.8196078431372548767, 0.9333333333333333481 ) ;
#269 = EDGE_LOOP ( 'NONE', ( #48, #110, #117, #290 ) ) ;
#270 = DIRECTION ( 'NONE',  ( -1.000000000000000000, -1.208874916035850209E-16, 0.000000000000000000 ) ) ;
#271 = EDGE_LOOP ( 'NONE', ( #359, #77 ) ) ;
#272 = MANIFOLD_SOLID_BREP ( 'Revolve - Tool Body (Straight Shanked)', #122 ) ;
#273 =( NAMED_UNIT ( * ) PLANE_ANGLE_UNIT ( ) SI_UNIT ( $, .RADIAN. ) );
#274 = ORIENTED_EDGE ( 'NONE', *, *, #202, .T. ) ;
#275 = LINE ( 'NONE', #173, #69 ) ;
#276 = PRESENTATION_LAYER_ASSIGNMENT (  '', '', ( #41 ) ) ;
#277 = ADVANCED_FACE ( 'NONE', ( #121 ), #338, .T. ) ;
#278 = PRODUCT_DEFINITION_FORMATION_WITH_SPECIFIED_SOURCE ( 'ANY', '', #124, .NOT_KNOWN. ) ;
#279 = DIRECTION ( 'NONE',  ( -1.208874916035850209E-16, 1.000000000000000000, -0.000000000000000000 ) ) ;
#280 = AXIS2_PLACEMENT_3D ( 'NONE', #216, #211, #240 ) ;
#281 = FILL_AREA_STYLE ('',( #156 ) ) ;
#282 = CARTESIAN_POINT ( 'NONE',  ( 0.000000000000000000, 18.00000000000000000, -6.000000000000000000 ) ) ;
#283 = STYLED_ITEM ( 'NONE', ( #262 ), #101 ) ;
#284 = UNCERTAINTY_MEASURE_WITH_UNIT (LENGTH_MEASURE( 1.000000000000000082E-05 ), #75, 'distance_accuracy_value', 'NONE');
#285 = SURFACE_SIDE_STYLE ('',( #347 ) ) ;
#286 = LINE ( 'NONE', #63, #296 ) ;
#287 = FACE_OUTER_BOUND ( 'NONE', #108, .T. ) ;
#288 = APPLICATION_CONTEXT ( 'automotive_design' ) ;
#289 = ADVANCED_FACE ( 'NONE', ( #287 ), #54, .F. ) ;
#290 = ORIENTED_EDGE ( 'NONE', *, *, #202, .F. ) ;
#291 = SHAPE_DEFINITION_REPRESENTATION ( #252, #259 ) ;
#292 = DIRECTION ( 'NONE',  ( -1.208874916035850209E-16, 1.000000000000000000, -0.000000000000000000 ) ) ;
#293 = SURFACE_SIDE_STYLE ('',( #85 ) ) ;
#294 =( LENGTH_UNIT ( ) NAMED_UNIT ( * ) SI_UNIT ( .MILLI., .METRE. ) );
#295 = DIRECTION ( 'NONE',  ( -1.208874916035850209E-16, 1.000000000000000000, -0.000000000000000000 ) ) ;
#296 = VECTOR ( 'NONE', #204, 1000.000000000000000 ) ;
#297 = FILL_AREA_STYLE ('',( #171 ) ) ;
#298 = CARTESIAN_POINT ( 'NONE',  ( 0.000000000000000000, 0.5000000000000000000, -6.000000000000000000 ) ) ;
#299 = ADVANCED_FACE ( 'NONE', ( #162 ), #316, .T. ) ;
#300 = EDGE_LOOP ( 'NONE', ( #253, #239, #274, #83 ) ) ;
#301 =( GEOMETRIC_REPRESENTATION_CONTEXT ( 3 ) GLOBAL_UNCERTAINTY_ASSIGNED_CONTEXT ( ( #369 ) ) GLOBAL_UNIT_ASSIGNED_CONTEXT ( ( #84, #74, #140 ) ) REPRESENTATION_CONTEXT ( 'NONE', 'WORKASPACE' ) );
#302 = CIRCLE ( 'NONE', #21, 6.000000000000001776 ) ;
#303 = DIRECTION ( 'NONE',  ( -0.000000000000000000, -1.000000000000000000, -0.000000000000000000 ) ) ;
#304 = FILL_AREA_STYLE_COLOUR ( '', #330 ) ;
#305 = EDGE_CURVE ( 'NONE', #224, #221, #136, .T. ) ;
#306 = COLOUR_RGB ( '',1.000000000000000000, 0.000000000000000000, 0.000000000000000000 ) ;
#307 = CARTESIAN_POINT ( 'NONE',  ( 0.000000000000000000, 18.00000000000000000, 0.000000000000000000 ) ) ;
#308 = VECTOR ( 'NONE', #315, 1000.000000000000000 ) ;
#309 = CARTESIAN_POINT ( 'NONE',  ( -5.999999999999989342, 18.00000000000000355, 0.000000000000000000 ) ) ;
#310 = CIRCLE ( 'NONE', #207, 5.500000000000000000 ) ;
#311 = UNCERTAINTY_MEASURE_WITH_UNIT (LENGTH_MEASURE( 1.000000000000000082E-05 ), #294, 'distance_accuracy_value', 'NONE');
#312 =( GEOMETRIC_REPRESENTATION_CONTEXT ( 3 ) GLOBAL_UNCERTAINTY_ASSIGNED_CONTEXT ( ( #284 ) ) GLOBAL_UNIT_ASSIGNED_CONTEXT ( ( #75, #245, #102 ) ) REPRESENTATION_CONTEXT ( 'NONE', 'WORKASPACE' ) );
#313 = FILL_AREA_STYLE ('',( #64 ) ) ;
#314 = EDGE_CURVE ( 'NONE', #14, #357, #172, .T. ) ;
#315 = DIRECTION ( 'NONE',  ( -0.000000000000000000, -1.000000000000000000, -0.000000000000000000 ) ) ;
#316 = CYLINDRICAL_SURFACE ( 'NONE', #263, 6.000000000000000000 ) ;
#317 = CARTESIAN_POINT ( 'NONE',  ( 6.735557395310442023E-16, 0.5000000000000000000, 5.500000000000000000 ) ) ;
#318 =( NAMED_UNIT ( * ) SI_UNIT ( $, .STERADIAN. ) SOLID_ANGLE_UNIT ( ) );
#319 =( GEOMETRIC_REPRESENTATION_CONTEXT ( 3 ) GLOBAL_UNCERTAINTY_ASSIGNED_CONTEXT ( ( #91 ) ) GLOBAL_UNIT_ASSIGNED_CONTEXT ( ( #362, #219, #51 ) ) REPRESENTATION_CONTEXT ( 'NONE', 'WORKASPACE' ) );
#320 = STYLED_ITEM ( 'NONE', ( #243 ), #158 ) ;
#321 = CYLINDRICAL_SURFACE ( 'NONE', #20, 5.999999999999998224 ) ;
#322 = PRESENTATION_LAYER_ASSIGNMENT (  '', '', ( #99 ) ) ;
#323 = CARTESIAN_POINT ( 'NONE',  ( 0.000000000000000000, 0.000000000000000000, 0.000000000000000000 ) ) ;
#324 = DIRECTION ( 'NONE',  ( 0.000000000000000000, -1.000000000000000000, -0.000000000000000000 ) ) ;
#325 = FILL_AREA_STYLE_COLOUR ( '', #36 ) ;
#326 = DIRECTION ( 'NONE',  ( -0.000000000000000000, -1.000000000000000000, -0.000000000000000000 ) ) ;
#327 = EDGE_LOOP ( 'NONE', ( #174, #40, #148, #190 ) ) ;
#328 = DIRECTION ( 'NONE',  ( 0.000000000000000000, 0.000000000000000000, -1.000000000000000000 ) ) ;
#329 = AXIS2_PLACEMENT_3D ( 'NONE', #198, #47, #340 ) ;
#330 = COLOUR_RGB ( '',1.000000000000000000, 0.000000000000000000, 0.000000000000000000 ) ;
#331 = EDGE_CURVE ( 'NONE', #228, #6, #302, .T. ) ;
#332 = DIRECTION ( 'NONE',  ( -0.000000000000000000, -1.000000000000000000, -0.000000000000000000 ) ) ;
#333 = VERTEX_POINT ( 'NONE', #9 ) ;
#334 = PLANE ( 'NONE',  #337 ) ;
#335 = ORIENTED_EDGE ( 'NONE', *, *, #331, .F. ) ;
#336 = ORIENTED_EDGE ( 'NONE', *, *, #168, .F. ) ;
#337 = AXIS2_PLACEMENT_3D ( 'NONE', #112, #324, #147 ) ;
#338 = TOROIDAL_SURFACE ( 'NONE', #222, 5.500000000000000000, 0.5000000000000002220 ) ;
#339 = CARTESIAN_POINT ( 'NONE',  ( 6.000000000000000000, 18.00000000000000355, 7.347880794884119736E-16 ) ) ;
#340 = DIRECTION ( 'NONE',  ( -1.000000000000000000, 0.000000000000000000, 0.000000000000000000 ) ) ;
#341 = UNCERTAINTY_MEASURE_WITH_UNIT (LENGTH_MEASURE( 1.000000000000000082E-05 ), #38, 'distance_accuracy_value', 'NONE');
#342 = SURFACE_SIDE_STYLE ('',( #127 ) ) ;
#343 = COLOUR_RGB ( '',1.000000000000000000, 0.000000000000000000, 0.000000000000000000 ) ;
#344 = CARTESIAN_POINT ( 'NONE',  ( 0.000000000000000000, 0.5000000000000000000, 0.000000000000000000 ) ) ;
#345 = DIRECTION ( 'NONE',  ( 1.208874916035850209E-16, -1.000000000000000000, 0.000000000000000000 ) ) ;
#346 = AXIS2_PLACEMENT_3D ( 'NONE', #177, #345, #30 ) ;
#347 = SURFACE_STYLE_FILL_AREA ( #313 ) ;
#348 = APPLICATION_CONTEXT ( 'automotive_design' ) ;
#349 = CARTESIAN_POINT ( 'NONE',  ( 0.000000000000000000, 0.5000000000000000000, 0.000000000000000000 ) ) ;
#350 = EDGE_LOOP ( 'NONE', ( #46, #167 ) ) ;
#351 = DIRECTION ( 'NONE',  ( 1.000000000000000000, 0.000000000000000000, 0.000000000000000000 ) ) ;
#352 = UNCERTAINTY_MEASURE_WITH_UNIT (LENGTH_MEASURE( 1.000000000000000082E-05 ), #134, 'distance_accuracy_value', 'NONE');
#353 = SURFACE_SIDE_STYLE ('',( #354 ) ) ;
#354 = SURFACE_STYLE_FILL_AREA ( #247 ) ;
#355 = ORIENTED_EDGE ( 'NONE', *, *, #305, .F. ) ;
#356 = CARTESIAN_POINT ( 'NONE',  ( 0.000000000000000000, 0.000000000000000000, 0.000000000000000000 ) ) ;
#357 = VERTEX_POINT ( 'NONE', #298 ) ;
#358 = PRESENTATION_LAYER_ASSIGNMENT (  '', '', ( #283 ) ) ;
#359 = ORIENTED_EDGE ( 'NONE', *, *, #93, .F. ) ;
#360 = STYLED_ITEM ( 'NONE', ( #15 ), #299 ) ;
#361 = DIRECTION ( 'NONE',  ( 0.000000000000000000, 0.000000000000000000, -1.000000000000000000 ) ) ;
#362 =( LENGTH_UNIT ( ) NAMED_UNIT ( * ) SI_UNIT ( .MILLI., .METRE. ) );
#363 =( NAMED_UNIT ( * ) PLANE_ANGLE_UNIT ( ) SI_UNIT ( $, .RADIAN. ) );
#364 = ORIENTED_EDGE ( 'NONE', *, *, #66, .F. ) ;
#365 = AXIS2_PLACEMENT_3D ( 'NONE', #81, #232, #57 ) ;
#366 =( LENGTH_UNIT ( ) NAMED_UNIT ( * ) SI_UNIT ( .MILLI., .METRE. ) );
#367 = CIRCLE ( 'NONE', #329, 6.000000000000001776 ) ;
#368 = FILL_AREA_STYLE ('',( #304 ) ) ;
#369 = UNCERTAINTY_MEASURE_WITH_UNIT (LENGTH_MEASURE( 1.000000000000000082E-05 ), #84, 'distance_accuracy_value', 'NONE');
#370 = AXIS2_PLACEMENT_3D ( 'NONE', #349, #266, #328 ) ;
ENDSEC;
END-ISO-10303-21;
