ISO-10303-21;
HEADER;
FILE_DESCRIPTION (( 'STEP AP214' ),
    '1' );
FILE_NAME ('59532.STEP',
    '2023-07-24T15:09:26',
    ( '' ),
    ( '' ),
    'SwSTEP 2.0',
    'SolidWorks 2023',
    '' );
FILE_SCHEMA (( 'AUTOMOTIVE_DESIGN' ));
ENDSEC;

DATA;
#1 = CIRCLE ( 'NONE', #124, 10.00000000000000000 ) ;
#2 = ORIENTED_EDGE ( 'NONE', *, *, #355, .F. ) ;
#3 = SURFACE_STYLE_USAGE ( .BOTH. , #255 ) ;
#4 = EDGE_LOOP ( 'NONE', ( #2, #346, #221, #18 ) ) ;
#5 = CARTESIAN_POINT ( 'NONE',  ( 0.000000000000000000, 0.5000000000000000000, -9.500000000000000000 ) ) ;
#6 = STYLED_ITEM ( 'NONE', ( #173 ), #145 ) ;
#7 = DIRECTION ( 'NONE',  ( 0.000000000000000000, 0.000000000000000000, -1.000000000000000000 ) ) ;
#8 = DIRECTION ( 'NONE',  ( -1.000000000000000000, 0.000000000000000000, 0.000000000000000000 ) ) ;
#9 = UNCERTAINTY_MEASURE_WITH_UNIT (LENGTH_MEASURE( 1.000000000000000082E-05 ), #291, 'distance_accuracy_value', 'NONE');
#10 = DIRECTION ( 'NONE',  ( 0.000000000000000000, -1.000000000000000000, -0.000000000000000000 ) ) ;
#11 = SURFACE_SIDE_STYLE ('',( #269 ) ) ;
#12 = FACE_OUTER_BOUND ( 'NONE', #4, .T. ) ;
#13 = SURFACE_STYLE_FILL_AREA ( #271 ) ;
#14 = DIRECTION ( 'NONE',  ( 0.000000000000000000, 1.000000000000000000, 0.000000000000000000 ) ) ;
#15 = FILL_AREA_STYLE ('',( #165 ) ) ;
#16 = DIRECTION ( 'NONE',  ( 0.000000000000000000, 0.000000000000000000, -1.000000000000000000 ) ) ;
#17 = AXIS2_PLACEMENT_3D ( 'NONE', #275, #243, #16 ) ;
#18 = ORIENTED_EDGE ( 'NONE', *, *, #279, .F. ) ;
#19 = UNCERTAINTY_MEASURE_WITH_UNIT (LENGTH_MEASURE( 1.000000000000000082E-05 ), #72, 'distance_accuracy_value', 'NONE');
#20 =( NAMED_UNIT ( * ) PLANE_ANGLE_UNIT ( ) SI_UNIT ( $, .RADIAN. ) );
#21 = DIRECTION ( 'NONE',  ( -0.000000000000000000, -1.000000000000000000, -0.000000000000000000 ) ) ;
#22 =( LENGTH_UNIT ( ) NAMED_UNIT ( * ) SI_UNIT ( .MILLI., .METRE. ) );
#23 = COLOUR_RGB ( '',1.000000000000000000, 0.000000000000000000, 0.000000000000000000 ) ;
#24 = STYLED_ITEM ( 'NONE', ( #236 ), #267 ) ;
#25 =( NAMED_UNIT ( * ) SI_UNIT ( $, .STERADIAN. ) SOLID_ANGLE_UNIT ( ) );
#26 = VERTEX_POINT ( 'NONE', #313 ) ;
#27 =( NAMED_UNIT ( * ) PLANE_ANGLE_UNIT ( ) SI_UNIT ( $, .RADIAN. ) );
#28 = DIRECTION ( 'NONE',  ( -1.000000000000000000, 0.000000000000000000, 0.000000000000000000 ) ) ;
#29 = DIRECTION ( 'NONE',  ( 0.000000000000000000, 0.000000000000000000, 1.000000000000000000 ) ) ;
#30 = AXIS2_PLACEMENT_3D ( 'NONE', #34, #230, #180 ) ;
#31 = PLANE ( 'NONE',  #62 ) ;
#32 = ADVANCED_FACE ( 'NONE', ( #119 ), #228, .T. ) ;
#33 = CARTESIAN_POINT ( 'NONE',  ( 10.00000000000000000, 30.00000000000000000, 1.224646799147353256E-15 ) ) ;
#34 = CARTESIAN_POINT ( 'NONE',  ( 0.000000000000000000, 0.5000000000000000000, 0.000000000000000000 ) ) ;
#35 = FACE_OUTER_BOUND ( 'NONE', #193, .T. ) ;
#36 =( NAMED_UNIT ( * ) SI_UNIT ( $, .STERADIAN. ) SOLID_ANGLE_UNIT ( ) );
#37 = PRESENTATION_LAYER_ASSIGNMENT (  '', '', ( #214 ) ) ;
#38 =( GEOMETRIC_REPRESENTATION_CONTEXT ( 3 ) GLOBAL_UNCERTAINTY_ASSIGNED_CONTEXT ( ( #19 ) ) GLOBAL_UNIT_ASSIGNED_CONTEXT ( ( #72, #167, #301 ) ) REPRESENTATION_CONTEXT ( 'NONE', 'WORKASPACE' ) );
#39 = COLOUR_RGB ( '',0.7921568627450980005, 0.8196078431372548767, 0.9333333333333333481 ) ;
#40 = DIRECTION ( 'NONE',  ( -1.224646799147353454E-16, 0.000000000000000000, -1.000000000000000000 ) ) ;
#41 = ADVANCED_FACE ( 'NONE', ( #172 ), #31, .T. ) ;
#42 = UNCERTAINTY_MEASURE_WITH_UNIT (LENGTH_MEASURE( 1.000000000000000082E-05 ), #334, 'distance_accuracy_value', 'NONE');
#43 = FILL_AREA_STYLE_COLOUR ( '', #107 ) ;
#44 = MECHANICAL_DESIGN_GEOMETRIC_PRESENTATION_REPRESENTATION (  '', ( #359 ), #38 ) ;
#45 = DIRECTION ( 'NONE',  ( 0.000000000000000000, 0.000000000000000000, -1.000000000000000000 ) ) ;
#46 = CARTESIAN_POINT ( 'NONE',  ( 7.589415207398531038E-15, 30.00000000000000000, 0.000000000000000000 ) ) ;
#47 = DIRECTION ( 'NONE',  ( -1.576935716305902603E-16, 1.000000000000000000, -0.000000000000000000 ) ) ;
#48 = CIRCLE ( 'NONE', #17, 9.500000000000000000 ) ;
#49 = COLOUR_RGB ( '',1.000000000000000000, 0.000000000000000000, 0.000000000000000000 ) ;
#50 = EDGE_LOOP ( 'NONE', ( #219, #59, #137, #335 ) ) ;
#51 = MECHANICAL_DESIGN_GEOMETRIC_PRESENTATION_REPRESENTATION (  '', ( #214 ), #195 ) ;
#52 = CARTESIAN_POINT ( 'NONE',  ( 0.000000000000000000, 0.5000000000000000000, -10.00000000000000000 ) ) ;
#53 =( GEOMETRIC_REPRESENTATION_CONTEXT ( 3 ) GLOBAL_UNCERTAINTY_ASSIGNED_CONTEXT ( ( #276 ) ) GLOBAL_UNIT_ASSIGNED_CONTEXT ( ( #70, #98, #238 ) ) REPRESENTATION_CONTEXT ( 'NONE', 'WORKASPACE' ) );
#54 = FILL_AREA_STYLE ('',( #337 ) ) ;
#55 = MECHANICAL_DESIGN_GEOMETRIC_PRESENTATION_REPRESENTATION (  '', ( #284 ), #338 ) ;
#56 = ORIENTED_EDGE ( 'NONE', *, *, #194, .F. ) ;
#57 = LINE ( 'NONE', #339, #299 ) ;
#58 = DIRECTION ( 'NONE',  ( -1.000000000000000000, -1.576935716305902603E-16, 0.000000000000000000 ) ) ;
#59 = ORIENTED_EDGE ( 'NONE', *, *, #344, .T. ) ;
#60 = CARTESIAN_POINT ( 'NONE',  ( -1.714505518806293652E-15, 89.00000000000000000, 0.000000000000000000 ) ) ;
#61 = EDGE_LOOP ( 'NONE', ( #287, #361, #123, #341 ) ) ;
#62 = AXIS2_PLACEMENT_3D ( 'NONE', #136, #14, #139 ) ;
#63 = AXIS2_PLACEMENT_3D ( 'NONE', #326, #74, #190 ) ;
#64 = FILL_AREA_STYLE ('',( #286 ) ) ;
#65 = DIRECTION ( 'NONE',  ( 0.000000000000000000, 0.000000000000000000, -1.000000000000000000 ) ) ;
#66 = EDGE_CURVE ( 'NONE', #307, #253, #294, .T. ) ;
#67 = SURFACE_SIDE_STYLE ('',( #319 ) ) ;
#68 = FILL_AREA_STYLE ('',( #125 ) ) ;
#69 = AXIS2_PLACEMENT_3D ( 'NONE', #302, #47, #166 ) ;
#70 =( LENGTH_UNIT ( ) NAMED_UNIT ( * ) SI_UNIT ( .MILLI., .METRE. ) );
#71 = AXIS2_PLACEMENT_3D ( 'NONE', #264, #208, #122 ) ;
#72 =( LENGTH_UNIT ( ) NAMED_UNIT ( * ) SI_UNIT ( .MILLI., .METRE. ) );
#73 = DIRECTION ( 'NONE',  ( 1.000000000000000000, 1.576935716305902603E-16, 0.000000000000000000 ) ) ;
#74 = DIRECTION ( 'NONE',  ( -0.000000000000000000, -1.000000000000000000, -0.000000000000000000 ) ) ;
#75 = PLANE ( 'NONE',  #105 ) ;
#76 = ORIENTED_EDGE ( 'NONE', *, *, #235, .F. ) ;
#77 = APPLICATION_PROTOCOL_DEFINITION ( 'draft international standard', 'automotive_design', 1998, #309 ) ;
#78 = MECHANICAL_DESIGN_GEOMETRIC_PRESENTATION_REPRESENTATION (  '', ( #99 ), #203 ) ;
#79 = EDGE_LOOP ( 'NONE', ( #349, #329 ) ) ;
#80 = MECHANICAL_DESIGN_GEOMETRIC_PRESENTATION_REPRESENTATION (  '', ( #24 ), #87 ) ;
#81 =( GEOMETRIC_REPRESENTATION_CONTEXT ( 3 ) GLOBAL_UNCERTAINTY_ASSIGNED_CONTEXT ( ( #189 ) ) GLOBAL_UNIT_ASSIGNED_CONTEXT ( ( #22, #143, #251 ) ) REPRESENTATION_CONTEXT ( 'NONE', 'WORKASPACE' ) );
#82 = ADVANCED_FACE ( 'NONE', ( #360 ), #75, .F. ) ;
#83 =( NAMED_UNIT ( * ) SI_UNIT ( $, .STERADIAN. ) SOLID_ANGLE_UNIT ( ) );
#84 = EDGE_LOOP ( 'NONE', ( #246, #248, #249, #174 ) ) ;
#85 = CARTESIAN_POINT ( 'NONE',  ( 10.00000000000000000, 89.00000000000000000, 1.224646799147353256E-15 ) ) ;
#86 = DIRECTION ( 'NONE',  ( -1.576935716305902603E-16, 1.000000000000000000, -0.000000000000000000 ) ) ;
#87 =( GEOMETRIC_REPRESENTATION_CONTEXT ( 3 ) GLOBAL_UNCERTAINTY_ASSIGNED_CONTEXT ( ( #153 ) ) GLOBAL_UNIT_ASSIGNED_CONTEXT ( ( #90, #272, #36 ) ) REPRESENTATION_CONTEXT ( 'NONE', 'WORKASPACE' ) );
#88 = SURFACE_STYLE_FILL_AREA ( #54 ) ;
#89 = FILL_AREA_STYLE_COLOUR ( '', #186 ) ;
#90 =( LENGTH_UNIT ( ) NAMED_UNIT ( * ) SI_UNIT ( .MILLI., .METRE. ) );
#91 = ORIENTED_EDGE ( 'NONE', *, *, #184, .F. ) ;
#92 = ORIENTED_EDGE ( 'NONE', *, *, #330, .F. ) ;
#93 = EDGE_CURVE ( 'NONE', #141, #328, #48, .T. ) ;
#94 = TOROIDAL_SURFACE ( 'NONE', #30, 9.500000000000000000, 0.5000000000000002220 ) ;
#95 = AXIS2_PLACEMENT_3D ( 'NONE', #108, #21, #138 ) ;
#96 = DIRECTION ( 'NONE',  ( -1.576935716305902603E-16, 1.000000000000000000, -0.000000000000000000 ) ) ;
#97 = CARTESIAN_POINT ( 'NONE',  ( 0.000000000000000000, 0.5000000000000000000, 0.000000000000000000 ) ) ;
#98 =( NAMED_UNIT ( * ) PLANE_ANGLE_UNIT ( ) SI_UNIT ( $, .RADIAN. ) );
#99 = STYLED_ITEM ( 'NONE', ( #128 ), #101 ) ;
#100 = COLOUR_RGB ( '',1.000000000000000000, 0.000000000000000000, 0.000000000000000000 ) ;
#101 = ADVANCED_FACE ( 'NONE', ( #12 ), #270, .T. ) ;
#102 = FACE_OUTER_BOUND ( 'NONE', #114, .T. ) ;
#103 = AXIS2_PLACEMENT_3D ( 'NONE', #97, #260, #7 ) ;
#104 = EDGE_CURVE ( 'NONE', #328, #141, #298, .T. ) ;
#105 = AXIS2_PLACEMENT_3D ( 'NONE', #247, #325, #73 ) ;
#106 = ORIENTED_EDGE ( 'NONE', *, *, #355, .T. ) ;
#107 = COLOUR_RGB ( '',1.000000000000000000, 0.000000000000000000, 0.000000000000000000 ) ;
#108 = CARTESIAN_POINT ( 'NONE',  ( 0.000000000000000000, 0.000000000000000000, 0.000000000000000000 ) ) ;
#109 = SURFACE_STYLE_USAGE ( .BOTH. , #333 ) ;
#110 =( LENGTH_UNIT ( ) NAMED_UNIT ( * ) SI_UNIT ( .MILLI., .METRE. ) );
#111 = DIRECTION ( 'NONE',  ( -0.000000000000000000, -1.000000000000000000, -0.000000000000000000 ) ) ;
#112 =( LENGTH_UNIT ( ) NAMED_UNIT ( * ) SI_UNIT ( .MILLI., .METRE. ) );
#113 = SURFACE_STYLE_FILL_AREA ( #306 ) ;
#114 = EDGE_LOOP ( 'NONE', ( #197, #106, #76, #92 ) ) ;
#115 = AXIS2_PLACEMENT_3D ( 'NONE', #290, #120, #175 ) ;
#116 = CIRCLE ( 'NONE', #69, 9.999999999999992895 ) ;
#117 = AXIS2_PLACEMENT_3D ( 'NONE', #46, #223, #336 ) ;
#118 = DIRECTION ( 'NONE',  ( -1.000000000000000000, 0.000000000000000000, 0.000000000000000000 ) ) ;
#119 = FACE_OUTER_BOUND ( 'NONE', #261, .T. ) ;
#120 = DIRECTION ( 'NONE',  ( -1.576935716305902603E-16, 1.000000000000000000, -0.000000000000000000 ) ) ;
#121 = EDGE_CURVE ( 'NONE', #146, #257, #116, .T. ) ;
#122 = DIRECTION ( 'NONE',  ( 0.000000000000000000, 0.000000000000000000, -1.000000000000000000 ) ) ;
#123 = ORIENTED_EDGE ( 'NONE', *, *, #104, .F. ) ;
#124 = AXIS2_PLACEMENT_3D ( 'NONE', #316, #198, #65 ) ;
#125 = FILL_AREA_STYLE_COLOUR ( '', #49 ) ;
#126 = DIRECTION ( 'NONE',  ( -0.000000000000000000, -1.000000000000000000, -0.000000000000000000 ) ) ;
#127 = UNCERTAINTY_MEASURE_WITH_UNIT (LENGTH_MEASURE( 1.000000000000000082E-05 ), #110, 'distance_accuracy_value', 'NONE');
#128 = PRESENTATION_STYLE_ASSIGNMENT (( #273 ) ) ;
#129 = DIRECTION ( 'NONE',  ( -0.000000000000000000, -1.000000000000000000, -0.000000000000000000 ) ) ;
#130 = CIRCLE ( 'NONE', #331, 10.00000000000000000 ) ;
#131 = DIRECTION ( 'NONE',  ( -0.000000000000000000, -1.000000000000000000, -0.000000000000000000 ) ) ;
#132 = EDGE_CURVE ( 'NONE', #26, #141, #283, .T. ) ;
#133 = SURFACE_SIDE_STYLE ('',( #163 ) ) ;
#134 = AXIS2_PLACEMENT_3D ( 'NONE', #220, #86, #216 ) ;
#135 = ORIENTED_EDGE ( 'NONE', *, *, #244, .T. ) ;
#136 = CARTESIAN_POINT ( 'NONE',  ( 0.000000000000000000, 30.00000000000000000, 0.000000000000000000 ) ) ;
#137 = ORIENTED_EDGE ( 'NONE', *, *, #194, .T. ) ;
#138 = DIRECTION ( 'NONE',  ( 0.000000000000000000, 0.000000000000000000, -1.000000000000000000 ) ) ;
#139 = DIRECTION ( 'NONE',  ( 0.000000000000000000, -0.000000000000000000, 1.000000000000000000 ) ) ;
#140 =( NAMED_UNIT ( * ) SI_UNIT ( $, .STERADIAN. ) SOLID_ANGLE_UNIT ( ) );
#141 = VERTEX_POINT ( 'NONE', #158 ) ;
#142 = MECHANICAL_DESIGN_GEOMETRIC_PRESENTATION_REPRESENTATION (  '', ( #6 ), #303 ) ;
#143 =( NAMED_UNIT ( * ) PLANE_ANGLE_UNIT ( ) SI_UNIT ( $, .RADIAN. ) );
#144 = ADVANCED_BREP_SHAPE_REPRESENTATION ( '59532', ( #348, #357, #150 ), #81 ) ;
#145 = ADVANCED_FACE ( 'NONE', ( #365 ), #94, .T. ) ;
#146 = VERTEX_POINT ( 'NONE', #285 ) ;
#147 = CARTESIAN_POINT ( 'NONE',  ( 7.589415207398531038E-15, 30.00000000000000000, 0.000000000000000000 ) ) ;
#148 = EDGE_LOOP ( 'NONE', ( #231, #91 ) ) ;
#149 = CIRCLE ( 'NONE', #103, 10.00000000000000000 ) ;
#150 = AXIS2_PLACEMENT_3D ( 'NONE', #237, #29, #154 ) ;
#151 = EDGE_CURVE ( 'NONE', #253, #307, #277, .T. ) ;
#152 = DIRECTION ( 'NONE',  ( 0.000000000000000000, 0.000000000000000000, 1.000000000000000000 ) ) ;
#153 = UNCERTAINTY_MEASURE_WITH_UNIT (LENGTH_MEASURE( 1.000000000000000082E-05 ), #90, 'distance_accuracy_value', 'NONE');
#154 = DIRECTION ( 'NONE',  ( 1.000000000000000000, 0.000000000000000000, 0.000000000000000000 ) ) ;
#155 = DIRECTION ( 'NONE',  ( -0.000000000000000000, -1.000000000000000000, -0.000000000000000000 ) ) ;
#156 = CARTESIAN_POINT ( 'NONE',  ( -10.00000000000000355, 89.00000000000000000, 0.000000000000000000 ) ) ;
#157 = FILL_AREA_STYLE_COLOUR ( '', #100 ) ;
#158 = CARTESIAN_POINT ( 'NONE',  ( 1.194030629168669469E-15, 0.000000000000000000, 9.500000000000000000 ) ) ;
#159 = FILL_AREA_STYLE ('',( #43 ) ) ;
#160 = VECTOR ( 'NONE', #176, 1000.000000000000000 ) ;
#161 = STYLED_ITEM ( 'NONE', ( #292 ), #357 ) ;
#162 = EDGE_CURVE ( 'NONE', #370, #328, #222, .T. ) ;
#163 = SURFACE_STYLE_FILL_AREA ( #15 ) ;
#164 = CARTESIAN_POINT ( 'NONE',  ( 0.000000000000000000, 0.5000000000000000000, 0.000000000000000000 ) ) ;
#165 = FILL_AREA_STYLE_COLOUR ( '', #224 ) ;
#166 = DIRECTION ( 'NONE',  ( -1.000000000000000000, 0.000000000000000000, 0.000000000000000000 ) ) ;
#167 =( NAMED_UNIT ( * ) PLANE_ANGLE_UNIT ( ) SI_UNIT ( $, .RADIAN. ) );
#168 = AXIS2_PLACEMENT_3D ( 'NONE', #60, #258, #28 ) ;
#169 = LINE ( 'NONE', #282, #295 ) ;
#170 = AXIS2_PLACEMENT_3D ( 'NONE', #164, #126, #266 ) ;
#171 = CIRCLE ( 'NONE', #117, 9.999999999999992895 ) ;
#172 = FACE_OUTER_BOUND ( 'NONE', #148, .T. ) ;
#173 = PRESENTATION_STYLE_ASSIGNMENT (( #196 ) ) ;
#174 = ORIENTED_EDGE ( 'NONE', *, *, #93, .F. ) ;
#175 = DIRECTION ( 'NONE',  ( -1.000000000000000000, 0.000000000000000000, 0.000000000000000000 ) ) ;
#176 = DIRECTION ( 'NONE',  ( -1.576935716305902603E-16, 1.000000000000000000, -0.000000000000000000 ) ) ;
#177 = ORIENTED_EDGE ( 'NONE', *, *, #121, .F. ) ;
#178 = ADVANCED_FACE ( 'NONE', ( #35 ), #179, .F. ) ;
#179 = PLANE ( 'NONE',  #185 ) ;
#180 = DIRECTION ( 'NONE',  ( 0.000000000000000000, 0.000000000000000000, -1.000000000000000000 ) ) ;
#181 = UNCERTAINTY_MEASURE_WITH_UNIT (LENGTH_MEASURE( 1.000000000000000082E-05 ), #112, 'distance_accuracy_value', 'NONE');
#182 = DIRECTION ( 'NONE',  ( -1.576935716305902603E-16, 1.000000000000000000, -0.000000000000000000 ) ) ;
#183 = ORIENTED_EDGE ( 'NONE', *, *, #104, .T. ) ;
#184 = EDGE_CURVE ( 'NONE', #207, #202, #1, .T. ) ;
#185 = AXIS2_PLACEMENT_3D ( 'NONE', #147, #345, #58 ) ;
#186 = COLOUR_RGB ( '',0.7921568627450980005, 0.8196078431372548767, 0.9333333333333333481 ) ;
#187 =( NAMED_UNIT ( * ) SI_UNIT ( $, .STERADIAN. ) SOLID_ANGLE_UNIT ( ) );
#188 = CYLINDRICAL_SURFACE ( 'NONE', #95, 10.00000000000000000 ) ;
#189 = UNCERTAINTY_MEASURE_WITH_UNIT (LENGTH_MEASURE( 1.000000000000000082E-05 ), #22, 'distance_accuracy_value', 'NONE');
#190 = DIRECTION ( 'NONE',  ( 0.000000000000000000, 0.000000000000000000, -1.000000000000000000 ) ) ;
#191 = CLOSED_SHELL ( 'NONE', ( #32, #178, #259, #82 ) ) ;
#192 =( NAMED_UNIT ( * ) PLANE_ANGLE_UNIT ( ) SI_UNIT ( $, .RADIAN. ) );
#193 = EDGE_LOOP ( 'NONE', ( #177, #288 ) ) ;
#194 = EDGE_CURVE ( 'NONE', #146, #253, #226, .T. ) ;
#195 =( GEOMETRIC_REPRESENTATION_CONTEXT ( 3 ) GLOBAL_UNCERTAINTY_ASSIGNED_CONTEXT ( ( #9 ) ) GLOBAL_UNIT_ASSIGNED_CONTEXT ( ( #291, #369, #351 ) ) REPRESENTATION_CONTEXT ( 'NONE', 'WORKASPACE' ) );
#196 = SURFACE_STYLE_USAGE ( .BOTH. , #278 ) ;
#197 = ORIENTED_EDGE ( 'NONE', *, *, #211, .T. ) ;
#198 = DIRECTION ( 'NONE',  ( -0.000000000000000000, -1.000000000000000000, -0.000000000000000000 ) ) ;
#199 = SURFACE_STYLE_FILL_AREA ( #342 ) ;
#200 = ORIENTED_EDGE ( 'NONE', *, *, #93, .T. ) ;
#201 = FACE_OUTER_BOUND ( 'NONE', #50, .T. ) ;
#202 = VERTEX_POINT ( 'NONE', #227 ) ;
#203 =( GEOMETRIC_REPRESENTATION_CONTEXT ( 3 ) GLOBAL_UNCERTAINTY_ASSIGNED_CONTEXT ( ( #358 ) ) GLOBAL_UNIT_ASSIGNED_CONTEXT ( ( #323, #297, #187 ) ) REPRESENTATION_CONTEXT ( 'NONE', 'WORKASPACE' ) );
#204 = STYLED_ITEM ( 'NONE', ( #263 ), #274 ) ;
#205 = SURFACE_SIDE_STYLE ('',( #229 ) ) ;
#206 = CARTESIAN_POINT ( 'NONE',  ( 9.999999999999996447, 89.00000000000000000, 1.224646799147353059E-15 ) ) ;
#207 = VERTEX_POINT ( 'NONE', #293 ) ;
#208 = DIRECTION ( 'NONE',  ( -0.000000000000000000, -1.000000000000000000, -0.000000000000000000 ) ) ;
#209 = APPLICATION_PROTOCOL_DEFINITION ( 'draft international standard', 'automotive_design', 1998, #350 ) ;
#210 = PLANE ( 'NONE',  #289 ) ;
#211 = EDGE_CURVE ( 'NONE', #202, #207, #217, .T. ) ;
#212 = DIRECTION ( 'NONE',  ( 0.000000000000000000, 0.000000000000000000, -1.000000000000000000 ) ) ;
#213 = CARTESIAN_POINT ( 'NONE',  ( 0.000000000000000000, 0.5000000000000000000, 0.000000000000000000 ) ) ;
#214 = STYLED_ITEM ( 'NONE', ( #318 ), #41 ) ;
#215 = FACE_OUTER_BOUND ( 'NONE', #233, .T. ) ;
#216 = DIRECTION ( 'NONE',  ( -1.000000000000000000, 0.000000000000000000, 0.000000000000000000 ) ) ;
#217 = CIRCLE ( 'NONE', #71, 10.00000000000000000 ) ;
#218 = CARTESIAN_POINT ( 'NONE',  ( 0.000000000000000000, 0.000000000000000000, 0.000000000000000000 ) ) ;
#219 = ORIENTED_EDGE ( 'NONE', *, *, #244, .F. ) ;
#220 = CARTESIAN_POINT ( 'NONE',  ( -1.714505518806293652E-15, 89.00000000000000000, 0.000000000000000000 ) ) ;
#221 = ORIENTED_EDGE ( 'NONE', *, *, #330, .T. ) ;
#222 = CIRCLE ( 'NONE', #262, 0.5000000000000004441 ) ;
#223 = DIRECTION ( 'NONE',  ( -1.576935716305902603E-16, 1.000000000000000000, -0.000000000000000000 ) ) ;
#224 = COLOUR_RGB ( '',1.000000000000000000, 0.000000000000000000, 0.000000000000000000 ) ;
#225 = PRESENTATION_LAYER_ASSIGNMENT (  '', '', ( #24 ) ) ;
#226 = LINE ( 'NONE', #311, #160 ) ;
#227 = CARTESIAN_POINT ( 'NONE',  ( 0.000000000000000000, 30.00000000000000000, -10.00000000000000000 ) ) ;
#228 = CYLINDRICAL_SURFACE ( 'NONE', #115, 9.999999999999998224 ) ;
#229 = SURFACE_STYLE_FILL_AREA ( #64 ) ;
#230 = DIRECTION ( 'NONE',  ( -0.000000000000000000, -1.000000000000000000, -0.000000000000000000 ) ) ;
#231 = ORIENTED_EDGE ( 'NONE', *, *, #211, .F. ) ;
#232 = CARTESIAN_POINT ( 'NONE',  ( -1.714505518806293849E-15, 89.00000000000000000, 0.000000000000000000 ) ) ;
#233 = EDGE_LOOP ( 'NONE', ( #183, #200 ) ) ;
#234 = PRESENTATION_LAYER_ASSIGNMENT (  '', '', ( #204 ) ) ;
#235 = EDGE_CURVE ( 'NONE', #370, #26, #149, .T. ) ;
#236 = PRESENTATION_STYLE_ASSIGNMENT (( #340 ) ) ;
#237 = CARTESIAN_POINT ( 'NONE',  ( 0.000000000000000000, 0.000000000000000000, 0.000000000000000000 ) ) ;
#238 =( NAMED_UNIT ( * ) SI_UNIT ( $, .STERADIAN. ) SOLID_ANGLE_UNIT ( ) );
#239 = PRESENTATION_LAYER_ASSIGNMENT (  '', '', ( #99 ) ) ;
#240 = SURFACE_SIDE_STYLE ('',( #13 ) ) ;
#241 = PRODUCT_DEFINITION_CONTEXT ( 'detailed design', #350, 'design' ) ;
#242 = DIRECTION ( 'NONE',  ( 0.000000000000000000, 0.000000000000000000, -1.000000000000000000 ) ) ;
#243 = DIRECTION ( 'NONE',  ( -0.000000000000000000, -1.000000000000000000, -0.000000000000000000 ) ) ;
#244 = EDGE_CURVE ( 'NONE', #257, #307, #343, .T. ) ;
#245 = CARTESIAN_POINT ( 'NONE',  ( 1.163414459189985485E-15, 0.5000000000000000000, 9.500000000000000000 ) ) ;
#246 = ORIENTED_EDGE ( 'NONE', *, *, #132, .F. ) ;
#247 = CARTESIAN_POINT ( 'NONE',  ( 10.00000000000000000, 89.00000000000000000, 0.000000000000000000 ) ) ;
#248 = ORIENTED_EDGE ( 'NONE', *, *, #279, .T. ) ;
#249 = ORIENTED_EDGE ( 'NONE', *, *, #162, .T. ) ;
#250 = AXIS2_PLACEMENT_3D ( 'NONE', #218, #131, #45 ) ;
#251 =( NAMED_UNIT ( * ) SI_UNIT ( $, .STERADIAN. ) SOLID_ANGLE_UNIT ( ) );
#252 = TOROIDAL_SURFACE ( 'NONE', #170, 9.500000000000000000, 0.5000000000000002220 ) ;
#253 = VERTEX_POINT ( 'NONE', #156 ) ;
#254 = SURFACE_STYLE_USAGE ( .BOTH. , #205 ) ;
#255 = SURFACE_SIDE_STYLE ('',( #199 ) ) ;
#256 = FACE_OUTER_BOUND ( 'NONE', #84, .T. ) ;
#257 = VERTEX_POINT ( 'NONE', #33 ) ;
#258 = DIRECTION ( 'NONE',  ( -1.576935716305902603E-16, 1.000000000000000000, -0.000000000000000000 ) ) ;
#259 = ADVANCED_FACE ( 'NONE', ( #201 ), #320, .T. ) ;
#260 = DIRECTION ( 'NONE',  ( -0.000000000000000000, -1.000000000000000000, -0.000000000000000000 ) ) ;
#261 = EDGE_LOOP ( 'NONE', ( #280, #135, #363, #56 ) ) ;
#262 = AXIS2_PLACEMENT_3D ( 'NONE', #5, #118, #152 ) ;
#263 = PRESENTATION_STYLE_ASSIGNMENT (( #265 ) ) ;
#264 = CARTESIAN_POINT ( 'NONE',  ( 0.000000000000000000, 30.00000000000000000, 0.000000000000000000 ) ) ;
#265 = SURFACE_STYLE_USAGE ( .BOTH. , #240 ) ;
#266 = DIRECTION ( 'NONE',  ( 0.000000000000000000, 0.000000000000000000, -1.000000000000000000 ) ) ;
#267 = ADVANCED_FACE ( 'NONE', ( #256 ), #252, .T. ) ;
#268 = MECHANICAL_DESIGN_GEOMETRIC_PRESENTATION_REPRESENTATION (  '', ( #204 ), #53 ) ;
#269 = SURFACE_STYLE_FILL_AREA ( #159 ) ;
#270 = CYLINDRICAL_SURFACE ( 'NONE', #250, 10.00000000000000000 ) ;
#271 = FILL_AREA_STYLE ('',( #157 ) ) ;
#272 =( NAMED_UNIT ( * ) PLANE_ANGLE_UNIT ( ) SI_UNIT ( $, .RADIAN. ) );
#273 = SURFACE_STYLE_USAGE ( .BOTH. , #133 ) ;
#274 = ADVANCED_FACE ( 'NONE', ( #215 ), #210, .T. ) ;
#275 = CARTESIAN_POINT ( 'NONE',  ( 0.000000000000000000, 0.000000000000000000, 0.000000000000000000 ) ) ;
#276 = UNCERTAINTY_MEASURE_WITH_UNIT (LENGTH_MEASURE( 1.000000000000000082E-05 ), #70, 'distance_accuracy_value', 'NONE');
#277 = CIRCLE ( 'NONE', #168, 10.00000000000000178 ) ;
#278 = SURFACE_SIDE_STYLE ('',( #113 ) ) ;
#279 = EDGE_CURVE ( 'NONE', #26, #370, #130, .T. ) ;
#280 = ORIENTED_EDGE ( 'NONE', *, *, #121, .T. ) ;
#281 = PRESENTATION_STYLE_ASSIGNMENT (( #356 ) ) ;
#282 = CARTESIAN_POINT ( 'NONE',  ( 0.000000000000000000, 0.000000000000000000, -10.00000000000000000 ) ) ;
#283 = CIRCLE ( 'NONE', #315, 0.5000000000000004441 ) ;
#284 = STYLED_ITEM ( 'NONE', ( #362 ), #348 ) ;
#285 = CARTESIAN_POINT ( 'NONE',  ( -9.999999999999985789, 30.00000000000000000, 0.000000000000000000 ) ) ;
#286 = FILL_AREA_STYLE_COLOUR ( '', #23 ) ;
#287 = ORIENTED_EDGE ( 'NONE', *, *, #235, .T. ) ;
#288 = ORIENTED_EDGE ( 'NONE', *, *, #344, .F. ) ;
#289 = AXIS2_PLACEMENT_3D ( 'NONE', #354, #10, #242 ) ;
#290 = CARTESIAN_POINT ( 'NONE',  ( -1.714505518806293849E-15, 89.00000000000000000, 0.000000000000000000 ) ) ;
#291 =( LENGTH_UNIT ( ) NAMED_UNIT ( * ) SI_UNIT ( .MILLI., .METRE. ) );
#292 = PRESENTATION_STYLE_ASSIGNMENT (( #3 ) ) ;
#293 = CARTESIAN_POINT ( 'NONE',  ( 1.224646799147353256E-15, 30.00000000000000000, 10.00000000000000000 ) ) ;
#294 = CIRCLE ( 'NONE', #134, 10.00000000000000178 ) ;
#295 = VECTOR ( 'NONE', #111, 1000.000000000000000 ) ;
#296 = DIRECTION ( 'NONE',  ( 1.000000000000000000, 0.000000000000000000, -1.224646799147353207E-16 ) ) ;
#297 =( NAMED_UNIT ( * ) PLANE_ANGLE_UNIT ( ) SI_UNIT ( $, .RADIAN. ) );
#298 = CIRCLE ( 'NONE', #63, 9.500000000000000000 ) ;
#299 = VECTOR ( 'NONE', #155, 1000.000000000000000 ) ;
#300 = ADVANCED_FACE ( 'NONE', ( #102 ), #188, .T. ) ;
#301 =( NAMED_UNIT ( * ) SI_UNIT ( $, .STERADIAN. ) SOLID_ANGLE_UNIT ( ) );
#302 = CARTESIAN_POINT ( 'NONE',  ( 7.589415207398531038E-15, 30.00000000000000000, 0.000000000000000000 ) ) ;
#303 =( GEOMETRIC_REPRESENTATION_CONTEXT ( 3 ) GLOBAL_UNCERTAINTY_ASSIGNED_CONTEXT ( ( #42 ) ) GLOBAL_UNIT_ASSIGNED_CONTEXT ( ( #334, #20, #140 ) ) REPRESENTATION_CONTEXT ( 'NONE', 'WORKASPACE' ) );
#304 = PRESENTATION_LAYER_ASSIGNMENT (  '', '', ( #161 ) ) ;
#305 = PRODUCT ( '59532', '59532', '', ( #312 ) ) ;
#306 = FILL_AREA_STYLE ('',( #368 ) ) ;
#307 = VERTEX_POINT ( 'NONE', #85 ) ;
#308 = PRESENTATION_LAYER_ASSIGNMENT (  '', '', ( #6 ) ) ;
#309 = APPLICATION_CONTEXT ( 'automotive_design' ) ;
#310 =( GEOMETRIC_REPRESENTATION_CONTEXT ( 3 ) GLOBAL_UNCERTAINTY_ASSIGNED_CONTEXT ( ( #127 ) ) GLOBAL_UNIT_ASSIGNED_CONTEXT ( ( #110, #27, #25 ) ) REPRESENTATION_CONTEXT ( 'NONE', 'WORKASPACE' ) );
#311 = CARTESIAN_POINT ( 'NONE',  ( -10.00000000000000000, 89.00000000000000000, 0.000000000000000000 ) ) ;
#312 = PRODUCT_CONTEXT ( 'NONE', #309, 'mechanical' ) ;
#313 = CARTESIAN_POINT ( 'NONE',  ( 1.224646799147353256E-15, 0.5000000000000000000, 10.00000000000000000 ) ) ;
#314 = PRODUCT_RELATED_PRODUCT_CATEGORY ( 'part', '', ( #305 ) ) ;
#315 = AXIS2_PLACEMENT_3D ( 'NONE', #245, #296, #40 ) ;
#316 = CARTESIAN_POINT ( 'NONE',  ( 0.000000000000000000, 30.00000000000000000, 0.000000000000000000 ) ) ;
#317 = PRESENTATION_LAYER_ASSIGNMENT (  '', '', ( #284 ) ) ;
#318 = PRESENTATION_STYLE_ASSIGNMENT (( #254 ) ) ;
#319 = SURFACE_STYLE_FILL_AREA ( #68 ) ;
#320 = CYLINDRICAL_SURFACE ( 'NONE', #324, 9.999999999999998224 ) ;
#321 = SHAPE_DEFINITION_REPRESENTATION ( #327, #144 ) ;
#322 = COLOUR_RGB ( '',1.000000000000000000, 0.000000000000000000, 0.000000000000000000 ) ;
#323 =( LENGTH_UNIT ( ) NAMED_UNIT ( * ) SI_UNIT ( .MILLI., .METRE. ) );
#324 = AXIS2_PLACEMENT_3D ( 'NONE', #232, #96, #8 ) ;
#325 = DIRECTION ( 'NONE',  ( 1.576935716305902603E-16, -1.000000000000000000, 0.000000000000000000 ) ) ;
#326 = CARTESIAN_POINT ( 'NONE',  ( 0.000000000000000000, 0.000000000000000000, 0.000000000000000000 ) ) ;
#327 = PRODUCT_DEFINITION_SHAPE ( 'NONE', 'NONE',  #367 ) ;
#328 = VERTEX_POINT ( 'NONE', #366 ) ;
#329 = ORIENTED_EDGE ( 'NONE', *, *, #66, .T. ) ;
#330 = EDGE_CURVE ( 'NONE', #202, #370, #169, .T. ) ;
#331 = AXIS2_PLACEMENT_3D ( 'NONE', #213, #129, #212 ) ;
#332 = MECHANICAL_DESIGN_GEOMETRIC_PRESENTATION_REPRESENTATION (  '', ( #161 ), #310 ) ;
#333 = SURFACE_SIDE_STYLE ('',( #88 ) ) ;
#334 =( LENGTH_UNIT ( ) NAMED_UNIT ( * ) SI_UNIT ( .MILLI., .METRE. ) );
#335 = ORIENTED_EDGE ( 'NONE', *, *, #66, .F. ) ;
#336 = DIRECTION ( 'NONE',  ( -1.000000000000000000, 0.000000000000000000, 0.000000000000000000 ) ) ;
#337 = FILL_AREA_STYLE_COLOUR ( '', #39 ) ;
#338 =( GEOMETRIC_REPRESENTATION_CONTEXT ( 3 ) GLOBAL_UNCERTAINTY_ASSIGNED_CONTEXT ( ( #181 ) ) GLOBAL_UNIT_ASSIGNED_CONTEXT ( ( #112, #192, #83 ) ) REPRESENTATION_CONTEXT ( 'NONE', 'WORKASPACE' ) );
#339 = CARTESIAN_POINT ( 'NONE',  ( 1.224646799147353256E-15, 0.000000000000000000, 10.00000000000000000 ) ) ;
#340 = SURFACE_STYLE_USAGE ( .BOTH. , #67 ) ;
#341 = ORIENTED_EDGE ( 'NONE', *, *, #162, .F. ) ;
#342 = FILL_AREA_STYLE ('',( #89 ) ) ;
#343 = LINE ( 'NONE', #206, #352 ) ;
#344 = EDGE_CURVE ( 'NONE', #257, #146, #171, .T. ) ;
#345 = DIRECTION ( 'NONE',  ( -1.576935716305902603E-16, 1.000000000000000000, 0.000000000000000000 ) ) ;
#346 = ORIENTED_EDGE ( 'NONE', *, *, #184, .T. ) ;
#347 = CLOSED_SHELL ( 'NONE', ( #300, #145, #274, #267, #101, #41 ) ) ;
#348 = MANIFOLD_SOLID_BREP ( 'Revolve - Cutting Edge', #347 ) ;
#349 = ORIENTED_EDGE ( 'NONE', *, *, #151, .T. ) ;
#350 = APPLICATION_CONTEXT ( 'automotive_design' ) ;
#351 =( NAMED_UNIT ( * ) SI_UNIT ( $, .STERADIAN. ) SOLID_ANGLE_UNIT ( ) );
#352 = VECTOR ( 'NONE', #182, 1000.000000000000000 ) ;
#353 = PRODUCT_DEFINITION_FORMATION_WITH_SPECIFIED_SOURCE ( 'ANY', '', #305, .NOT_KNOWN. ) ;
#354 = CARTESIAN_POINT ( 'NONE',  ( 0.000000000000000000, 0.000000000000000000, 0.000000000000000000 ) ) ;
#355 = EDGE_CURVE ( 'NONE', #207, #26, #57, .T. ) ;
#356 = SURFACE_STYLE_USAGE ( .BOTH. , #11 ) ;
#357 = MANIFOLD_SOLID_BREP ( 'Revolve - Tool Body (Straight Shanked)', #191 ) ;
#358 = UNCERTAINTY_MEASURE_WITH_UNIT (LENGTH_MEASURE( 1.000000000000000082E-05 ), #323, 'distance_accuracy_value', 'NONE');
#359 = STYLED_ITEM ( 'NONE', ( #281 ), #300 ) ;
#360 = FACE_OUTER_BOUND ( 'NONE', #79, .T. ) ;
#361 = ORIENTED_EDGE ( 'NONE', *, *, #132, .T. ) ;
#362 = PRESENTATION_STYLE_ASSIGNMENT (( #109 ) ) ;
#363 = ORIENTED_EDGE ( 'NONE', *, *, #151, .F. ) ;
#364 = PRESENTATION_LAYER_ASSIGNMENT (  '', '', ( #359 ) ) ;
#365 = FACE_OUTER_BOUND ( 'NONE', #61, .T. ) ;
#366 = CARTESIAN_POINT ( 'NONE',  ( 0.000000000000000000, 0.000000000000000000, -9.500000000000000000 ) ) ;
#367 = PRODUCT_DEFINITION ( 'UNKNOWN', '', #353, #241 ) ;
#368 = FILL_AREA_STYLE_COLOUR ( '', #322 ) ;
#369 =( NAMED_UNIT ( * ) PLANE_ANGLE_UNIT ( ) SI_UNIT ( $, .RADIAN. ) );
#370 = VERTEX_POINT ( 'NONE', #52 ) ;
ENDSEC;
END-ISO-10303-21;
