ISO-10303-21;
HEADER;
FILE_DESCRIPTION (( 'STEP AP214' ),
    '1' );
FILE_NAME ('59602.STEP',
    '2023-07-24T15:14:26',
    ( '' ),
    ( '' ),
    'SwSTEP 2.0',
    'SolidWorks 2023',
    '' );
FILE_SCHEMA (( 'AUTOMOTIVE_DESIGN' ));
ENDSEC;

DATA;
#1 = AXIS2_PLACEMENT_3D ( 'NONE', #336, #312, #54 ) ;
#2 = PRODUCT_DEFINITION_FORMATION_WITH_SPECIFIED_SOURCE ( 'ANY', '', #308, .NOT_KNOWN. ) ;
#3 = DIRECTION ( 'NONE',  ( -0.000000000000000000, -1.000000000000000000, -0.000000000000000000 ) ) ;
#4 = VERTEX_POINT ( 'NONE', #288 ) ;
#5 = EDGE_CURVE ( 'NONE', #224, #4, #188, .T. ) ;
#6 = ORIENTED_EDGE ( 'NONE', *, *, #52, .F. ) ;
#7 = SURFACE_STYLE_FILL_AREA ( #251 ) ;
#8 = ORIENTED_EDGE ( 'NONE', *, *, #349, .F. ) ;
#9 = EDGE_CURVE ( 'NONE', #257, #79, #63, .T. ) ;
#10 = MECHANICAL_DESIGN_GEOMETRIC_PRESENTATION_REPRESENTATION (  '', ( #176 ), #212 ) ;
#11 = AXIS2_PLACEMENT_3D ( 'NONE', #168, #31, #115 ) ;
#12 = CARTESIAN_POINT ( 'NONE',  ( 4.770489558936219510E-15, 24.00000000000000000, 0.000000000000000000 ) ) ;
#13 = ORIENTED_EDGE ( 'NONE', *, *, #342, .T. ) ;
#14 = DIRECTION ( 'NONE',  ( -1.223542297630008506E-16, 1.000000000000000000, -0.000000000000000000 ) ) ;
#15 = DIRECTION ( 'NONE',  ( -1.000000000000000000, 0.000000000000000000, 0.000000000000000000 ) ) ;
#16 = SURFACE_STYLE_USAGE ( .BOTH. , #93 ) ;
#17 = DIRECTION ( 'NONE',  ( -0.000000000000000000, -1.000000000000000000, -0.000000000000000000 ) ) ;
#18 = AXIS2_PLACEMENT_3D ( 'NONE', #210, #156, #15 ) ;
#19 = CARTESIAN_POINT ( 'NONE',  ( 0.000000000000000000, 0.000000000000000000, 0.000000000000000000 ) ) ;
#20 = COLOUR_RGB ( '',1.000000000000000000, 0.000000000000000000, 0.000000000000000000 ) ;
#21 =( NAMED_UNIT ( * ) SI_UNIT ( $, .STERADIAN. ) SOLID_ANGLE_UNIT ( ) );
#22 = CARTESIAN_POINT ( 'NONE',  ( 0.000000000000000000, 0.000000000000000000, 0.000000000000000000 ) ) ;
#23 = PRESENTATION_LAYER_ASSIGNMENT (  '', '', ( #365 ) ) ;
#24 = COLOUR_RGB ( '',1.000000000000000000, 0.000000000000000000, 0.000000000000000000 ) ;
#25 = FACE_OUTER_BOUND ( 'NONE', #85, .T. ) ;
#26 = COLOUR_RGB ( '',0.7921568627450980005, 0.8196078431372548767, 0.9333333333333333481 ) ;
#27 = AXIS2_PLACEMENT_3D ( 'NONE', #12, #14, #179 ) ;
#28 = LINE ( 'NONE', #49, #139 ) ;
#29 = CARTESIAN_POINT ( 'NONE',  ( -6.000000000000000000, 75.00000000000000000, 0.000000000000000000 ) ) ;
#30 = VERTEX_POINT ( 'NONE', #87 ) ;
#31 = DIRECTION ( 'NONE',  ( -0.000000000000000000, -1.000000000000000000, -0.000000000000000000 ) ) ;
#32 = FILL_AREA_STYLE_COLOUR ( '', #275 ) ;
#33 = ORIENTED_EDGE ( 'NONE', *, *, #132, .F. ) ;
#34 = PLANE ( 'NONE',  #354 ) ;
#35 = CARTESIAN_POINT ( 'NONE',  ( 5.999999999999996447, 75.00000000000000000, 7.347880794884117764E-16 ) ) ;
#36 = DIRECTION ( 'NONE',  ( 0.000000000000000000, 0.000000000000000000, -1.000000000000000000 ) ) ;
#37 = FILL_AREA_STYLE ('',( #291 ) ) ;
#38 = SURFACE_SIDE_STYLE ('',( #65 ) ) ;
#39 =( LENGTH_UNIT ( ) NAMED_UNIT ( * ) SI_UNIT ( .MILLI., .METRE. ) );
#40 = ADVANCED_FACE ( 'NONE', ( #142 ), #88, .T. ) ;
#41 = FACE_OUTER_BOUND ( 'NONE', #203, .T. ) ;
#42 =( NAMED_UNIT ( * ) SI_UNIT ( $, .STERADIAN. ) SOLID_ANGLE_UNIT ( ) );
#43 = ADVANCED_FACE ( 'NONE', ( #252 ), #325, .F. ) ;
#44 = AXIS2_PLACEMENT_3D ( 'NONE', #95, #238, #298 ) ;
#45 = SURFACE_STYLE_FILL_AREA ( #133 ) ;
#46 = UNCERTAINTY_MEASURE_WITH_UNIT (LENGTH_MEASURE( 1.000000000000000082E-05 ), #39, 'distance_accuracy_value', 'NONE');
#47 =( NAMED_UNIT ( * ) PLANE_ANGLE_UNIT ( ) SI_UNIT ( $, .RADIAN. ) );
#48 = APPLICATION_CONTEXT ( 'automotive_design' ) ;
#49 = CARTESIAN_POINT ( 'NONE',  ( 7.347880794884119736E-16, 0.000000000000000000, 6.000000000000000000 ) ) ;
#50 = PRESENTATION_LAYER_ASSIGNMENT (  '', '', ( #222 ) ) ;
#51 =( GEOMETRIC_REPRESENTATION_CONTEXT ( 3 ) GLOBAL_UNCERTAINTY_ASSIGNED_CONTEXT ( ( #143 ) ) GLOBAL_UNIT_ASSIGNED_CONTEXT ( ( #67, #295, #211 ) ) REPRESENTATION_CONTEXT ( 'NONE', 'WORKASPACE' ) );
#52 = EDGE_CURVE ( 'NONE', #112, #79, #284, .T. ) ;
#53 = UNCERTAINTY_MEASURE_WITH_UNIT (LENGTH_MEASURE( 1.000000000000000082E-05 ), #357, 'distance_accuracy_value', 'NONE');
#54 = DIRECTION ( 'NONE',  ( -1.000000000000000000, 0.000000000000000000, 0.000000000000000000 ) ) ;
#55 = ORIENTED_EDGE ( 'NONE', *, *, #181, .T. ) ;
#56 = MANIFOLD_SOLID_BREP ( 'Revolve - Tool Body (Straight Shanked)', #111 ) ;
#57 = ORIENTED_EDGE ( 'NONE', *, *, #9, .T. ) ;
#58 = CARTESIAN_POINT ( 'NONE',  ( 0.000000000000000000, 0.5000000000000000000, -6.000000000000000000 ) ) ;
#59 = ORIENTED_EDGE ( 'NONE', *, *, #206, .T. ) ;
#60 = AXIS2_PLACEMENT_3D ( 'NONE', #255, #281, #92 ) ;
#61 = CIRCLE ( 'NONE', #97, 0.5000000000000004441 ) ;
#62 = EDGE_LOOP ( 'NONE', ( #201, #110 ) ) ;
#63 = LINE ( 'NONE', #35, #338 ) ;
#64 = CARTESIAN_POINT ( 'NONE',  ( 0.000000000000000000, 0.5000000000000000000, 0.000000000000000000 ) ) ;
#65 = SURFACE_STYLE_FILL_AREA ( #152 ) ;
#66 = PRESENTATION_LAYER_ASSIGNMENT (  '', '', ( #194 ) ) ;
#67 =( LENGTH_UNIT ( ) NAMED_UNIT ( * ) SI_UNIT ( .MILLI., .METRE. ) );
#68 = FILL_AREA_STYLE_COLOUR ( '', #370 ) ;
#69 = DIRECTION ( 'NONE',  ( 1.000000000000000000, 0.000000000000000000, 0.000000000000000000 ) ) ;
#70 = PRESENTATION_LAYER_ASSIGNMENT (  '', '', ( #333 ) ) ;
#71 = CARTESIAN_POINT ( 'NONE',  ( 0.000000000000000000, 0.5000000000000000000, 0.000000000000000000 ) ) ;
#72 = ADVANCED_FACE ( 'NONE', ( #155 ), #353, .T. ) ;
#73 = CARTESIAN_POINT ( 'NONE',  ( 0.000000000000000000, 0.5000000000000000000, 0.000000000000000000 ) ) ;
#74 =( NAMED_UNIT ( * ) SI_UNIT ( $, .STERADIAN. ) SOLID_ANGLE_UNIT ( ) );
#75 = FILL_AREA_STYLE_COLOUR ( '', #20 ) ;
#76 = AXIS2_PLACEMENT_3D ( 'NONE', #22, #185, #216 ) ;
#77 = SURFACE_STYLE_USAGE ( .BOTH. , #159 ) ;
#78 = UNCERTAINTY_MEASURE_WITH_UNIT (LENGTH_MEASURE( 1.000000000000000082E-05 ), #197, 'distance_accuracy_value', 'NONE');
#79 = VERTEX_POINT ( 'NONE', #126 ) ;
#80 = ADVANCED_FACE ( 'NONE', ( #241 ), #328, .T. ) ;
#81 = ADVANCED_FACE ( 'NONE', ( #364 ), #272, .T. ) ;
#82 = PLANE ( 'NONE',  #114 ) ;
#83 = AXIS2_PLACEMENT_3D ( 'NONE', #150, #323, #267 ) ;
#84 = CIRCLE ( 'NONE', #27, 5.999999999999996447 ) ;
#85 = EDGE_LOOP ( 'NONE', ( #166, #313 ) ) ;
#86 = DIRECTION ( 'NONE',  ( 0.000000000000000000, -1.000000000000000000, -0.000000000000000000 ) ) ;
#87 = CARTESIAN_POINT ( 'NONE',  ( 7.041719095097280880E-16, 0.000000000000000000, 5.500000000000000000 ) ) ;
#88 = TOROIDAL_SURFACE ( 'NONE', #200, 5.500000000000000000, 0.5000000000000002220 ) ;
#89 = CIRCLE ( 'NONE', #134, 6.000000000000000000 ) ;
#90 = AXIS2_PLACEMENT_3D ( 'NONE', #327, #147, #36 ) ;
#91 = DIRECTION ( 'NONE',  ( 0.000000000000000000, 0.000000000000000000, -1.000000000000000000 ) ) ;
#92 = DIRECTION ( 'NONE',  ( 0.000000000000000000, 0.000000000000000000, 1.000000000000000000 ) ) ;
#93 = SURFACE_SIDE_STYLE ('',( #209 ) ) ;
#94 = DIRECTION ( 'NONE',  ( -1.000000000000000000, 0.000000000000000000, 0.000000000000000000 ) ) ;
#95 = CARTESIAN_POINT ( 'NONE',  ( 0.000000000000000000, 0.000000000000000000, 0.000000000000000000 ) ) ;
#96 = UNCERTAINTY_MEASURE_WITH_UNIT (LENGTH_MEASURE( 1.000000000000000082E-05 ), #135, 'distance_accuracy_value', 'NONE');
#97 = AXIS2_PLACEMENT_3D ( 'NONE', #158, #226, #141 ) ;
#98 = SURFACE_STYLE_USAGE ( .BOTH. , #38 ) ;
#99 = PRESENTATION_STYLE_ASSIGNMENT (( #16 ) ) ;
#100 =( NAMED_UNIT ( * ) SI_UNIT ( $, .STERADIAN. ) SOLID_ANGLE_UNIT ( ) );
#101 =( NAMED_UNIT ( * ) SI_UNIT ( $, .STERADIAN. ) SOLID_ANGLE_UNIT ( ) );
#102 = FILL_AREA_STYLE_COLOUR ( '', #220 ) ;
#103 =( GEOMETRIC_REPRESENTATION_CONTEXT ( 3 ) GLOBAL_UNCERTAINTY_ASSIGNED_CONTEXT ( ( #310 ) ) GLOBAL_UNIT_ASSIGNED_CONTEXT ( ( #335, #47, #307 ) ) REPRESENTATION_CONTEXT ( 'NONE', 'WORKASPACE' ) );
#104 = MECHANICAL_DESIGN_GEOMETRIC_PRESENTATION_REPRESENTATION (  '', ( #189 ), #196 ) ;
#105 = PRODUCT_DEFINITION_CONTEXT ( 'detailed design', #301, 'design' ) ;
#106 = SURFACE_STYLE_FILL_AREA ( #249 ) ;
#107 = SURFACE_STYLE_FILL_AREA ( #362 ) ;
#108 = STYLED_ITEM ( 'NONE', ( #330 ), #151 ) ;
#109 = EDGE_CURVE ( 'NONE', #30, #4, #245, .T. ) ;
#110 = ORIENTED_EDGE ( 'NONE', *, *, #206, .F. ) ;
#111 = CLOSED_SHELL ( 'NONE', ( #299, #43, #72, #290 ) ) ;
#112 = VERTEX_POINT ( 'NONE', #334 ) ;
#113 = CIRCLE ( 'NONE', #324, 5.500000000000000000 ) ;
#114 = AXIS2_PLACEMENT_3D ( 'NONE', #163, #86, #228 ) ;
#115 = DIRECTION ( 'NONE',  ( 0.000000000000000000, 0.000000000000000000, -1.000000000000000000 ) ) ;
#116 = PRESENTATION_STYLE_ASSIGNMENT (( #233 ) ) ;
#117 = ADVANCED_BREP_SHAPE_REPRESENTATION ( '59602', ( #178, #56, #326 ), #51 ) ;
#118 =( NAMED_UNIT ( * ) SI_UNIT ( $, .STERADIAN. ) SOLID_ANGLE_UNIT ( ) );
#119 = ORIENTED_EDGE ( 'NONE', *, *, #319, .T. ) ;
#120 = CARTESIAN_POINT ( 'NONE',  ( 0.000000000000000000, 24.00000000000000000, 0.000000000000000000 ) ) ;
#121 = VERTEX_POINT ( 'NONE', #367 ) ;
#122 = ORIENTED_EDGE ( 'NONE', *, *, #157, .T. ) ;
#123 = APPLICATION_PROTOCOL_DEFINITION ( 'draft international standard', 'automotive_design', 1998, #48 ) ;
#124 = DIRECTION ( 'NONE',  ( -1.000000000000000000, -1.223542297630008506E-16, 0.000000000000000000 ) ) ;
#125 = CARTESIAN_POINT ( 'NONE',  ( 0.000000000000000000, 24.00000000000000000, -6.000000000000000000 ) ) ;
#126 = CARTESIAN_POINT ( 'NONE',  ( 6.000000000000000000, 75.00000000000000000, 7.347880794884119736E-16 ) ) ;
#127 = CIRCLE ( 'NONE', #285, 6.000000000000000000 ) ;
#128 = DIRECTION ( 'NONE',  ( 0.000000000000000000, 0.000000000000000000, 1.000000000000000000 ) ) ;
#129 = DIRECTION ( 'NONE',  ( 0.000000000000000000, 0.000000000000000000, -1.000000000000000000 ) ) ;
#130 = FILL_AREA_STYLE_COLOUR ( '', #26 ) ;
#131 = ORIENTED_EDGE ( 'NONE', *, *, #279, .T. ) ;
#132 = EDGE_CURVE ( 'NONE', #347, #247, #28, .T. ) ;
#133 = FILL_AREA_STYLE ('',( #273 ) ) ;
#134 = AXIS2_PLACEMENT_3D ( 'NONE', #120, #258, #221 ) ;
#135 =( LENGTH_UNIT ( ) NAMED_UNIT ( * ) SI_UNIT ( .MILLI., .METRE. ) );
#136 = CARTESIAN_POINT ( 'NONE',  ( 7.347880794884119736E-16, 0.5000000000000000000, 6.000000000000000000 ) ) ;
#137 = EDGE_LOOP ( 'NONE', ( #122, #55, #340, #315 ) ) ;
#138 = SURFACE_STYLE_FILL_AREA ( #37 ) ;
#139 = VECTOR ( 'NONE', #213, 1000.000000000000000 ) ;
#140 = ORIENTED_EDGE ( 'NONE', *, *, #236, .T. ) ;
#141 = DIRECTION ( 'NONE',  ( -1.224646799147353454E-16, 0.000000000000000000, -1.000000000000000000 ) ) ;
#142 = FACE_OUTER_BOUND ( 'NONE', #137, .T. ) ;
#143 = UNCERTAINTY_MEASURE_WITH_UNIT (LENGTH_MEASURE( 1.000000000000000082E-05 ), #67, 'distance_accuracy_value', 'NONE');
#144 = DIRECTION ( 'NONE',  ( -0.000000000000000000, -1.000000000000000000, -0.000000000000000000 ) ) ;
#145 = SURFACE_SIDE_STYLE ('',( #138 ) ) ;
#146 = AXIS2_PLACEMENT_3D ( 'NONE', #192, #246, #244 ) ;
#147 = DIRECTION ( 'NONE',  ( -0.000000000000000000, -1.000000000000000000, -0.000000000000000000 ) ) ;
#148 = UNCERTAINTY_MEASURE_WITH_UNIT (LENGTH_MEASURE( 1.000000000000000082E-05 ), #205, 'distance_accuracy_value', 'NONE');
#149 =( NAMED_UNIT ( * ) PLANE_ANGLE_UNIT ( ) SI_UNIT ( $, .RADIAN. ) );
#150 = CARTESIAN_POINT ( 'NONE',  ( -1.469576158976823750E-15, 75.00000000000000000, 0.000000000000000000 ) ) ;
#151 = ADVANCED_FACE ( 'NONE', ( #25 ), #217, .T. ) ;
#152 = FILL_AREA_STYLE ('',( #102 ) ) ;
#153 = PRESENTATION_LAYER_ASSIGNMENT (  '', '', ( #176 ) ) ;
#154 = AXIS2_PLACEMENT_3D ( 'NONE', #64, #260, #232 ) ;
#155 = FACE_OUTER_BOUND ( 'NONE', #225, .T. ) ;
#156 = DIRECTION ( 'NONE',  ( -1.223542297630008506E-16, 1.000000000000000000, -0.000000000000000000 ) ) ;
#157 = EDGE_CURVE ( 'NONE', #224, #247, #127, .T. ) ;
#158 = CARTESIAN_POINT ( 'NONE',  ( 6.735557395310442023E-16, 0.5000000000000000000, 5.500000000000000000 ) ) ;
#159 = SURFACE_SIDE_STYLE ('',( #45 ) ) ;
#160 = UNCERTAINTY_MEASURE_WITH_UNIT (LENGTH_MEASURE( 1.000000000000000082E-05 ), #191, 'distance_accuracy_value', 'NONE');
#161 = MECHANICAL_DESIGN_GEOMETRIC_PRESENTATION_REPRESENTATION (  '', ( #177 ), #103 ) ;
#162 = ORIENTED_EDGE ( 'NONE', *, *, #109, .F. ) ;
#163 = CARTESIAN_POINT ( 'NONE',  ( 0.000000000000000000, 0.000000000000000000, 0.000000000000000000 ) ) ;
#164 = EDGE_LOOP ( 'NONE', ( #227, #343 ) ) ;
#165 =( NAMED_UNIT ( * ) PLANE_ANGLE_UNIT ( ) SI_UNIT ( $, .RADIAN. ) );
#166 = ORIENTED_EDGE ( 'NONE', *, *, #208, .F. ) ;
#167 = PRODUCT_RELATED_PRODUCT_CATEGORY ( 'part', '', ( #308 ) ) ;
#168 = CARTESIAN_POINT ( 'NONE',  ( 0.000000000000000000, 24.00000000000000000, 0.000000000000000000 ) ) ;
#169 = AXIS2_PLACEMENT_3D ( 'NONE', #358, #263, #124 ) ;
#170 = ORIENTED_EDGE ( 'NONE', *, *, #348, .F. ) ;
#171 = SURFACE_SIDE_STYLE ('',( #7 ) ) ;
#172 = EDGE_LOOP ( 'NONE', ( #131, #322 ) ) ;
#173 = FACE_OUTER_BOUND ( 'NONE', #283, .T. ) ;
#174 = ORIENTED_EDGE ( 'NONE', *, *, #348, .T. ) ;
#175 = CARTESIAN_POINT ( 'NONE',  ( 7.347880794884119736E-16, 24.00000000000000000, 6.000000000000000000 ) ) ;
#176 = STYLED_ITEM ( 'NONE', ( #116 ), #40 ) ;
#177 = STYLED_ITEM ( 'NONE', ( #214 ), #81 ) ;
#178 = MANIFOLD_SOLID_BREP ( 'Revolve - Cutting Edge', #253 ) ;
#179 = DIRECTION ( 'NONE',  ( -1.000000000000000000, 0.000000000000000000, 0.000000000000000000 ) ) ;
#180 = SURFACE_SIDE_STYLE ('',( #235 ) ) ;
#181 = EDGE_CURVE ( 'NONE', #247, #30, #61, .T. ) ;
#182 = PRESENTATION_LAYER_ASSIGNMENT (  '', '', ( #108 ) ) ;
#183 = PRODUCT_CONTEXT ( 'NONE', #48, 'mechanical' ) ;
#184 = FILL_AREA_STYLE ('',( #68 ) ) ;
#185 = DIRECTION ( 'NONE',  ( -0.000000000000000000, -1.000000000000000000, -0.000000000000000000 ) ) ;
#186 = PRODUCT_DEFINITION_SHAPE ( 'NONE', 'NONE',  #278 ) ;
#187 = ORIENTED_EDGE ( 'NONE', *, *, #300, .T. ) ;
#188 = CIRCLE ( 'NONE', #60, 0.5000000000000004441 ) ;
#189 = STYLED_ITEM ( 'NONE', ( #99 ), #303 ) ;
#190 = PRESENTATION_STYLE_ASSIGNMENT (( #331 ) ) ;
#191 =( LENGTH_UNIT ( ) NAMED_UNIT ( * ) SI_UNIT ( .MILLI., .METRE. ) );
#192 = CARTESIAN_POINT ( 'NONE',  ( 0.000000000000000000, 0.000000000000000000, 0.000000000000000000 ) ) ;
#193 = ORIENTED_EDGE ( 'NONE', *, *, #181, .F. ) ;
#194 = STYLED_ITEM ( 'NONE', ( #207 ), #80 ) ;
#195 = DIRECTION ( 'NONE',  ( 1.000000000000000000, 1.223542297630008506E-16, 0.000000000000000000 ) ) ;
#196 =( GEOMETRIC_REPRESENTATION_CONTEXT ( 3 ) GLOBAL_UNCERTAINTY_ASSIGNED_CONTEXT ( ( #148 ) ) GLOBAL_UNIT_ASSIGNED_CONTEXT ( ( #205, #149, #101 ) ) REPRESENTATION_CONTEXT ( 'NONE', 'WORKASPACE' ) );
#197 =( LENGTH_UNIT ( ) NAMED_UNIT ( * ) SI_UNIT ( .MILLI., .METRE. ) );
#198 = DIRECTION ( 'NONE',  ( -1.223542297630008506E-16, 1.000000000000000000, -0.000000000000000000 ) ) ;
#199 = FACE_OUTER_BOUND ( 'NONE', #164, .T. ) ;
#200 = AXIS2_PLACEMENT_3D ( 'NONE', #71, #17, #129 ) ;
#201 = ORIENTED_EDGE ( 'NONE', *, *, #319, .F. ) ;
#202 = AXIS2_PLACEMENT_3D ( 'NONE', #316, #198, #314 ) ;
#203 = EDGE_LOOP ( 'NONE', ( #193, #13, #363, #162 ) ) ;
#204 = VECTOR ( 'NONE', #264, 1000.000000000000000 ) ;
#205 =( LENGTH_UNIT ( ) NAMED_UNIT ( * ) SI_UNIT ( .MILLI., .METRE. ) );
#206 = EDGE_CURVE ( 'NONE', #257, #121, #339, .T. ) ;
#207 = PRESENTATION_STYLE_ASSIGNMENT (( #98 ) ) ;
#208 = EDGE_CURVE ( 'NONE', #337, #347, #89, .T. ) ;
#209 = SURFACE_STYLE_FILL_AREA ( #356 ) ;
#210 = CARTESIAN_POINT ( 'NONE',  ( -1.469576158976823750E-15, 75.00000000000000000, 0.000000000000000000 ) ) ;
#211 =( NAMED_UNIT ( * ) SI_UNIT ( $, .STERADIAN. ) SOLID_ANGLE_UNIT ( ) );
#212 =( GEOMETRIC_REPRESENTATION_CONTEXT ( 3 ) GLOBAL_UNCERTAINTY_ASSIGNED_CONTEXT ( ( #78 ) ) GLOBAL_UNIT_ASSIGNED_CONTEXT ( ( #197, #317, #42 ) ) REPRESENTATION_CONTEXT ( 'NONE', 'WORKASPACE' ) );
#213 = DIRECTION ( 'NONE',  ( -0.000000000000000000, -1.000000000000000000, -0.000000000000000000 ) ) ;
#214 = PRESENTATION_STYLE_ASSIGNMENT (( #248 ) ) ;
#215 = SURFACE_SIDE_STYLE ('',( #107 ) ) ;
#216 = DIRECTION ( 'NONE',  ( 0.000000000000000000, 0.000000000000000000, -1.000000000000000000 ) ) ;
#217 = PLANE ( 'NONE',  #329 ) ;
#218 = CYLINDRICAL_SURFACE ( 'NONE', #1, 5.999999999999998224 ) ;
#219 = ORIENTED_EDGE ( 'NONE', *, *, #132, .T. ) ;
#220 = COLOUR_RGB ( '',1.000000000000000000, 0.000000000000000000, 0.000000000000000000 ) ;
#221 = DIRECTION ( 'NONE',  ( 0.000000000000000000, 0.000000000000000000, -1.000000000000000000 ) ) ;
#222 = STYLED_ITEM ( 'NONE', ( #289 ), #277 ) ;
#223 = VECTOR ( 'NONE', #144, 1000.000000000000000 ) ;
#224 = VERTEX_POINT ( 'NONE', #58 ) ;
#225 = EDGE_LOOP ( 'NONE', ( #369, #59, #187, #8 ) ) ;
#226 = DIRECTION ( 'NONE',  ( 1.000000000000000000, 0.000000000000000000, -1.224646799147353207E-16 ) ) ;
#227 = ORIENTED_EDGE ( 'NONE', *, *, #52, .T. ) ;
#228 = DIRECTION ( 'NONE',  ( 0.000000000000000000, 0.000000000000000000, -1.000000000000000000 ) ) ;
#229 = ORIENTED_EDGE ( 'NONE', *, *, #300, .F. ) ;
#230 = MECHANICAL_DESIGN_GEOMETRIC_PRESENTATION_REPRESENTATION (  '', ( #108 ), #318 ) ;
#231 = AXIS2_PLACEMENT_3D ( 'NONE', #242, #294, #94 ) ;
#232 = DIRECTION ( 'NONE',  ( 0.000000000000000000, 0.000000000000000000, -1.000000000000000000 ) ) ;
#233 = SURFACE_STYLE_USAGE ( .BOTH. , #145 ) ;
#234 = APPLICATION_PROTOCOL_DEFINITION ( 'draft international standard', 'automotive_design', 1998, #301 ) ;
#235 = SURFACE_STYLE_FILL_AREA ( #184 ) ;
#236 = EDGE_CURVE ( 'NONE', #347, #337, #360, .T. ) ;
#237 = CARTESIAN_POINT ( 'NONE',  ( 0.000000000000000000, 0.000000000000000000, -6.000000000000000000 ) ) ;
#238 = DIRECTION ( 'NONE',  ( -0.000000000000000000, -1.000000000000000000, -0.000000000000000000 ) ) ;
#239 = PRESENTATION_LAYER_ASSIGNMENT (  '', '', ( #189 ) ) ;
#240 = FILL_AREA_STYLE_COLOUR ( '', #305 ) ;
#241 = FACE_OUTER_BOUND ( 'NONE', #321, .T. ) ;
#242 = CARTESIAN_POINT ( 'NONE',  ( -1.469576158976823750E-15, 75.00000000000000000, 0.000000000000000000 ) ) ;
#243 = SURFACE_STYLE_USAGE ( .BOTH. , #180 ) ;
#244 = DIRECTION ( 'NONE',  ( 0.000000000000000000, 0.000000000000000000, -1.000000000000000000 ) ) ;
#245 = CIRCLE ( 'NONE', #76, 5.500000000000000000 ) ;
#246 = DIRECTION ( 'NONE',  ( -0.000000000000000000, -1.000000000000000000, -0.000000000000000000 ) ) ;
#247 = VERTEX_POINT ( 'NONE', #136 ) ;
#248 = SURFACE_STYLE_USAGE ( .BOTH. , #274 ) ;
#249 = FILL_AREA_STYLE ('',( #75 ) ) ;
#250 =( NAMED_UNIT ( * ) SI_UNIT ( $, .STERADIAN. ) SOLID_ANGLE_UNIT ( ) );
#251 = FILL_AREA_STYLE ('',( #32 ) ) ;
#252 = FACE_OUTER_BOUND ( 'NONE', #62, .T. ) ;
#253 = CLOSED_SHELL ( 'NONE', ( #80, #40, #277, #303, #81, #151 ) ) ;
#254 = CARTESIAN_POINT ( 'NONE',  ( 0.000000000000000000, 0.000000000000000000, 0.000000000000000000 ) ) ;
#255 = CARTESIAN_POINT ( 'NONE',  ( 0.000000000000000000, 0.5000000000000000000, -5.500000000000000000 ) ) ;
#256 = FACE_OUTER_BOUND ( 'NONE', #172, .T. ) ;
#257 = VERTEX_POINT ( 'NONE', #286 ) ;
#258 = DIRECTION ( 'NONE',  ( -0.000000000000000000, -1.000000000000000000, -0.000000000000000000 ) ) ;
#259 = ORIENTED_EDGE ( 'NONE', *, *, #342, .F. ) ;
#260 = DIRECTION ( 'NONE',  ( -0.000000000000000000, -1.000000000000000000, -0.000000000000000000 ) ) ;
#261 = ORIENTED_EDGE ( 'NONE', *, *, #208, .T. ) ;
#262 = MECHANICAL_DESIGN_GEOMETRIC_PRESENTATION_REPRESENTATION (  '', ( #222 ), #270 ) ;
#263 = DIRECTION ( 'NONE',  ( -1.223542297630008506E-16, 1.000000000000000000, 0.000000000000000000 ) ) ;
#264 = DIRECTION ( 'NONE',  ( -1.223542297630008506E-16, 1.000000000000000000, -0.000000000000000000 ) ) ;
#265 =( NAMED_UNIT ( * ) PLANE_ANGLE_UNIT ( ) SI_UNIT ( $, .RADIAN. ) );
#266 =( GEOMETRIC_REPRESENTATION_CONTEXT ( 3 ) GLOBAL_UNCERTAINTY_ASSIGNED_CONTEXT ( ( #53 ) ) GLOBAL_UNIT_ASSIGNED_CONTEXT ( ( #357, #296, #21 ) ) REPRESENTATION_CONTEXT ( 'NONE', 'WORKASPACE' ) );
#267 = DIRECTION ( 'NONE',  ( -1.000000000000000000, 0.000000000000000000, 0.000000000000000000 ) ) ;
#268 = DIRECTION ( 'NONE',  ( -0.000000000000000000, -1.000000000000000000, -0.000000000000000000 ) ) ;
#269 = MECHANICAL_DESIGN_GEOMETRIC_PRESENTATION_REPRESENTATION (  '', ( #194 ), #266 ) ;
#270 =( GEOMETRIC_REPRESENTATION_CONTEXT ( 3 ) GLOBAL_UNCERTAINTY_ASSIGNED_CONTEXT ( ( #96 ) ) GLOBAL_UNIT_ASSIGNED_CONTEXT ( ( #135, #165, #118 ) ) REPRESENTATION_CONTEXT ( 'NONE', 'WORKASPACE' ) );
#271 = TOROIDAL_SURFACE ( 'NONE', #154, 5.500000000000000000, 0.5000000000000002220 ) ;
#272 = CYLINDRICAL_SURFACE ( 'NONE', #146, 6.000000000000000000 ) ;
#273 = FILL_AREA_STYLE_COLOUR ( '', #24 ) ;
#274 = SURFACE_SIDE_STYLE ('',( #106 ) ) ;
#275 = COLOUR_RGB ( '',1.000000000000000000, 0.000000000000000000, 0.000000000000000000 ) ;
#276 = CARTESIAN_POINT ( 'NONE',  ( 0.000000000000000000, 24.00000000000000000, 0.000000000000000000 ) ) ;
#277 = ADVANCED_FACE ( 'NONE', ( #256 ), #82, .T. ) ;
#278 = PRODUCT_DEFINITION ( 'UNKNOWN', '', #2, #105 ) ;
#279 = EDGE_CURVE ( 'NONE', #4, #30, #113, .T. ) ;
#280 = LINE ( 'NONE', #29, #204 ) ;
#281 = DIRECTION ( 'NONE',  ( -1.000000000000000000, 0.000000000000000000, 0.000000000000000000 ) ) ;
#282 =( LENGTH_UNIT ( ) NAMED_UNIT ( * ) SI_UNIT ( .MILLI., .METRE. ) );
#283 = EDGE_LOOP ( 'NONE', ( #119, #57, #6, #229 ) ) ;
#284 = CIRCLE ( 'NONE', #18, 6.000000000000001776 ) ;
#285 = AXIS2_PLACEMENT_3D ( 'NONE', #73, #268, #302 ) ;
#286 = CARTESIAN_POINT ( 'NONE',  ( 6.000000000000000000, 24.00000000000000000, 7.347880794884120722E-16 ) ) ;
#287 = DIRECTION ( 'NONE',  ( -1.223542297630008506E-16, 1.000000000000000000, -0.000000000000000000 ) ) ;
#288 = CARTESIAN_POINT ( 'NONE',  ( 0.000000000000000000, 0.000000000000000000, -5.500000000000000000 ) ) ;
#289 = PRESENTATION_STYLE_ASSIGNMENT (( #320 ) ) ;
#290 = ADVANCED_FACE ( 'NONE', ( #199 ), #34, .F. ) ;
#291 = FILL_AREA_STYLE_COLOUR ( '', #332 ) ;
#292 = LINE ( 'NONE', #237, #223 ) ;
#293 =( GEOMETRIC_REPRESENTATION_CONTEXT ( 3 ) GLOBAL_UNCERTAINTY_ASSIGNED_CONTEXT ( ( #351 ) ) GLOBAL_UNIT_ASSIGNED_CONTEXT ( ( #282, #341, #250 ) ) REPRESENTATION_CONTEXT ( 'NONE', 'WORKASPACE' ) );
#294 = DIRECTION ( 'NONE',  ( -1.223542297630008506E-16, 1.000000000000000000, -0.000000000000000000 ) ) ;
#295 =( NAMED_UNIT ( * ) PLANE_ANGLE_UNIT ( ) SI_UNIT ( $, .RADIAN. ) );
#296 =( NAMED_UNIT ( * ) PLANE_ANGLE_UNIT ( ) SI_UNIT ( $, .RADIAN. ) );
#297 = MECHANICAL_DESIGN_GEOMETRIC_PRESENTATION_REPRESENTATION (  '', ( #333 ), #293 ) ;
#298 = DIRECTION ( 'NONE',  ( 0.000000000000000000, 0.000000000000000000, -1.000000000000000000 ) ) ;
#299 = ADVANCED_FACE ( 'NONE', ( #173 ), #218, .T. ) ;
#300 = EDGE_CURVE ( 'NONE', #121, #112, #280, .T. ) ;
#301 = APPLICATION_CONTEXT ( 'automotive_design' ) ;
#302 = DIRECTION ( 'NONE',  ( 0.000000000000000000, 0.000000000000000000, -1.000000000000000000 ) ) ;
#303 = ADVANCED_FACE ( 'NONE', ( #41 ), #271, .T. ) ;
#304 = ORIENTED_EDGE ( 'NONE', *, *, #157, .F. ) ;
#305 = COLOUR_RGB ( '',1.000000000000000000, 0.000000000000000000, 0.000000000000000000 ) ;
#306 = CIRCLE ( 'NONE', #90, 6.000000000000000000 ) ;
#307 =( NAMED_UNIT ( * ) SI_UNIT ( $, .STERADIAN. ) SOLID_ANGLE_UNIT ( ) );
#308 = PRODUCT ( '59602', '59602', '', ( #183 ) ) ;
#309 =( NAMED_UNIT ( * ) PLANE_ANGLE_UNIT ( ) SI_UNIT ( $, .RADIAN. ) );
#310 = UNCERTAINTY_MEASURE_WITH_UNIT (LENGTH_MEASURE( 1.000000000000000082E-05 ), #335, 'distance_accuracy_value', 'NONE');
#311 = MECHANICAL_DESIGN_GEOMETRIC_PRESENTATION_REPRESENTATION (  '', ( #365 ), #345 ) ;
#312 = DIRECTION ( 'NONE',  ( -1.223542297630008506E-16, 1.000000000000000000, -0.000000000000000000 ) ) ;
#313 = ORIENTED_EDGE ( 'NONE', *, *, #236, .F. ) ;
#314 = DIRECTION ( 'NONE',  ( -1.000000000000000000, 0.000000000000000000, 0.000000000000000000 ) ) ;
#315 = ORIENTED_EDGE ( 'NONE', *, *, #5, .F. ) ;
#316 = CARTESIAN_POINT ( 'NONE',  ( 4.770489558936219510E-15, 24.00000000000000000, 0.000000000000000000 ) ) ;
#317 =( NAMED_UNIT ( * ) PLANE_ANGLE_UNIT ( ) SI_UNIT ( $, .RADIAN. ) );
#318 =( GEOMETRIC_REPRESENTATION_CONTEXT ( 3 ) GLOBAL_UNCERTAINTY_ASSIGNED_CONTEXT ( ( #160 ) ) GLOBAL_UNIT_ASSIGNED_CONTEXT ( ( #191, #309, #74 ) ) REPRESENTATION_CONTEXT ( 'NONE', 'WORKASPACE' ) );
#319 = EDGE_CURVE ( 'NONE', #121, #257, #84, .T. ) ;
#320 = SURFACE_STYLE_USAGE ( .BOTH. , #171 ) ;
#321 = EDGE_LOOP ( 'NONE', ( #261, #219, #304, #170 ) ) ;
#322 = ORIENTED_EDGE ( 'NONE', *, *, #109, .T. ) ;
#323 = DIRECTION ( 'NONE',  ( -1.223542297630008506E-16, 1.000000000000000000, -0.000000000000000000 ) ) ;
#324 = AXIS2_PLACEMENT_3D ( 'NONE', #254, #3, #91 ) ;
#325 = PLANE ( 'NONE',  #169 ) ;
#326 = AXIS2_PLACEMENT_3D ( 'NONE', #19, #128, #69 ) ;
#327 = CARTESIAN_POINT ( 'NONE',  ( 0.000000000000000000, 0.5000000000000000000, 0.000000000000000000 ) ) ;
#328 = CYLINDRICAL_SURFACE ( 'NONE', #44, 6.000000000000000000 ) ;
#329 = AXIS2_PLACEMENT_3D ( 'NONE', #276, #359, #361 ) ;
#330 = PRESENTATION_STYLE_ASSIGNMENT (( #77 ) ) ;
#331 = SURFACE_STYLE_USAGE ( .BOTH. , #215 ) ;
#332 = COLOUR_RGB ( '',1.000000000000000000, 0.000000000000000000, 0.000000000000000000 ) ;
#333 = STYLED_ITEM ( 'NONE', ( #190 ), #178 ) ;
#334 = CARTESIAN_POINT ( 'NONE',  ( -6.000000000000003553, 75.00000000000000000, 0.000000000000000000 ) ) ;
#335 =( LENGTH_UNIT ( ) NAMED_UNIT ( * ) SI_UNIT ( .MILLI., .METRE. ) );
#336 = CARTESIAN_POINT ( 'NONE',  ( -1.469576158976823750E-15, 75.00000000000000000, 0.000000000000000000 ) ) ;
#337 = VERTEX_POINT ( 'NONE', #125 ) ;
#338 = VECTOR ( 'NONE', #287, 1000.000000000000000 ) ;
#339 = CIRCLE ( 'NONE', #202, 5.999999999999996447 ) ;
#340 = ORIENTED_EDGE ( 'NONE', *, *, #279, .F. ) ;
#341 =( NAMED_UNIT ( * ) PLANE_ANGLE_UNIT ( ) SI_UNIT ( $, .RADIAN. ) );
#342 = EDGE_CURVE ( 'NONE', #247, #224, #306, .T. ) ;
#343 = ORIENTED_EDGE ( 'NONE', *, *, #349, .T. ) ;
#344 = EDGE_LOOP ( 'NONE', ( #33, #140, #174, #259 ) ) ;
#345 =( GEOMETRIC_REPRESENTATION_CONTEXT ( 3 ) GLOBAL_UNCERTAINTY_ASSIGNED_CONTEXT ( ( #46 ) ) GLOBAL_UNIT_ASSIGNED_CONTEXT ( ( #39, #265, #100 ) ) REPRESENTATION_CONTEXT ( 'NONE', 'WORKASPACE' ) );
#346 = DIRECTION ( 'NONE',  ( 1.223542297630008506E-16, -1.000000000000000000, 0.000000000000000000 ) ) ;
#347 = VERTEX_POINT ( 'NONE', #175 ) ;
#348 = EDGE_CURVE ( 'NONE', #337, #224, #292, .T. ) ;
#349 = EDGE_CURVE ( 'NONE', #79, #112, #355, .T. ) ;
#350 = PRESENTATION_STYLE_ASSIGNMENT (( #243 ) ) ;
#351 = UNCERTAINTY_MEASURE_WITH_UNIT (LENGTH_MEASURE( 1.000000000000000082E-05 ), #282, 'distance_accuracy_value', 'NONE');
#352 = SHAPE_DEFINITION_REPRESENTATION ( #186, #117 ) ;
#353 = CYLINDRICAL_SURFACE ( 'NONE', #83, 5.999999999999998224 ) ;
#354 = AXIS2_PLACEMENT_3D ( 'NONE', #368, #346, #195 ) ;
#355 = CIRCLE ( 'NONE', #231, 6.000000000000001776 ) ;
#356 = FILL_AREA_STYLE ('',( #240 ) ) ;
#357 =( LENGTH_UNIT ( ) NAMED_UNIT ( * ) SI_UNIT ( .MILLI., .METRE. ) );
#358 = CARTESIAN_POINT ( 'NONE',  ( 4.770489558936219510E-15, 24.00000000000000000, 0.000000000000000000 ) ) ;
#359 = DIRECTION ( 'NONE',  ( 0.000000000000000000, 1.000000000000000000, 0.000000000000000000 ) ) ;
#360 = CIRCLE ( 'NONE', #11, 6.000000000000000000 ) ;
#361 = DIRECTION ( 'NONE',  ( 0.000000000000000000, -0.000000000000000000, 1.000000000000000000 ) ) ;
#362 = FILL_AREA_STYLE ('',( #130 ) ) ;
#363 = ORIENTED_EDGE ( 'NONE', *, *, #5, .T. ) ;
#364 = FACE_OUTER_BOUND ( 'NONE', #344, .T. ) ;
#365 = STYLED_ITEM ( 'NONE', ( #350 ), #56 ) ;
#366 = PRESENTATION_LAYER_ASSIGNMENT (  '', '', ( #177 ) ) ;
#367 = CARTESIAN_POINT ( 'NONE',  ( -5.999999999999991118, 24.00000000000000000, 0.000000000000000000 ) ) ;
#368 = CARTESIAN_POINT ( 'NONE',  ( 6.000000000000000000, 75.00000000000000000, 0.000000000000000000 ) ) ;
#369 = ORIENTED_EDGE ( 'NONE', *, *, #9, .F. ) ;
#370 = COLOUR_RGB ( '',0.7921568627450980005, 0.8196078431372548767, 0.9333333333333333481 ) ;
ENDSEC;
END-ISO-10303-21;
