ISO-10303-21;
HEADER;
FILE_DESCRIPTION (( 'STEP AP214' ),
    '1' );
FILE_NAME ('83295.STEP',
    '2023-06-30T23:00:19',
    ( '' ),
    ( '' ),
    'SwSTEP 2.0',
    'SolidWorks 2023',
    '' );
FILE_SCHEMA (( 'AUTOMOTIVE_DESIGN' ));
ENDSEC;

DATA;
#1 = ORIENTED_EDGE ( 'NONE', *, *, #92, .T. ) ;
#2 = SURFACE_SIDE_STYLE ('',( #139 ) ) ;
#3 = CARTESIAN_POINT ( 'NONE',  ( 6.123233995736772199E-17, 2.500000000000000000, 0.000000000000000000 ) ) ;
#4 =( GEOMETRIC_REPRESENTATION_CONTEXT ( 3 ) GLOBAL_UNCERTAINTY_ASSIGNED_CONTEXT ( ( #66 ) ) GLOBAL_UNIT_ASSIGNED_CONTEXT ( ( #44, #307, #238 ) ) REPRESENTATION_CONTEXT ( 'NONE', 'WORKASPACE' ) );
#5 = EDGE_LOOP ( 'NONE', ( #1, #362, #53, #141 ) ) ;
#6 = FACE_OUTER_BOUND ( 'NONE', #188, .T. ) ;
#7 = SURFACE_STYLE_USAGE ( .BOTH. , #8 ) ;
#8 = SURFACE_SIDE_STYLE ('',( #264 ) ) ;
#9 = ADVANCED_FACE ( 'NONE', ( #170 ), #55, .F. ) ;
#10 = STYLED_ITEM ( 'NONE', ( #59 ), #116 ) ;
#11 = CYLINDRICAL_SURFACE ( 'NONE', #368, 0.2499999999999999722 ) ;
#12 = ADVANCED_FACE ( 'NONE', ( #343 ), #199, .T. ) ;
#13 = LENGTH_MEASURE_WITH_UNIT ( LENGTH_MEASURE( 0.02539999999999999897 ), #34 );
#14 = PRESENTATION_LAYER_ASSIGNMENT (  '', '', ( #91 ) ) ;
#15 = CIRCLE ( 'NONE', #179, 0.2499999999999996114 ) ;
#16 = PRODUCT_DEFINITION_SHAPE ( 'NONE', 'NONE',  #373 ) ;
#17 = CARTESIAN_POINT ( 'NONE',  ( 0.000000000000000000, 0.000000000000000000, 0.000000000000000000 ) ) ;
#18 = ORIENTED_EDGE ( 'NONE', *, *, #211, .T. ) ;
#19 = CARTESIAN_POINT ( 'NONE',  ( 3.061616997868382402E-17, 0.000000000000000000, 0.2499999999999999722 ) ) ;
#20 = CYLINDRICAL_SURFACE ( 'NONE', #95, 0.2499999999999997224 ) ;
#21 = MECHANICAL_DESIGN_GEOMETRIC_PRESENTATION_REPRESENTATION (  '', ( #243 ), #63 ) ;
#22 = STYLED_ITEM ( 'NONE', ( #319 ), #345 ) ;
#23 = SURFACE_STYLE_USAGE ( .BOTH. , #309 ) ;
#24 = SHAPE_DEFINITION_REPRESENTATION ( #16, #291 ) ;
#25 = EDGE_LOOP ( 'NONE', ( #200, #231 ) ) ;
#26 = DIRECTION ( 'NONE',  ( 0.000000000000000000, 0.000000000000000000, -1.000000000000000000 ) ) ;
#27 = DIRECTION ( 'NONE',  ( 1.000000000000000000, 1.226208398481208123E-16, 0.000000000000000000 ) ) ;
#28 = COLOUR_RGB ( '',1.000000000000000000, 0.000000000000000000, 0.000000000000000000 ) ;
#29 =( NAMED_UNIT ( * ) PLANE_ANGLE_UNIT ( ) SI_UNIT ( $, .RADIAN. ) );
#30 = VERTEX_POINT ( 'NONE', #40 ) ;
#31 = EDGE_CURVE ( 'NONE', #255, #242, #61, .T. ) ;
#32 = CARTESIAN_POINT ( 'NONE',  ( 0.000000000000000000, 0.2500000000000000000, 0.000000000000000000 ) ) ;
#33 = ORIENTED_EDGE ( 'NONE', *, *, #288, .T. ) ;
#34 =( LENGTH_UNIT ( ) NAMED_UNIT ( * ) SI_UNIT ( $, .METRE. ) );
#35 = FILL_AREA_STYLE ('',( #356 ) ) ;
#36 = MANIFOLD_SOLID_BREP ( 'Revolve - Cutting Edge', #153 ) ;
#37 = ORIENTED_EDGE ( 'NONE', *, *, #41, .F. ) ;
#38 =( LENGTH_UNIT ( ) NAMED_UNIT ( * ) SI_UNIT ( $, .METRE. ) );
#39 = CIRCLE ( 'NONE', #240, 0.2500000000000000000 ) ;
#40 = CARTESIAN_POINT ( 'NONE',  ( 0.000000000000000000, 0.2500000000000000000, -0.2500000000000000000 ) ) ;
#41 = EDGE_CURVE ( 'NONE', #50, #30, #150, .T. ) ;
#42 = CARTESIAN_POINT ( 'NONE',  ( 0.000000000000000000, 0.6250000000000000000, 0.000000000000000000 ) ) ;
#43 = COLOUR_RGB ( '',1.000000000000000000, 0.000000000000000000, 0.000000000000000000 ) ;
#44 =( CONVERSION_BASED_UNIT ( 'INCH', #182 ) LENGTH_UNIT ( ) NAMED_UNIT ( #76 ) );
#45 = DIRECTION ( 'NONE',  ( -0.000000000000000000, -1.000000000000000000, -0.000000000000000000 ) ) ;
#46 = VECTOR ( 'NONE', #221, 39.37007874015748143 ) ;
#47 = DIRECTION ( 'NONE',  ( -0.000000000000000000, -1.000000000000000000, -0.000000000000000000 ) ) ;
#48 = MECHANICAL_DESIGN_GEOMETRIC_PRESENTATION_REPRESENTATION (  '', ( #10 ), #295 ) ;
#49 = DIRECTION ( 'NONE',  ( 0.000000000000000000, 0.000000000000000000, -1.000000000000000000 ) ) ;
#50 = VERTEX_POINT ( 'NONE', #71 ) ;
#51 = DIRECTION ( 'NONE',  ( -1.226208398481208123E-16, 1.000000000000000000, -0.000000000000000000 ) ) ;
#52 = AXIS2_PLACEMENT_3D ( 'NONE', #367, #322, #58 ) ;
#53 = ORIENTED_EDGE ( 'NONE', *, *, #280, .F. ) ;
#54 = PRESENTATION_LAYER_ASSIGNMENT (  '', '', ( #22 ) ) ;
#55 = PLANE ( 'NONE',  #52 ) ;
#56 = CARTESIAN_POINT ( 'NONE',  ( -0.2499999999999993061, 0.6250000000000000000, 0.000000000000000000 ) ) ;
#57 =( NAMED_UNIT ( * ) PLANE_ANGLE_UNIT ( ) SI_UNIT ( $, .RADIAN. ) );
#58 = DIRECTION ( 'NONE',  ( -1.000000000000000000, -1.226208398481208123E-16, 0.000000000000000000 ) ) ;
#59 = PRESENTATION_STYLE_ASSIGNMENT (( #144 ) ) ;
#60 = ORIENTED_EDGE ( 'NONE', *, *, #300, .T. ) ;
#61 = CIRCLE ( 'NONE', #220, 0.2500000000000000000 ) ;
#62 = DIRECTION ( 'NONE',  ( 1.224646799147353207E-16, -0.000000000000000000, 1.000000000000000000 ) ) ;
#63 =( GEOMETRIC_REPRESENTATION_CONTEXT ( 3 ) GLOBAL_UNCERTAINTY_ASSIGNED_CONTEXT ( ( #297 ) ) GLOBAL_UNIT_ASSIGNED_CONTEXT ( ( #250, #29, #257 ) ) REPRESENTATION_CONTEXT ( 'NONE', 'WORKASPACE' ) );
#64 = ADVANCED_FACE ( 'NONE', ( #120 ), #11, .T. ) ;
#65 = COLOUR_RGB ( '',1.000000000000000000, 0.000000000000000000, 0.000000000000000000 ) ;
#66 = UNCERTAINTY_MEASURE_WITH_UNIT (LENGTH_MEASURE( 1.000000000000000082E-05 ), #44, 'distance_accuracy_value', 'NONE');
#67 = CIRCLE ( 'NONE', #106, 0.2500000000000000000 ) ;
#68 = SURFACE_STYLE_FILL_AREA ( #331 ) ;
#69 = DIRECTION ( 'NONE',  ( 0.000000000000000000, 0.000000000000000000, -1.000000000000000000 ) ) ;
#70 = DIMENSIONAL_EXPONENTS ( 1.000000000000000000, 0.000000000000000000, 0.000000000000000000, 0.000000000000000000, 0.000000000000000000, 0.000000000000000000, 0.000000000000000000 ) ;
#71 = CARTESIAN_POINT ( 'NONE',  ( 0.000000000000000000, 0.6250000000000000000, -0.2499999999999999167 ) ) ;
#72 = DIRECTION ( 'NONE',  ( -1.000000000000000000, 0.000000000000000000, 0.000000000000000000 ) ) ;
#73 = STYLED_ITEM ( 'NONE', ( #293 ), #353 ) ;
#74 = DIRECTION ( 'NONE',  ( -1.226208398481208123E-16, 1.000000000000000000, -0.000000000000000000 ) ) ;
#75 = VERTEX_POINT ( 'NONE', #119 ) ;
#76 = DIMENSIONAL_EXPONENTS ( 1.000000000000000000, 0.000000000000000000, 0.000000000000000000, 0.000000000000000000, 0.000000000000000000, 0.000000000000000000, 0.000000000000000000 ) ;
#77 = CARTESIAN_POINT ( 'NONE',  ( 0.000000000000000000, 0.2500000000000000000, 0.000000000000000000 ) ) ;
#78 = PRESENTATION_LAYER_ASSIGNMENT (  '', '', ( #327 ) ) ;
#79 =( GEOMETRIC_REPRESENTATION_CONTEXT ( 3 ) GLOBAL_UNCERTAINTY_ASSIGNED_CONTEXT ( ( #160 ) ) GLOBAL_UNIT_ASSIGNED_CONTEXT ( ( #87, #202, #268 ) ) REPRESENTATION_CONTEXT ( 'NONE', 'WORKASPACE' ) );
#80 = CARTESIAN_POINT ( 'NONE',  ( 0.000000000000000000, 0.6250000000000000000, 0.000000000000000000 ) ) ;
#81 = EDGE_LOOP ( 'NONE', ( #198, #90, #105, #315 ) ) ;
#82 = CARTESIAN_POINT ( 'NONE',  ( 3.061616997868383634E-17, 0.2500000000000000000, 0.2500000000000000555 ) ) ;
#83 = DIRECTION ( 'NONE',  ( -1.226208398481208123E-16, 1.000000000000000000, -0.000000000000000000 ) ) ;
#84 = FACE_OUTER_BOUND ( 'NONE', #174, .T. ) ;
#85 = ORIENTED_EDGE ( 'NONE', *, *, #197, .T. ) ;
#86 = CARTESIAN_POINT ( 'NONE',  ( -3.061616997868383018E-17, 0.2500000000000000000, 0.000000000000000000 ) ) ;
#87 =( CONVERSION_BASED_UNIT ( 'INCH', #110 ) LENGTH_UNIT ( ) NAMED_UNIT ( #272 ) );
#88 = ORIENTED_EDGE ( 'NONE', *, *, #209, .F. ) ;
#89 = DIRECTION ( 'NONE',  ( -1.000000000000000000, 0.000000000000000000, 0.000000000000000000 ) ) ;
#90 = ORIENTED_EDGE ( 'NONE', *, *, #209, .T. ) ;
#91 = STYLED_ITEM ( 'NONE', ( #112 ), #12 ) ;
#92 = EDGE_CURVE ( 'NONE', #370, #117, #15, .T. ) ;
#93 = DIRECTION ( 'NONE',  ( -1.000000000000000000, 0.000000000000000000, 0.000000000000000000 ) ) ;
#94 = AXIS2_PLACEMENT_3D ( 'NONE', #299, #203, #210 ) ;
#95 = AXIS2_PLACEMENT_3D ( 'NONE', #334, #74, #72 ) ;
#96 = AXIS2_PLACEMENT_3D ( 'NONE', #17, #366, #131 ) ;
#97 = CARTESIAN_POINT ( 'NONE',  ( 2.911464146725942389E-16, 0.6250000000000000000, 0.000000000000000000 ) ) ;
#98 =( LENGTH_UNIT ( ) NAMED_UNIT ( * ) SI_UNIT ( $, .METRE. ) );
#99 = CARTESIAN_POINT ( 'NONE',  ( 0.000000000000000000, 0.000000000000000000, 0.000000000000000000 ) ) ;
#100 = DIMENSIONAL_EXPONENTS ( 1.000000000000000000, 0.000000000000000000, 0.000000000000000000, 0.000000000000000000, 0.000000000000000000, 0.000000000000000000, 0.000000000000000000 ) ;
#101 = VERTEX_POINT ( 'NONE', #212 ) ;
#102 = DIRECTION ( 'NONE',  ( 0.000000000000000000, 0.000000000000000000, -1.000000000000000000 ) ) ;
#103 =( GEOMETRIC_REPRESENTATION_CONTEXT ( 3 ) GLOBAL_UNCERTAINTY_ASSIGNED_CONTEXT ( ( #180 ) ) GLOBAL_UNIT_ASSIGNED_CONTEXT ( ( #348, #145, #216 ) ) REPRESENTATION_CONTEXT ( 'NONE', 'WORKASPACE' ) );
#104 = PRESENTATION_STYLE_ASSIGNMENT (( #23 ) ) ;
#105 = ORIENTED_EDGE ( 'NONE', *, *, #138, .T. ) ;
#106 = AXIS2_PLACEMENT_3D ( 'NONE', #32, #205, #325 ) ;
#107 = ORIENTED_EDGE ( 'NONE', *, *, #274, .F. ) ;
#108 = DIRECTION ( 'NONE',  ( 1.000000000000000000, 0.000000000000000000, -1.224646799147353207E-16 ) ) ;
#109 = DIRECTION ( 'NONE',  ( 0.000000000000000000, 0.000000000000000000, 1.000000000000000000 ) ) ;
#110 = LENGTH_MEASURE_WITH_UNIT ( LENGTH_MEASURE( 0.02539999999999999897 ), #38 );
#111 =( CONVERSION_BASED_UNIT ( 'INCH', #194 ) LENGTH_UNIT ( ) NAMED_UNIT ( #162 ) );
#112 = PRESENTATION_STYLE_ASSIGNMENT (( #258 ) ) ;
#113 = COLOUR_RGB ( '',0.7921568627450980005, 0.8196078431372548767, 0.9333333333333333481 ) ;
#114 = DIRECTION ( 'NONE',  ( -1.000000000000000000, 0.000000000000000000, 0.000000000000000000 ) ) ;
#115 =( CONVERSION_BASED_UNIT ( 'INCH', #296 ) LENGTH_UNIT ( ) NAMED_UNIT ( #282 ) );
#116 = ADVANCED_FACE ( 'NONE', ( #84 ), #246, .T. ) ;
#117 = VERTEX_POINT ( 'NONE', #178 ) ;
#118 =( LENGTH_UNIT ( ) NAMED_UNIT ( * ) SI_UNIT ( $, .METRE. ) );
#119 = CARTESIAN_POINT ( 'NONE',  ( -0.2499999999999998057, 2.500000000000000000, 0.000000000000000000 ) ) ;
#120 = FACE_OUTER_BOUND ( 'NONE', #263, .T. ) ;
#121 = DIRECTION ( 'NONE',  ( -0.000000000000000000, -1.000000000000000000, -0.000000000000000000 ) ) ;
#122 = VECTOR ( 'NONE', #161, 39.37007874015748143 ) ;
#123 = APPLICATION_PROTOCOL_DEFINITION ( 'draft international standard', 'automotive_design', 1998, #143 ) ;
#124 = SURFACE_SIDE_STYLE ('',( #68 ) ) ;
#125 = VERTEX_POINT ( 'NONE', #151 ) ;
#126 = DIRECTION ( 'NONE',  ( 0.000000000000000000, 0.000000000000000000, -1.000000000000000000 ) ) ;
#127 = DIRECTION ( 'NONE',  ( -1.000000000000000000, 0.000000000000000000, 0.000000000000000000 ) ) ;
#128 = PRODUCT_RELATED_PRODUCT_CATEGORY ( 'part', '', ( #336 ) ) ;
#129 = AXIS2_PLACEMENT_3D ( 'NONE', #218, #83, #89 ) ;
#130 = PRODUCT_DEFINITION_FORMATION_WITH_SPECIFIED_SOURCE ( 'ANY', '', #336, .NOT_KNOWN. ) ;
#131 = DIRECTION ( 'NONE',  ( 1.000000000000000000, 0.000000000000000000, 0.000000000000000000 ) ) ;
#132 = ORIENTED_EDGE ( 'NONE', *, *, #266, .F. ) ;
#133 = LENGTH_MEASURE_WITH_UNIT ( LENGTH_MEASURE( 0.02539999999999999897 ), #281 );
#134 = ORIENTED_EDGE ( 'NONE', *, *, #323, .T. ) ;
#135 = CARTESIAN_POINT ( 'NONE',  ( 0.000000000000000000, 0.6250000000000000000, 0.000000000000000000 ) ) ;
#136 = CIRCLE ( 'NONE', #154, 0.2499999999999998612 ) ;
#137 = ORIENTED_EDGE ( 'NONE', *, *, #31, .T. ) ;
#138 = EDGE_CURVE ( 'NONE', #370, #75, #265, .T. ) ;
#139 = SURFACE_STYLE_FILL_AREA ( #201 ) ;
#140 =( LENGTH_UNIT ( ) NAMED_UNIT ( * ) SI_UNIT ( $, .METRE. ) );
#141 = ORIENTED_EDGE ( 'NONE', *, *, #138, .F. ) ;
#142 = CYLINDRICAL_SURFACE ( 'NONE', #342, 0.2499999999999999722 ) ;
#143 = APPLICATION_CONTEXT ( 'automotive_design' ) ;
#144 = SURFACE_STYLE_USAGE ( .BOTH. , #149 ) ;
#145 =( NAMED_UNIT ( * ) PLANE_ANGLE_UNIT ( ) SI_UNIT ( $, .RADIAN. ) );
#146 = DIRECTION ( 'NONE',  ( 0.000000000000000000, 0.000000000000000000, -1.000000000000000000 ) ) ;
#147 = CIRCLE ( 'NONE', #196, 0.2500000000000000000 ) ;
#148 = COLOUR_RGB ( '',1.000000000000000000, 0.000000000000000000, 0.000000000000000000 ) ;
#149 = SURFACE_SIDE_STYLE ('',( #326 ) ) ;
#150 = LINE ( 'NONE', #155, #158 ) ;
#151 = CARTESIAN_POINT ( 'NONE',  ( 3.061616997868382402E-17, 0.6250000000000000000, 0.2499999999999999167 ) ) ;
#152 = APPLICATION_PROTOCOL_DEFINITION ( 'draft international standard', 'automotive_design', 1998, #363 ) ;
#153 = CLOSED_SHELL ( 'NONE', ( #12, #345, #116, #64, #353 ) ) ;
#154 = AXIS2_PLACEMENT_3D ( 'NONE', #167, #275, #127 ) ;
#155 = CARTESIAN_POINT ( 'NONE',  ( 0.000000000000000000, 0.000000000000000000, -0.2499999999999999722 ) ) ;
#156 =( NAMED_UNIT ( * ) SI_UNIT ( $, .STERADIAN. ) SOLID_ANGLE_UNIT ( ) );
#157 = ADVANCED_FACE ( 'NONE', ( #159 ), #252, .F. ) ;
#158 = VECTOR ( 'NONE', #45, 39.37007874015748143 ) ;
#159 = FACE_OUTER_BOUND ( 'NONE', #25, .T. ) ;
#160 = UNCERTAINTY_MEASURE_WITH_UNIT (LENGTH_MEASURE( 1.000000000000000082E-05 ), #87, 'distance_accuracy_value', 'NONE');
#161 = DIRECTION ( 'NONE',  ( -0.000000000000000000, -1.000000000000000000, -0.000000000000000000 ) ) ;
#162 = DIMENSIONAL_EXPONENTS ( 1.000000000000000000, 0.000000000000000000, 0.000000000000000000, 0.000000000000000000, 0.000000000000000000, 0.000000000000000000, 0.000000000000000000 ) ;
#163 = ORIENTED_EDGE ( 'NONE', *, *, #323, .F. ) ;
#164 = DIRECTION ( 'NONE',  ( -0.000000000000000000, -1.000000000000000000, -0.000000000000000000 ) ) ;
#165 = VECTOR ( 'NONE', #191, 39.37007874015748143 ) ;
#166 = CARTESIAN_POINT ( 'NONE',  ( 0.000000000000000000, 0.2500000000000000000, 0.000000000000000000 ) ) ;
#167 = CARTESIAN_POINT ( 'NONE',  ( 6.123233995736772199E-17, 2.500000000000000000, 0.000000000000000000 ) ) ;
#168 = EDGE_CURVE ( 'NONE', #349, #101, #333, .T. ) ;
#169 = FACE_OUTER_BOUND ( 'NONE', #337, .T. ) ;
#170 = FACE_OUTER_BOUND ( 'NONE', #251, .T. ) ;
#171 = EDGE_LOOP ( 'NONE', ( #225, #134, #321, #187 ) ) ;
#172 = SURFACE_STYLE_USAGE ( .BOTH. , #2 ) ;
#173 = FILL_AREA_STYLE ('',( #235 ) ) ;
#174 = EDGE_LOOP ( 'NONE', ( #204, #292 ) ) ;
#175 =( GEOMETRIC_REPRESENTATION_CONTEXT ( 3 ) GLOBAL_UNCERTAINTY_ASSIGNED_CONTEXT ( ( #360 ) ) GLOBAL_UNIT_ASSIGNED_CONTEXT ( ( #328, #298, #156 ) ) REPRESENTATION_CONTEXT ( 'NONE', 'WORKASPACE' ) );
#176 = LINE ( 'NONE', #233, #165 ) ;
#177 =( NAMED_UNIT ( * ) PLANE_ANGLE_UNIT ( ) SI_UNIT ( $, .RADIAN. ) );
#178 = CARTESIAN_POINT ( 'NONE',  ( 0.2499999999999999167, 0.6250000000000000000, 3.061616997868380553E-17 ) ) ;
#179 = AXIS2_PLACEMENT_3D ( 'NONE', #97, #359, #93 ) ;
#180 = UNCERTAINTY_MEASURE_WITH_UNIT (LENGTH_MEASURE( 1.000000000000000082E-05 ), #348, 'distance_accuracy_value', 'NONE');
#181 = ADVANCED_FACE ( 'NONE', ( #332 ), #20, .T. ) ;
#182 = LENGTH_MEASURE_WITH_UNIT ( LENGTH_MEASURE( 0.02539999999999999897 ), #361 );
#183 = AXIS2_PLACEMENT_3D ( 'NONE', #219, #339, #27 ) ;
#184 = CARTESIAN_POINT ( 'NONE',  ( 0.2500000000000000000, 0.2500000000000000000, 0.000000000000000000 ) ) ;
#185 = PRESENTATION_STYLE_ASSIGNMENT (( #239 ) ) ;
#186 = DIRECTION ( 'NONE',  ( -1.226208398481208123E-16, 1.000000000000000000, -0.000000000000000000 ) ) ;
#187 = ORIENTED_EDGE ( 'NONE', *, *, #274, .T. ) ;
#188 = EDGE_LOOP ( 'NONE', ( #163, #60, #33, #137 ) ) ;
#189 = AXIS2_PLACEMENT_3D ( 'NONE', #228, #294, #146 ) ;
#190 = FILL_AREA_STYLE_COLOUR ( '', #195 ) ;
#191 = DIRECTION ( 'NONE',  ( -1.226208398481208123E-16, 1.000000000000000000, -0.000000000000000000 ) ) ;
#192 = VERTEX_POINT ( 'NONE', #341 ) ;
#193 = SURFACE_STYLE_FILL_AREA ( #347 ) ;
#194 = LENGTH_MEASURE_WITH_UNIT ( LENGTH_MEASURE( 0.02539999999999999897 ), #140 );
#195 = COLOUR_RGB ( '',1.000000000000000000, 0.000000000000000000, 0.000000000000000000 ) ;
#196 = AXIS2_PLACEMENT_3D ( 'NONE', #77, #164, #126 ) ;
#197 = EDGE_CURVE ( 'NONE', #50, #125, #253, .T. ) ;
#198 = ORIENTED_EDGE ( 'NONE', *, *, #303, .F. ) ;
#199 = SPHERICAL_SURFACE ( 'NONE', #94, 0.2500000000000000000 ) ;
#200 = ORIENTED_EDGE ( 'NONE', *, *, #280, .T. ) ;
#201 = FILL_AREA_STYLE ('',( #354 ) ) ;
#202 =( NAMED_UNIT ( * ) PLANE_ANGLE_UNIT ( ) SI_UNIT ( $, .RADIAN. ) );
#203 = DIRECTION ( 'NONE',  ( 0.000000000000000000, 0.000000000000000000, 1.000000000000000000 ) ) ;
#204 = ORIENTED_EDGE ( 'NONE', *, *, #197, .F. ) ;
#205 = DIRECTION ( 'NONE',  ( -0.000000000000000000, -1.000000000000000000, -0.000000000000000000 ) ) ;
#206 =( NAMED_UNIT ( * ) SI_UNIT ( $, .STERADIAN. ) SOLID_ANGLE_UNIT ( ) );
#207 = PRESENTATION_LAYER_ASSIGNMENT (  '', '', ( #10 ) ) ;
#208 = DIRECTION ( 'NONE',  ( 0.000000000000000000, 1.000000000000000000, 0.000000000000000000 ) ) ;
#209 = EDGE_CURVE ( 'NONE', #117, #370, #217, .T. ) ;
#210 = DIRECTION ( 'NONE',  ( 1.000000000000000000, 0.000000000000000000, 0.000000000000000000 ) ) ;
#211 = EDGE_CURVE ( 'NONE', #125, #50, #320, .T. ) ;
#212 = CARTESIAN_POINT ( 'NONE',  ( -0.2500000000000000000, 0.2500000000000000000, 3.061616997868382402E-17 ) ) ;
#213 = PRODUCT_DEFINITION_CONTEXT ( 'detailed design', #143, 'design' ) ;
#214 =( NAMED_UNIT ( * ) SI_UNIT ( $, .STERADIAN. ) SOLID_ANGLE_UNIT ( ) );
#215 = DIRECTION ( 'NONE',  ( -0.000000000000000000, -1.000000000000000000, -0.000000000000000000 ) ) ;
#216 =( NAMED_UNIT ( * ) SI_UNIT ( $, .STERADIAN. ) SOLID_ANGLE_UNIT ( ) );
#217 = CIRCLE ( 'NONE', #311, 0.2499999999999996114 ) ;
#218 = CARTESIAN_POINT ( 'NONE',  ( 6.123233995736772199E-17, 2.500000000000000000, 0.000000000000000000 ) ) ;
#219 = CARTESIAN_POINT ( 'NONE',  ( 0.2499999999999999167, 2.500000000000000000, 0.000000000000000000 ) ) ;
#220 = AXIS2_PLACEMENT_3D ( 'NONE', #230, #352, #324 ) ;
#221 = DIRECTION ( 'NONE',  ( -1.226208398481208123E-16, 1.000000000000000000, -0.000000000000000000 ) ) ;
#222 = MECHANICAL_DESIGN_GEOMETRIC_PRESENTATION_REPRESENTATION (  '', ( #91 ), #304 ) ;
#223 = PRESENTATION_LAYER_ASSIGNMENT (  '', '', ( #243 ) ) ;
#224 = ORIENTED_EDGE ( 'NONE', *, *, #266, .T. ) ;
#225 = ORIENTED_EDGE ( 'NONE', *, *, #168, .T. ) ;
#226 = FILL_AREA_STYLE_COLOUR ( '', #65 ) ;
#227 = ORIENTED_EDGE ( 'NONE', *, *, #41, .T. ) ;
#228 = CARTESIAN_POINT ( 'NONE',  ( 0.000000000000000000, 0.2500000000000000000, 0.000000000000000000 ) ) ;
#229 = SURFACE_STYLE_USAGE ( .BOTH. , #260 ) ;
#230 = CARTESIAN_POINT ( 'NONE',  ( -3.061616997868383018E-17, 0.2500000000000000000, 0.000000000000000000 ) ) ;
#231 = ORIENTED_EDGE ( 'NONE', *, *, #248, .T. ) ;
#232 = LENGTH_MEASURE_WITH_UNIT ( LENGTH_MEASURE( 0.02539999999999999897 ), #118 );
#233 = CARTESIAN_POINT ( 'NONE',  ( 0.2499999999999998057, 2.500000000000000000, 3.061616997868379320E-17 ) ) ;
#234 = PRESENTATION_STYLE_ASSIGNMENT (( #7 ) ) ;
#235 = FILL_AREA_STYLE_COLOUR ( '', #113 ) ;
#236 = AXIS2_PLACEMENT_3D ( 'NONE', #80, #276, #279 ) ;
#237 = CARTESIAN_POINT ( 'NONE',  ( -0.2499999999999996669, 2.500000000000000000, 0.000000000000000000 ) ) ;
#238 =( NAMED_UNIT ( * ) SI_UNIT ( $, .STERADIAN. ) SOLID_ANGLE_UNIT ( ) );
#239 = SURFACE_STYLE_USAGE ( .BOTH. , #124 ) ;
#240 = AXIS2_PLACEMENT_3D ( 'NONE', #86, #62, #108 ) ;
#241 = AXIS2_PLACEMENT_3D ( 'NONE', #3, #51, #114 ) ;
#242 = VERTEX_POINT ( 'NONE', #247 ) ;
#243 = STYLED_ITEM ( 'NONE', ( #104 ), #277 ) ;
#244 = SURFACE_STYLE_FILL_AREA ( #338 ) ;
#245 = MECHANICAL_DESIGN_GEOMETRIC_PRESENTATION_REPRESENTATION (  '', ( #73 ), #330 ) ;
#246 = PLANE ( 'NONE',  #270 ) ;
#247 = CARTESIAN_POINT ( 'NONE',  ( -1.530808498934191509E-17, 0.000000000000000000, 0.000000000000000000 ) ) ;
#248 = EDGE_CURVE ( 'NONE', #192, #75, #136, .T. ) ;
#249 = PRODUCT_CONTEXT ( 'NONE', #363, 'mechanical' ) ;
#250 =( CONVERSION_BASED_UNIT ( 'INCH', #133 ) LENGTH_UNIT ( ) NAMED_UNIT ( #313 ) );
#251 = EDGE_LOOP ( 'NONE', ( #287, #88 ) ) ;
#252 = PLANE ( 'NONE',  #183 ) ;
#253 = CIRCLE ( 'NONE', #236, 0.2499999999999999167 ) ;
#254 = DIMENSIONAL_EXPONENTS ( 1.000000000000000000, 0.000000000000000000, 0.000000000000000000, 0.000000000000000000, 0.000000000000000000, 0.000000000000000000, 0.000000000000000000 ) ;
#255 = VERTEX_POINT ( 'NONE', #184 ) ;
#256 = SPHERICAL_SURFACE ( 'NONE', #286, 0.2500000000000000000 ) ;
#257 =( NAMED_UNIT ( * ) SI_UNIT ( $, .STERADIAN. ) SOLID_ANGLE_UNIT ( ) );
#258 = SURFACE_STYLE_USAGE ( .BOTH. , #290 ) ;
#259 = CARTESIAN_POINT ( 'NONE',  ( 0.000000000000000000, 0.000000000000000000, 0.000000000000000000 ) ) ;
#260 = SURFACE_SIDE_STYLE ('',( #193 ) ) ;
#261 = FACE_OUTER_BOUND ( 'NONE', #5, .T. ) ;
#262 = PRESENTATION_LAYER_ASSIGNMENT (  '', '', ( #73 ) ) ;
#263 = EDGE_LOOP ( 'NONE', ( #132, #18, #227, #283, #355 ) ) ;
#264 = SURFACE_STYLE_FILL_AREA ( #173 ) ;
#265 = LINE ( 'NONE', #237, #46 ) ;
#266 = EDGE_CURVE ( 'NONE', #125, #349, #306, .T. ) ;
#267 = DIRECTION ( 'NONE',  ( 0.000000000000000000, -0.000000000000000000, 1.000000000000000000 ) ) ;
#268 =( NAMED_UNIT ( * ) SI_UNIT ( $, .STERADIAN. ) SOLID_ANGLE_UNIT ( ) );
#269 = UNCERTAINTY_MEASURE_WITH_UNIT (LENGTH_MEASURE( 1.000000000000000082E-05 ), #111, 'distance_accuracy_value', 'NONE');
#270 = AXIS2_PLACEMENT_3D ( 'NONE', #42, #208, #267 ) ;
#271 = MECHANICAL_DESIGN_GEOMETRIC_PRESENTATION_REPRESENTATION (  '', ( #365 ), #4 ) ;
#272 = DIMENSIONAL_EXPONENTS ( 1.000000000000000000, 0.000000000000000000, 0.000000000000000000, 0.000000000000000000, 0.000000000000000000, 0.000000000000000000, 0.000000000000000000 ) ;
#273 = UNCERTAINTY_MEASURE_WITH_UNIT (LENGTH_MEASURE( 1.000000000000000082E-05 ), #344, 'distance_accuracy_value', 'NONE');
#274 = EDGE_CURVE ( 'NONE', #255, #349, #147, .T. ) ;
#275 = DIRECTION ( 'NONE',  ( -1.226208398481208123E-16, 1.000000000000000000, -0.000000000000000000 ) ) ;
#276 = DIRECTION ( 'NONE',  ( -0.000000000000000000, -1.000000000000000000, -0.000000000000000000 ) ) ;
#277 = MANIFOLD_SOLID_BREP ( 'Revolve - Tool Body (Straight Shanked)', #364 ) ;
#278 = CIRCLE ( 'NONE', #129, 0.2499999999999998612 ) ;
#279 = DIRECTION ( 'NONE',  ( 0.000000000000000000, 0.000000000000000000, -1.000000000000000000 ) ) ;
#280 = EDGE_CURVE ( 'NONE', #75, #192, #278, .T. ) ;
#281 =( LENGTH_UNIT ( ) NAMED_UNIT ( * ) SI_UNIT ( $, .METRE. ) );
#282 = DIMENSIONAL_EXPONENTS ( 1.000000000000000000, 0.000000000000000000, 0.000000000000000000, 0.000000000000000000, 0.000000000000000000, 0.000000000000000000, 0.000000000000000000 ) ;
#283 = ORIENTED_EDGE ( 'NONE', *, *, #300, .F. ) ;
#284 =( NAMED_UNIT ( * ) SI_UNIT ( $, .STERADIAN. ) SOLID_ANGLE_UNIT ( ) );
#285 = AXIS2_PLACEMENT_3D ( 'NONE', #135, #47, #49 ) ;
#286 = AXIS2_PLACEMENT_3D ( 'NONE', #289, #109, #350 ) ;
#287 = ORIENTED_EDGE ( 'NONE', *, *, #92, .F. ) ;
#288 = EDGE_CURVE ( 'NONE', #30, #255, #67, .T. ) ;
#289 = CARTESIAN_POINT ( 'NONE',  ( -3.061616997868383018E-17, 0.2500000000000000000, 0.000000000000000000 ) ) ;
#290 = SURFACE_SIDE_STYLE ('',( #318 ) ) ;
#291 = ADVANCED_BREP_SHAPE_REPRESENTATION ( '83295', ( #36, #277, #96 ), #175 ) ;
#292 = ORIENTED_EDGE ( 'NONE', *, *, #211, .F. ) ;
#293 = PRESENTATION_STYLE_ASSIGNMENT (( #172 ) ) ;
#294 = DIRECTION ( 'NONE',  ( -0.000000000000000000, -1.000000000000000000, -0.000000000000000000 ) ) ;
#295 =( GEOMETRIC_REPRESENTATION_CONTEXT ( 3 ) GLOBAL_UNCERTAINTY_ASSIGNED_CONTEXT ( ( #269 ) ) GLOBAL_UNIT_ASSIGNED_CONTEXT ( ( #111, #57, #214 ) ) REPRESENTATION_CONTEXT ( 'NONE', 'WORKASPACE' ) );
#296 = LENGTH_MEASURE_WITH_UNIT ( LENGTH_MEASURE( 0.02539999999999999897 ), #98 );
#297 = UNCERTAINTY_MEASURE_WITH_UNIT (LENGTH_MEASURE( 1.000000000000000082E-05 ), #250, 'distance_accuracy_value', 'NONE');
#298 =( NAMED_UNIT ( * ) PLANE_ANGLE_UNIT ( ) SI_UNIT ( $, .RADIAN. ) );
#299 = CARTESIAN_POINT ( 'NONE',  ( -3.061616997868383018E-17, 0.2500000000000000000, 0.000000000000000000 ) ) ;
#300 = EDGE_CURVE ( 'NONE', #101, #30, #329, .T. ) ;
#301 = UNCERTAINTY_MEASURE_WITH_UNIT (LENGTH_MEASURE( 1.000000000000000082E-05 ), #115, 'distance_accuracy_value', 'NONE');
#302 = FILL_AREA_STYLE_COLOUR ( '', #28 ) ;
#303 = EDGE_CURVE ( 'NONE', #117, #192, #176, .T. ) ;
#304 =( GEOMETRIC_REPRESENTATION_CONTEXT ( 3 ) GLOBAL_UNCERTAINTY_ASSIGNED_CONTEXT ( ( #301 ) ) GLOBAL_UNIT_ASSIGNED_CONTEXT ( ( #115, #177, #206 ) ) REPRESENTATION_CONTEXT ( 'NONE', 'WORKASPACE' ) );
#305 = COLOUR_RGB ( '',0.7921568627450980005, 0.8196078431372548767, 0.9333333333333333481 ) ;
#306 = LINE ( 'NONE', #19, #122 ) ;
#307 =( NAMED_UNIT ( * ) PLANE_ANGLE_UNIT ( ) SI_UNIT ( $, .RADIAN. ) );
#308 = DIRECTION ( 'NONE',  ( -1.000000000000000000, 0.000000000000000000, 0.000000000000000000 ) ) ;
#309 = SURFACE_SIDE_STYLE ('',( #244 ) ) ;
#310 = ORIENTED_EDGE ( 'NONE', *, *, #288, .F. ) ;
#311 = AXIS2_PLACEMENT_3D ( 'NONE', #314, #186, #308 ) ;
#312 = FILL_AREA_STYLE_COLOUR ( '', #305 ) ;
#313 = DIMENSIONAL_EXPONENTS ( 1.000000000000000000, 0.000000000000000000, 0.000000000000000000, 0.000000000000000000, 0.000000000000000000, 0.000000000000000000, 0.000000000000000000 ) ;
#314 = CARTESIAN_POINT ( 'NONE',  ( 2.911464146725942389E-16, 0.6250000000000000000, 0.000000000000000000 ) ) ;
#315 = ORIENTED_EDGE ( 'NONE', *, *, #248, .F. ) ;
#316 = DIRECTION ( 'NONE',  ( -0.000000000000000000, -1.000000000000000000, -0.000000000000000000 ) ) ;
#317 = CYLINDRICAL_SURFACE ( 'NONE', #241, 0.2499999999999997224 ) ;
#318 = SURFACE_STYLE_FILL_AREA ( #346 ) ;
#319 = PRESENTATION_STYLE_ASSIGNMENT (( #229 ) ) ;
#320 = CIRCLE ( 'NONE', #285, 0.2499999999999999167 ) ;
#321 = ORIENTED_EDGE ( 'NONE', *, *, #31, .F. ) ;
#322 = DIRECTION ( 'NONE',  ( -1.226208398481208123E-16, 1.000000000000000000, 0.000000000000000000 ) ) ;
#323 = EDGE_CURVE ( 'NONE', #101, #242, #39, .T. ) ;
#324 = DIRECTION ( 'NONE',  ( -1.000000000000000000, 0.000000000000000000, 0.000000000000000000 ) ) ;
#325 = DIRECTION ( 'NONE',  ( 0.000000000000000000, 0.000000000000000000, -1.000000000000000000 ) ) ;
#326 = SURFACE_STYLE_FILL_AREA ( #35 ) ;
#327 = STYLED_ITEM ( 'NONE', ( #234 ), #36 ) ;
#328 =( CONVERSION_BASED_UNIT ( 'INCH', #13 ) LENGTH_UNIT ( ) NAMED_UNIT ( #100 ) );
#329 = CIRCLE ( 'NONE', #189, 0.2500000000000000000 ) ;
#330 =( GEOMETRIC_REPRESENTATION_CONTEXT ( 3 ) GLOBAL_UNCERTAINTY_ASSIGNED_CONTEXT ( ( #273 ) ) GLOBAL_UNIT_ASSIGNED_CONTEXT ( ( #344, #372, #284 ) ) REPRESENTATION_CONTEXT ( 'NONE', 'WORKASPACE' ) );
#331 = FILL_AREA_STYLE ('',( #302 ) ) ;
#332 = FACE_OUTER_BOUND ( 'NONE', #81, .T. ) ;
#333 = CIRCLE ( 'NONE', #340, 0.2500000000000000000 ) ;
#334 = CARTESIAN_POINT ( 'NONE',  ( 6.123233995736772199E-17, 2.500000000000000000, 0.000000000000000000 ) ) ;
#335 = ADVANCED_FACE ( 'NONE', ( #261 ), #317, .T. ) ;
#337 = EDGE_LOOP ( 'NONE', ( #85, #224, #107, #310, #37 ) ) ;
#336 = PRODUCT ( '83295', '83295', '', ( #249 ) ) ;
#338 = FILL_AREA_STYLE ('',( #312 ) ) ;
#339 = DIRECTION ( 'NONE',  ( 1.226208398481208123E-16, -1.000000000000000000, 0.000000000000000000 ) ) ;
#340 = AXIS2_PLACEMENT_3D ( 'NONE', #166, #215, #102 ) ;
#341 = CARTESIAN_POINT ( 'NONE',  ( 0.2499999999999999167, 2.500000000000000000, 3.061616997868380553E-17 ) ) ;
#342 = AXIS2_PLACEMENT_3D ( 'NONE', #259, #316, #26 ) ;
#343 = FACE_OUTER_BOUND ( 'NONE', #171, .T. ) ;
#344 =( CONVERSION_BASED_UNIT ( 'INCH', #232 ) LENGTH_UNIT ( ) NAMED_UNIT ( #70 ) );
#345 = ADVANCED_FACE ( 'NONE', ( #169 ), #142, .T. ) ;
#346 = FILL_AREA_STYLE ('',( #190 ) ) ;
#347 = FILL_AREA_STYLE ('',( #226 ) ) ;
#348 =( CONVERSION_BASED_UNIT ( 'INCH', #371 ) LENGTH_UNIT ( ) NAMED_UNIT ( #254 ) );
#349 = VERTEX_POINT ( 'NONE', #82 ) ;
#350 = DIRECTION ( 'NONE',  ( 1.000000000000000000, 0.000000000000000000, 0.000000000000000000 ) ) ;
#351 = PRESENTATION_LAYER_ASSIGNMENT (  '', '', ( #365 ) ) ;
#352 = DIRECTION ( 'NONE',  ( 0.000000000000000000, 0.000000000000000000, -1.000000000000000000 ) ) ;
#353 = ADVANCED_FACE ( 'NONE', ( #6 ), #256, .T. ) ;
#354 = FILL_AREA_STYLE_COLOUR ( '', #148 ) ;
#355 = ORIENTED_EDGE ( 'NONE', *, *, #168, .F. ) ;
#356 = FILL_AREA_STYLE_COLOUR ( '', #43 ) ;
#357 = MECHANICAL_DESIGN_GEOMETRIC_PRESENTATION_REPRESENTATION (  '', ( #327 ), #103 ) ;
#358 =( LENGTH_UNIT ( ) NAMED_UNIT ( * ) SI_UNIT ( $, .METRE. ) );
#359 = DIRECTION ( 'NONE',  ( -1.226208398481208123E-16, 1.000000000000000000, -0.000000000000000000 ) ) ;
#360 = UNCERTAINTY_MEASURE_WITH_UNIT (LENGTH_MEASURE( 1.000000000000000082E-05 ), #328, 'distance_accuracy_value', 'NONE');
#361 =( LENGTH_UNIT ( ) NAMED_UNIT ( * ) SI_UNIT ( $, .METRE. ) );
#362 = ORIENTED_EDGE ( 'NONE', *, *, #303, .T. ) ;
#363 = APPLICATION_CONTEXT ( 'automotive_design' ) ;
#364 = CLOSED_SHELL ( 'NONE', ( #335, #9, #181, #157 ) ) ;
#365 = STYLED_ITEM ( 'NONE', ( #185 ), #64 ) ;
#366 = DIRECTION ( 'NONE',  ( 0.000000000000000000, 0.000000000000000000, 1.000000000000000000 ) ) ;
#367 = CARTESIAN_POINT ( 'NONE',  ( 2.911464146725942389E-16, 0.6250000000000000000, 0.000000000000000000 ) ) ;
#368 = AXIS2_PLACEMENT_3D ( 'NONE', #99, #121, #69 ) ;
#369 = MECHANICAL_DESIGN_GEOMETRIC_PRESENTATION_REPRESENTATION (  '', ( #22 ), #79 ) ;
#370 = VERTEX_POINT ( 'NONE', #56 ) ;
#371 = LENGTH_MEASURE_WITH_UNIT ( LENGTH_MEASURE( 0.02539999999999999897 ), #358 );
#372 =( NAMED_UNIT ( * ) PLANE_ANGLE_UNIT ( ) SI_UNIT ( $, .RADIAN. ) );
#373 = PRODUCT_DEFINITION ( 'UNKNOWN', '', #130, #213 ) ;
ENDSEC;
END-ISO-10303-21;
