ISO-10303-21;
HEADER;
FILE_DESCRIPTION (( 'STEP AP214' ),
    '1' );
FILE_NAME ('26107.STEP',
    '2023-06-22T17:26:30',
    ( '' ),
    ( '' ),
    'SwSTEP 2.0',
    'SolidWorks 2023',
    '' );
FILE_SCHEMA (( 'AUTOMOTIVE_DESIGN' ));
ENDSEC;

DATA;
#1 = SURFACE_STYLE_USAGE ( .BOTH. , #190 ) ;
#2 = FILL_AREA_STYLE_COLOUR ( '', #162 ) ;
#3 = EDGE_LOOP ( 'NONE', ( #271, #32 ) ) ;
#4 = DIRECTION ( 'NONE',  ( 0.000000000000000000, 1.000000000000000000, 0.000000000000000000 ) ) ;
#5 = AXIS2_PLACEMENT_3D ( 'NONE', #161, #167, #56 ) ;
#6 = PRODUCT_DEFINITION ( 'UNKNOWN', '', #217, #15 ) ;
#7 = ORIENTED_EDGE ( 'NONE', *, *, #33, .T. ) ;
#8 = CARTESIAN_POINT ( 'NONE',  ( 0.000000000000000000, 0.3750000000000002220, -0.1250000000000000278 ) ) ;
#9 =( NAMED_UNIT ( * ) SI_UNIT ( $, .STERADIAN. ) SOLID_ANGLE_UNIT ( ) );
#10 = SURFACE_SIDE_STYLE ('',( #94 ) ) ;
#11 = VECTOR ( 'NONE', #290, 39.37007874015748143 ) ;
#12 = LENGTH_MEASURE_WITH_UNIT ( LENGTH_MEASURE( 0.02539999999999999897 ), #222 );
#13 = DIMENSIONAL_EXPONENTS ( 1.000000000000000000, 0.000000000000000000, 0.000000000000000000, 0.000000000000000000, 0.000000000000000000, 0.000000000000000000, 0.000000000000000000 ) ;
#14 = PRESENTATION_STYLE_ASSIGNMENT (( #43 ) ) ;
#15 = PRODUCT_DEFINITION_CONTEXT ( 'detailed design', #284, 'design' ) ;
#16 = APPLICATION_CONTEXT ( 'automotive_design' ) ;
#17 = EDGE_LOOP ( 'NONE', ( #177, #51 ) ) ;
#18 =( GEOMETRIC_REPRESENTATION_CONTEXT ( 3 ) GLOBAL_UNCERTAINTY_ASSIGNED_CONTEXT ( ( #249 ) ) GLOBAL_UNIT_ASSIGNED_CONTEXT ( ( #113, #90, #251 ) ) REPRESENTATION_CONTEXT ( 'NONE', 'WORKASPACE' ) );
#19 = DIRECTION ( 'NONE',  ( 0.000000000000000000, -1.000000000000000000, -0.000000000000000000 ) ) ;
#20 = DIRECTION ( 'NONE',  ( 0.000000000000000000, 0.000000000000000000, -1.000000000000000000 ) ) ;
#21 = ORIENTED_EDGE ( 'NONE', *, *, #235, .F. ) ;
#22 = CIRCLE ( 'NONE', #135, 0.1249999999999993616 ) ;
#23 = CARTESIAN_POINT ( 'NONE',  ( 0.000000000000000000, 0.3750000000000002220, 0.000000000000000000 ) ) ;
#24 = FILL_AREA_STYLE_COLOUR ( '', #137 ) ;
#25 = FILL_AREA_STYLE_COLOUR ( '', #230 ) ;
#26 = DIRECTION ( 'NONE',  ( 4.144958397114118927E-16, 1.000000000000000000, -0.000000000000000000 ) ) ;
#27 = MECHANICAL_DESIGN_GEOMETRIC_PRESENTATION_REPRESENTATION (  '', ( #124 ), #112 ) ;
#28 = SURFACE_STYLE_USAGE ( .BOTH. , #84 ) ;
#29 = ORIENTED_EDGE ( 'NONE', *, *, #146, .T. ) ;
#30 = CARTESIAN_POINT ( 'NONE',  ( 1.530808498934191817E-17, 0.000000000000000000, 0.1250000000000000278 ) ) ;
#31 = DIRECTION ( 'NONE',  ( -0.000000000000000000, -1.000000000000000000, -0.000000000000000000 ) ) ;
#32 = ORIENTED_EDGE ( 'NONE', *, *, #91, .F. ) ;
#33 = EDGE_CURVE ( 'NONE', #261, #111, #22, .T. ) ;
#34 = EDGE_CURVE ( 'NONE', #151, #181, #179, .T. ) ;
#35 = CYLINDRICAL_SURFACE ( 'NONE', #272, 0.1249999999999996947 ) ;
#36 = CARTESIAN_POINT ( 'NONE',  ( 0.1250000000000000278, 2.000000000000000444, 1.530808498934189660E-17 ) ) ;
#37 = PRESENTATION_LAYER_ASSIGNMENT (  '', '', ( #158 ) ) ;
#38 = SURFACE_STYLE_FILL_AREA ( #188 ) ;
#39 = LENGTH_MEASURE_WITH_UNIT ( LENGTH_MEASURE( 0.02539999999999999897 ), #200 );
#40 = EDGE_LOOP ( 'NONE', ( #117, #118, #64, #89 ) ) ;
#41 = DIMENSIONAL_EXPONENTS ( 1.000000000000000000, 0.000000000000000000, 0.000000000000000000, 0.000000000000000000, 0.000000000000000000, 0.000000000000000000, 0.000000000000000000 ) ;
#42 = AXIS2_PLACEMENT_3D ( 'NONE', #165, #237, #169 ) ;
#43 = SURFACE_STYLE_USAGE ( .BOTH. , #10 ) ;
#44 =( NAMED_UNIT ( * ) PLANE_ANGLE_UNIT ( ) SI_UNIT ( $, .RADIAN. ) );
#45 = EDGE_LOOP ( 'NONE', ( #152, #97, #133, #223 ) ) ;
#46 = SHAPE_DEFINITION_REPRESENTATION ( #228, #86 ) ;
#47 =( GEOMETRIC_REPRESENTATION_CONTEXT ( 3 ) GLOBAL_UNCERTAINTY_ASSIGNED_CONTEXT ( ( #286 ) ) GLOBAL_UNIT_ASSIGNED_CONTEXT ( ( #173, #44, #307 ) ) REPRESENTATION_CONTEXT ( 'NONE', 'WORKASPACE' ) );
#48 = ORIENTED_EDGE ( 'NONE', *, *, #114, .T. ) ;
#49 = ADVANCED_FACE ( 'NONE', ( #186 ), #159, .T. ) ;
#50 = DIRECTION ( 'NONE',  ( 0.000000000000000000, 0.000000000000000000, -1.000000000000000000 ) ) ;
#51 = ORIENTED_EDGE ( 'NONE', *, *, #34, .F. ) ;
#52 = FILL_AREA_STYLE_COLOUR ( '', #61 ) ;
#53 = DIRECTION ( 'NONE',  ( -1.000000000000000000, 5.463695987328525451E-16, 0.000000000000000000 ) ) ;
#54 = STYLED_ITEM ( 'NONE', ( #144 ), #194 ) ;
#55 = DIRECTION ( 'NONE',  ( 4.144958397114118434E-16, 1.000000000000000000, -0.000000000000000000 ) ) ;
#56 = DIRECTION ( 'NONE',  ( 0.000000000000000000, 0.000000000000000000, -1.000000000000000000 ) ) ;
#57 = FILL_AREA_STYLE ('',( #52 ) ) ;
#58 = ADVANCED_FACE ( 'NONE', ( #305 ), #122, .F. ) ;
#59 = CARTESIAN_POINT ( 'NONE',  ( -0.1250000000000000278, 0.3750000000000002776, 0.000000000000000000 ) ) ;
#60 = DIRECTION ( 'NONE',  ( 0.000000000000000000, 0.000000000000000000, -1.000000000000000000 ) ) ;
#61 = COLOUR_RGB ( '',1.000000000000000000, 0.000000000000000000, 0.000000000000000000 ) ;
#62 =( GEOMETRIC_REPRESENTATION_CONTEXT ( 3 ) GLOBAL_UNCERTAINTY_ASSIGNED_CONTEXT ( ( #211 ) ) GLOBAL_UNIT_ASSIGNED_CONTEXT ( ( #187, #288, #83 ) ) REPRESENTATION_CONTEXT ( 'NONE', 'WORKASPACE' ) );
#63 = CARTESIAN_POINT ( 'NONE',  ( 0.1250000000000003608, 2.000000000000000444, 1.530808498934187811E-17 ) ) ;
#64 = ORIENTED_EDGE ( 'NONE', *, *, #131, .T. ) ;
#65 = CARTESIAN_POINT ( 'NONE',  ( 0.000000000000000000, 0.000000000000000000, -0.1250000000000000278 ) ) ;
#66 = LENGTH_MEASURE_WITH_UNIT ( LENGTH_MEASURE( 0.02539999999999999897 ), #196 );
#67 = CARTESIAN_POINT ( 'NONE',  ( -0.1249999999999990286, 2.000000000000000444, 0.000000000000000000 ) ) ;
#68 =( NAMED_UNIT ( * ) SI_UNIT ( $, .STERADIAN. ) SOLID_ANGLE_UNIT ( ) );
#69 = DIRECTION ( 'NONE',  ( 0.000000000000000000, 0.000000000000000000, -1.000000000000000000 ) ) ;
#70 = DIMENSIONAL_EXPONENTS ( 1.000000000000000000, 0.000000000000000000, 0.000000000000000000, 0.000000000000000000, 0.000000000000000000, 0.000000000000000000, 0.000000000000000000 ) ;
#71 = DIRECTION ( 'NONE',  ( 4.144958397114118434E-16, 1.000000000000000000, -0.000000000000000000 ) ) ;
#72 = AXIS2_PLACEMENT_3D ( 'NONE', #232, #19, #96 ) ;
#73 =( NAMED_UNIT ( * ) SI_UNIT ( $, .STERADIAN. ) SOLID_ANGLE_UNIT ( ) );
#74 = COLOUR_RGB ( '',1.000000000000000000, 0.000000000000000000, 0.000000000000000000 ) ;
#75 = CARTESIAN_POINT ( 'NONE',  ( 0.1250000000000000278, 2.000000000000000444, 0.000000000000000000 ) ) ;
#76 = DIRECTION ( 'NONE',  ( -0.000000000000000000, -1.000000000000000000, -0.000000000000000000 ) ) ;
#77 = CARTESIAN_POINT ( 'NONE',  ( 0.000000000000000000, 0.3750000000000002220, 0.000000000000000000 ) ) ;
#78 = PRESENTATION_LAYER_ASSIGNMENT (  '', '', ( #248 ) ) ;
#79 = FILL_AREA_STYLE ('',( #25 ) ) ;
#80 =( LENGTH_UNIT ( ) NAMED_UNIT ( * ) SI_UNIT ( $, .METRE. ) );
#81 = CYLINDRICAL_SURFACE ( 'NONE', #5, 0.1250000000000000278 ) ;
#82 = FACE_OUTER_BOUND ( 'NONE', #3, .T. ) ;
#83 =( NAMED_UNIT ( * ) SI_UNIT ( $, .STERADIAN. ) SOLID_ANGLE_UNIT ( ) );
#84 = SURFACE_SIDE_STYLE ('',( #38 ) ) ;
#85 = CARTESIAN_POINT ( 'NONE',  ( 0.000000000000000000, 0.3750000000000002220, 0.000000000000000000 ) ) ;
#86 = ADVANCED_BREP_SHAPE_REPRESENTATION ( '26107', ( #119, #115, #176 ), #106 ) ;
#87 = MECHANICAL_DESIGN_GEOMETRIC_PRESENTATION_REPRESENTATION (  '', ( #175 ), #247 ) ;
#88 = DIMENSIONAL_EXPONENTS ( 1.000000000000000000, 0.000000000000000000, 0.000000000000000000, 0.000000000000000000, 0.000000000000000000, 0.000000000000000000, 0.000000000000000000 ) ;
#89 = ORIENTED_EDGE ( 'NONE', *, *, #242, .F. ) ;
#90 =( NAMED_UNIT ( * ) PLANE_ANGLE_UNIT ( ) SI_UNIT ( $, .RADIAN. ) );
#91 = EDGE_CURVE ( 'NONE', #226, #127, #229, .T. ) ;
#92 = CIRCLE ( 'NONE', #147, 0.1250000000000000278 ) ;
#93 = FILL_AREA_STYLE_COLOUR ( '', #74 ) ;
#94 = SURFACE_STYLE_FILL_AREA ( #110 ) ;
#95 = EDGE_CURVE ( 'NONE', #227, #277, #105, .T. ) ;
#96 = DIRECTION ( 'NONE',  ( 0.000000000000000000, 0.000000000000000000, -1.000000000000000000 ) ) ;
#97 = ORIENTED_EDGE ( 'NONE', *, *, #34, .T. ) ;
#98 = SURFACE_STYLE_USAGE ( .BOTH. , #141 ) ;
#99 = UNCERTAINTY_MEASURE_WITH_UNIT (LENGTH_MEASURE( 1.000000000000000082E-05 ), #298, 'distance_accuracy_value', 'NONE');
#100 = DIRECTION ( 'NONE',  ( 1.000000000000000000, -4.144958397114118927E-16, 0.000000000000000000 ) ) ;
#101 = SURFACE_STYLE_FILL_AREA ( #79 ) ;
#102 = SURFACE_STYLE_USAGE ( .BOTH. , #296 ) ;
#103 = CARTESIAN_POINT ( 'NONE',  ( 1.073792507112927938E-32, 0.3750000000000002220, 0.000000000000000000 ) ) ;
#104 = FILL_AREA_STYLE ('',( #2 ) ) ;
#105 = CIRCLE ( 'NONE', #170, 0.1250000000000000278 ) ;
#106 =( GEOMETRIC_REPRESENTATION_CONTEXT ( 3 ) GLOBAL_UNCERTAINTY_ASSIGNED_CONTEXT ( ( #99 ) ) GLOBAL_UNIT_ASSIGNED_CONTEXT ( ( #298, #302, #9 ) ) REPRESENTATION_CONTEXT ( 'NONE', 'WORKASPACE' ) );
#107 = FACE_OUTER_BOUND ( 'NONE', #274, .T. ) ;
#108 = CYLINDRICAL_SURFACE ( 'NONE', #42, 0.1249999999999996947 ) ;
#109 = EDGE_CURVE ( 'NONE', #181, #151, #92, .T. ) ;
#110 = FILL_AREA_STYLE ('',( #93 ) ) ;
#111 = VERTEX_POINT ( 'NONE', #136 ) ;
#112 =( GEOMETRIC_REPRESENTATION_CONTEXT ( 3 ) GLOBAL_UNCERTAINTY_ASSIGNED_CONTEXT ( ( #189 ) ) GLOBAL_UNIT_ASSIGNED_CONTEXT ( ( #213, #220, #128 ) ) REPRESENTATION_CONTEXT ( 'NONE', 'WORKASPACE' ) );
#113 =( CONVERSION_BASED_UNIT ( 'INCH', #132 ) LENGTH_UNIT ( ) NAMED_UNIT ( #70 ) );
#114 = EDGE_CURVE ( 'NONE', #111, #261, #270, .T. ) ;
#115 = MANIFOLD_SOLID_BREP ( 'Revolve - Tool Body (Straight Shanked)', #266 ) ;
#116 = DIRECTION ( 'NONE',  ( -1.000000000000000000, 0.000000000000000000, 0.000000000000000000 ) ) ;
#117 = ORIENTED_EDGE ( 'NONE', *, *, #210, .F. ) ;
#118 = ORIENTED_EDGE ( 'NONE', *, *, #91, .T. ) ;
#119 = MANIFOLD_SOLID_BREP ( 'Revolve - Cutting Edge', #148 ) ;
#120 = DIRECTION ( 'NONE',  ( -0.000000000000000000, -1.000000000000000000, -0.000000000000000000 ) ) ;
#121 = UNCERTAINTY_MEASURE_WITH_UNIT (LENGTH_MEASURE( 1.000000000000000082E-05 ), #257, 'distance_accuracy_value', 'NONE');
#122 = PLANE ( 'NONE',  #212 ) ;
#123 = DIRECTION ( 'NONE',  ( -0.000000000000000000, -1.000000000000000000, -0.000000000000000000 ) ) ;
#124 = STYLED_ITEM ( 'NONE', ( #234 ), #119 ) ;
#125 = EDGE_CURVE ( 'NONE', #127, #226, #258, .T. ) ;
#126 = FILL_AREA_STYLE_COLOUR ( '', #304 ) ;
#127 = VERTEX_POINT ( 'NONE', #8 ) ;
#128 =( NAMED_UNIT ( * ) SI_UNIT ( $, .STERADIAN. ) SOLID_ANGLE_UNIT ( ) );
#129 = CARTESIAN_POINT ( 'NONE',  ( 1.530808498934191817E-17, 0.000000000000000000, 0.1250000000000000278 ) ) ;
#130 =( LENGTH_UNIT ( ) NAMED_UNIT ( * ) SI_UNIT ( $, .METRE. ) );
#131 = EDGE_CURVE ( 'NONE', #127, #227, #289, .T. ) ;
#132 = LENGTH_MEASURE_WITH_UNIT ( LENGTH_MEASURE( 0.02539999999999999897 ), #171 );
#133 = ORIENTED_EDGE ( 'NONE', *, *, #235, .T. ) ;
#134 = ORIENTED_EDGE ( 'NONE', *, *, #114, .F. ) ;
#135 = AXIS2_PLACEMENT_3D ( 'NONE', #203, #71, #256 ) ;
#136 = CARTESIAN_POINT ( 'NONE',  ( -0.1249999999999986955, 2.000000000000000444, 0.000000000000000000 ) ) ;
#137 = COLOUR_RGB ( '',0.7921568627450980005, 0.8196078431372548767, 0.9333333333333333481 ) ;
#138 = DIRECTION ( 'NONE',  ( -1.000000000000000000, 0.000000000000000000, 0.000000000000000000 ) ) ;
#139 =( CONVERSION_BASED_UNIT ( 'INCH', #306 ) LENGTH_UNIT ( ) NAMED_UNIT ( #218 ) );
#140 = DIRECTION ( 'NONE',  ( 4.144958397114118927E-16, 1.000000000000000000, -0.000000000000000000 ) ) ;
#141 = SURFACE_SIDE_STYLE ('',( #205 ) ) ;
#142 = AXIS2_PLACEMENT_3D ( 'NONE', #157, #279, #138 ) ;
#143 = VECTOR ( 'NONE', #31, 39.37007874015748143 ) ;
#144 = PRESENTATION_STYLE_ASSIGNMENT (( #1 ) ) ;
#145 = CARTESIAN_POINT ( 'NONE',  ( 0.000000000000000000, 0.000000000000000000, 0.000000000000000000 ) ) ;
#146 = EDGE_CURVE ( 'NONE', #151, #261, #238, .T. ) ;
#147 = AXIS2_PLACEMENT_3D ( 'NONE', #23, #55, #53 ) ;
#148 = CLOSED_SHELL ( 'NONE', ( #194, #166, #164, #49 ) ) ;
#149 = CIRCLE ( 'NONE', #193, 0.1250000000000000278 ) ;
#150 = UNCERTAINTY_MEASURE_WITH_UNIT (LENGTH_MEASURE( 1.000000000000000082E-05 ), #139, 'distance_accuracy_value', 'NONE');
#151 = VERTEX_POINT ( 'NONE', #264 ) ;
#152 = ORIENTED_EDGE ( 'NONE', *, *, #146, .F. ) ;
#153 = PRODUCT ( '26107', '26107', '', ( #273 ) ) ;
#154 = ADVANCED_FACE ( 'NONE', ( #233 ), #108, .T. ) ;
#155 = AXIS2_PLACEMENT_3D ( 'NONE', #207, #253, #183 ) ;
#156 = EDGE_LOOP ( 'NONE', ( #244, #197 ) ) ;
#157 = CARTESIAN_POINT ( 'NONE',  ( 6.735557395310443009E-16, 2.000000000000000444, 0.000000000000000000 ) ) ;
#158 = STYLED_ITEM ( 'NONE', ( #292 ), #164 ) ;
#159 = PLANE ( 'NONE',  #72 ) ;
#160 =( LENGTH_UNIT ( ) NAMED_UNIT ( * ) SI_UNIT ( $, .METRE. ) );
#161 = CARTESIAN_POINT ( 'NONE',  ( 0.000000000000000000, 0.000000000000000000, 0.000000000000000000 ) ) ;
#162 = COLOUR_RGB ( '',1.000000000000000000, 0.000000000000000000, 0.000000000000000000 ) ;
#163 = DIRECTION ( 'NONE',  ( 4.144958397114118927E-16, 1.000000000000000000, -0.000000000000000000 ) ) ;
#164 = ADVANCED_FACE ( 'NONE', ( #295 ), #195, .T. ) ;
#165 = CARTESIAN_POINT ( 'NONE',  ( 6.735557395310443009E-16, 2.000000000000000444, 0.000000000000000000 ) ) ;
#166 = ADVANCED_FACE ( 'NONE', ( #82 ), #215, .T. ) ;
#167 = DIRECTION ( 'NONE',  ( -0.000000000000000000, -1.000000000000000000, -0.000000000000000000 ) ) ;
#168 = DIRECTION ( 'NONE',  ( -1.000000000000000000, 4.144958397114118927E-16, 0.000000000000000000 ) ) ;
#169 = DIRECTION ( 'NONE',  ( -1.000000000000000000, 0.000000000000000000, 0.000000000000000000 ) ) ;
#170 = AXIS2_PLACEMENT_3D ( 'NONE', #182, #120, #50 ) ;
#171 =( LENGTH_UNIT ( ) NAMED_UNIT ( * ) SI_UNIT ( $, .METRE. ) );
#172 = ORIENTED_EDGE ( 'NONE', *, *, #210, .T. ) ;
#173 =( CONVERSION_BASED_UNIT ( 'INCH', #39 ) LENGTH_UNIT ( ) NAMED_UNIT ( #13 ) );
#174 = APPLICATION_PROTOCOL_DEFINITION ( 'draft international standard', 'automotive_design', 1998, #16 ) ;
#175 = STYLED_ITEM ( 'NONE', ( #303 ), #115 ) ;
#176 = AXIS2_PLACEMENT_3D ( 'NONE', #225, #245, #198 ) ;
#177 = ORIENTED_EDGE ( 'NONE', *, *, #109, .F. ) ;
#178 = EDGE_LOOP ( 'NONE', ( #246, #29, #134, #21 ) ) ;
#179 = CIRCLE ( 'NONE', #155, 0.1250000000000000278 ) ;
#180 = SURFACE_SIDE_STYLE ('',( #204 ) ) ;
#181 = VERTEX_POINT ( 'NONE', #59 ) ;
#182 = CARTESIAN_POINT ( 'NONE',  ( 0.000000000000000000, 0.000000000000000000, 0.000000000000000000 ) ) ;
#183 = DIRECTION ( 'NONE',  ( -1.000000000000000000, 5.463695987328525451E-16, 0.000000000000000000 ) ) ;
#184 = PRESENTATION_LAYER_ASSIGNMENT (  '', '', ( #54 ) ) ;
#185 = DIRECTION ( 'NONE',  ( -0.000000000000000000, -1.000000000000000000, -0.000000000000000000 ) ) ;
#186 = FACE_OUTER_BOUND ( 'NONE', #156, .T. ) ;
#187 =( CONVERSION_BASED_UNIT ( 'INCH', #214 ) LENGTH_UNIT ( ) NAMED_UNIT ( #88 ) );
#188 = FILL_AREA_STYLE ('',( #126 ) ) ;
#189 = UNCERTAINTY_MEASURE_WITH_UNIT (LENGTH_MEASURE( 1.000000000000000082E-05 ), #213, 'distance_accuracy_value', 'NONE');
#190 = SURFACE_SIDE_STYLE ('',( #101 ) ) ;
#191 = SURFACE_STYLE_FILL_AREA ( #104 ) ;
#192 = MECHANICAL_DESIGN_GEOMETRIC_PRESENTATION_REPRESENTATION (  '', ( #308 ), #47 ) ;
#193 = AXIS2_PLACEMENT_3D ( 'NONE', #145, #209, #239 ) ;
#194 = ADVANCED_FACE ( 'NONE', ( #107 ), #81, .T. ) ;
#195 = CYLINDRICAL_SURFACE ( 'NONE', #224, 0.1250000000000000278 ) ;
#196 =( LENGTH_UNIT ( ) NAMED_UNIT ( * ) SI_UNIT ( $, .METRE. ) );
#197 = ORIENTED_EDGE ( 'NONE', *, *, #242, .T. ) ;
#198 = DIRECTION ( 'NONE',  ( 1.000000000000000000, 0.000000000000000000, 0.000000000000000000 ) ) ;
#199 = AXIS2_PLACEMENT_3D ( 'NONE', #85, #4, #294 ) ;
#200 =( LENGTH_UNIT ( ) NAMED_UNIT ( * ) SI_UNIT ( $, .METRE. ) );
#201 = APPLICATION_PROTOCOL_DEFINITION ( 'draft international standard', 'automotive_design', 1998, #284 ) ;
#202 =( NAMED_UNIT ( * ) PLANE_ANGLE_UNIT ( ) SI_UNIT ( $, .RADIAN. ) );
#203 = CARTESIAN_POINT ( 'NONE',  ( 6.735557395310443009E-16, 2.000000000000000444, 0.000000000000000000 ) ) ;
#204 = SURFACE_STYLE_FILL_AREA ( #285 ) ;
#205 = SURFACE_STYLE_FILL_AREA ( #57 ) ;
#206 = MECHANICAL_DESIGN_GEOMETRIC_PRESENTATION_REPRESENTATION (  '', ( #158 ), #243 ) ;
#207 = CARTESIAN_POINT ( 'NONE',  ( 0.000000000000000000, 0.3750000000000002220, 0.000000000000000000 ) ) ;
#208 = DIRECTION ( 'NONE',  ( -4.144958397114118927E-16, -1.000000000000000000, 0.000000000000000000 ) ) ;
#209 = DIRECTION ( 'NONE',  ( -0.000000000000000000, -1.000000000000000000, -0.000000000000000000 ) ) ;
#210 = EDGE_CURVE ( 'NONE', #226, #277, #236, .T. ) ;
#211 = UNCERTAINTY_MEASURE_WITH_UNIT (LENGTH_MEASURE( 1.000000000000000082E-05 ), #187, 'distance_accuracy_value', 'NONE');
#212 = AXIS2_PLACEMENT_3D ( 'NONE', #75, #208, #100 ) ;
#213 =( CONVERSION_BASED_UNIT ( 'INCH', #309 ) LENGTH_UNIT ( ) NAMED_UNIT ( #240 ) );
#214 = LENGTH_MEASURE_WITH_UNIT ( LENGTH_MEASURE( 0.02539999999999999897 ), #160 );
#215 = PLANE ( 'NONE',  #199 ) ;
#216 = PRESENTATION_LAYER_ASSIGNMENT (  '', '', ( #308 ) ) ;
#217 = PRODUCT_DEFINITION_FORMATION_WITH_SPECIFIED_SOURCE ( 'ANY', '', #153, .NOT_KNOWN. ) ;
#218 = DIMENSIONAL_EXPONENTS ( 1.000000000000000000, 0.000000000000000000, 0.000000000000000000, 0.000000000000000000, 0.000000000000000000, 0.000000000000000000, 0.000000000000000000 ) ;
#219 = FACE_OUTER_BOUND ( 'NONE', #17, .T. ) ;
#220 =( NAMED_UNIT ( * ) PLANE_ANGLE_UNIT ( ) SI_UNIT ( $, .RADIAN. ) );
#221 = DIMENSIONAL_EXPONENTS ( 1.000000000000000000, 0.000000000000000000, 0.000000000000000000, 0.000000000000000000, 0.000000000000000000, 0.000000000000000000, 0.000000000000000000 ) ;
#222 =( LENGTH_UNIT ( ) NAMED_UNIT ( * ) SI_UNIT ( $, .METRE. ) );
#223 = ORIENTED_EDGE ( 'NONE', *, *, #33, .F. ) ;
#224 = AXIS2_PLACEMENT_3D ( 'NONE', #267, #123, #69 ) ;
#225 = CARTESIAN_POINT ( 'NONE',  ( 0.000000000000000000, 0.000000000000000000, 0.000000000000000000 ) ) ;
#226 = VERTEX_POINT ( 'NONE', #283 ) ;
#227 = VERTEX_POINT ( 'NONE', #65 ) ;
#228 = PRODUCT_DEFINITION_SHAPE ( 'NONE', 'NONE',  #6 ) ;
#229 = CIRCLE ( 'NONE', #282, 0.1250000000000000278 ) ;
#230 = COLOUR_RGB ( '',1.000000000000000000, 0.000000000000000000, 0.000000000000000000 ) ;
#231 = CARTESIAN_POINT ( 'NONE',  ( 0.000000000000000000, 0.3750000000000002220, 0.000000000000000000 ) ) ;
#232 = CARTESIAN_POINT ( 'NONE',  ( 0.000000000000000000, 0.000000000000000000, 0.000000000000000000 ) ) ;
#233 = FACE_OUTER_BOUND ( 'NONE', #45, .T. ) ;
#234 = PRESENTATION_STYLE_ASSIGNMENT (( #28 ) ) ;
#235 = EDGE_CURVE ( 'NONE', #181, #111, #263, .T. ) ;
#236 = LINE ( 'NONE', #30, #11 ) ;
#237 = DIRECTION ( 'NONE',  ( 4.144958397114118434E-16, 1.000000000000000000, -0.000000000000000000 ) ) ;
#238 = LINE ( 'NONE', #63, #301 ) ;
#239 = DIRECTION ( 'NONE',  ( 0.000000000000000000, 0.000000000000000000, -1.000000000000000000 ) ) ;
#240 = DIMENSIONAL_EXPONENTS ( 1.000000000000000000, 0.000000000000000000, 0.000000000000000000, 0.000000000000000000, 0.000000000000000000, 0.000000000000000000, 0.000000000000000000 ) ;
#241 = PRESENTATION_LAYER_ASSIGNMENT (  '', '', ( #175 ) ) ;
#242 = EDGE_CURVE ( 'NONE', #277, #227, #149, .T. ) ;
#243 =( GEOMETRIC_REPRESENTATION_CONTEXT ( 3 ) GLOBAL_UNCERTAINTY_ASSIGNED_CONTEXT ( ( #121 ) ) GLOBAL_UNIT_ASSIGNED_CONTEXT ( ( #257, #287, #68 ) ) REPRESENTATION_CONTEXT ( 'NONE', 'WORKASPACE' ) );
#244 = ORIENTED_EDGE ( 'NONE', *, *, #95, .T. ) ;
#245 = DIRECTION ( 'NONE',  ( 0.000000000000000000, 0.000000000000000000, 1.000000000000000000 ) ) ;
#246 = ORIENTED_EDGE ( 'NONE', *, *, #109, .T. ) ;
#247 =( GEOMETRIC_REPRESENTATION_CONTEXT ( 3 ) GLOBAL_UNCERTAINTY_ASSIGNED_CONTEXT ( ( #150 ) ) GLOBAL_UNIT_ASSIGNED_CONTEXT ( ( #139, #202, #73 ) ) REPRESENTATION_CONTEXT ( 'NONE', 'WORKASPACE' ) );
#248 = STYLED_ITEM ( 'NONE', ( #14 ), #166 ) ;
#249 = UNCERTAINTY_MEASURE_WITH_UNIT (LENGTH_MEASURE( 1.000000000000000082E-05 ), #113, 'distance_accuracy_value', 'NONE');
#250 = ORIENTED_EDGE ( 'NONE', *, *, #95, .F. ) ;
#251 =( NAMED_UNIT ( * ) SI_UNIT ( $, .STERADIAN. ) SOLID_ANGLE_UNIT ( ) );
#252 = SURFACE_STYLE_USAGE ( .BOTH. , #180 ) ;
#253 = DIRECTION ( 'NONE',  ( 4.144958397114118434E-16, 1.000000000000000000, -0.000000000000000000 ) ) ;
#254 = MECHANICAL_DESIGN_GEOMETRIC_PRESENTATION_REPRESENTATION (  '', ( #248 ), #18 ) ;
#255 = PRODUCT_RELATED_PRODUCT_CATEGORY ( 'part', '', ( #153 ) ) ;
#256 = DIRECTION ( 'NONE',  ( -1.000000000000000000, 0.000000000000000000, 0.000000000000000000 ) ) ;
#257 =( CONVERSION_BASED_UNIT ( 'INCH', #66 ) LENGTH_UNIT ( ) NAMED_UNIT ( #221 ) );
#258 = CIRCLE ( 'NONE', #276, 0.1250000000000000278 ) ;
#259 = AXIS2_PLACEMENT_3D ( 'NONE', #103, #163, #168 ) ;
#260 = CARTESIAN_POINT ( 'NONE',  ( 0.000000000000000000, 0.000000000000000000, -0.1250000000000000278 ) ) ;
#261 = VERTEX_POINT ( 'NONE', #36 ) ;
#262 = FACE_OUTER_BOUND ( 'NONE', #178, .T. ) ;
#263 = LINE ( 'NONE', #67, #291 ) ;
#264 = CARTESIAN_POINT ( 'NONE',  ( 0.1250000000000000278, 0.3750000000000001665, 1.530808498934189660E-17 ) ) ;
#265 = CARTESIAN_POINT ( 'NONE',  ( 6.735557395310443009E-16, 2.000000000000000444, 0.000000000000000000 ) ) ;
#266 = CLOSED_SHELL ( 'NONE', ( #281, #280, #154, #58 ) ) ;
#267 = CARTESIAN_POINT ( 'NONE',  ( 0.000000000000000000, 0.000000000000000000, 0.000000000000000000 ) ) ;
#268 = MECHANICAL_DESIGN_GEOMETRIC_PRESENTATION_REPRESENTATION (  '', ( #54 ), #62 ) ;
#269 = PLANE ( 'NONE',  #259 ) ;
#270 = CIRCLE ( 'NONE', #142, 0.1249999999999993616 ) ;
#271 = ORIENTED_EDGE ( 'NONE', *, *, #125, .F. ) ;
#272 = AXIS2_PLACEMENT_3D ( 'NONE', #265, #300, #116 ) ;
#273 = PRODUCT_CONTEXT ( 'NONE', #16, 'mechanical' ) ;
#274 = EDGE_LOOP ( 'NONE', ( #275, #172, #250, #293 ) ) ;
#275 = ORIENTED_EDGE ( 'NONE', *, *, #125, .T. ) ;
#276 = AXIS2_PLACEMENT_3D ( 'NONE', #231, #76, #60 ) ;
#277 = VERTEX_POINT ( 'NONE', #129 ) ;
#278 = PRESENTATION_STYLE_ASSIGNMENT (( #98 ) ) ;
#279 = DIRECTION ( 'NONE',  ( 4.144958397114118434E-16, 1.000000000000000000, -0.000000000000000000 ) ) ;
#280 = ADVANCED_FACE ( 'NONE', ( #219 ), #269, .F. ) ;
#281 = ADVANCED_FACE ( 'NONE', ( #262 ), #35, .T. ) ;
#282 = AXIS2_PLACEMENT_3D ( 'NONE', #77, #185, #20 ) ;
#283 = CARTESIAN_POINT ( 'NONE',  ( 1.530808498934191817E-17, 0.3750000000000002220, 0.1250000000000000278 ) ) ;
#284 = APPLICATION_CONTEXT ( 'automotive_design' ) ;
#285 = FILL_AREA_STYLE ('',( #24 ) ) ;
#286 = UNCERTAINTY_MEASURE_WITH_UNIT (LENGTH_MEASURE( 1.000000000000000082E-05 ), #173, 'distance_accuracy_value', 'NONE');
#287 =( NAMED_UNIT ( * ) PLANE_ANGLE_UNIT ( ) SI_UNIT ( $, .RADIAN. ) );
#288 =( NAMED_UNIT ( * ) PLANE_ANGLE_UNIT ( ) SI_UNIT ( $, .RADIAN. ) );
#289 = LINE ( 'NONE', #260, #143 ) ;
#290 = DIRECTION ( 'NONE',  ( -0.000000000000000000, -1.000000000000000000, -0.000000000000000000 ) ) ;
#291 = VECTOR ( 'NONE', #140, 39.37007874015748143 ) ;
#292 = PRESENTATION_STYLE_ASSIGNMENT (( #102 ) ) ;
#293 = ORIENTED_EDGE ( 'NONE', *, *, #131, .F. ) ;
#294 = DIRECTION ( 'NONE',  ( 0.000000000000000000, -0.000000000000000000, 1.000000000000000000 ) ) ;
#295 = FACE_OUTER_BOUND ( 'NONE', #40, .T. ) ;
#296 = SURFACE_SIDE_STYLE ('',( #191 ) ) ;
#297 = PRESENTATION_LAYER_ASSIGNMENT (  '', '', ( #124 ) ) ;
#298 =( CONVERSION_BASED_UNIT ( 'INCH', #12 ) LENGTH_UNIT ( ) NAMED_UNIT ( #41 ) );
#299 = EDGE_LOOP ( 'NONE', ( #48, #7 ) ) ;
#300 = DIRECTION ( 'NONE',  ( 4.144958397114118434E-16, 1.000000000000000000, -0.000000000000000000 ) ) ;
#301 = VECTOR ( 'NONE', #26, 39.37007874015748143 ) ;
#302 =( NAMED_UNIT ( * ) PLANE_ANGLE_UNIT ( ) SI_UNIT ( $, .RADIAN. ) );
#303 = PRESENTATION_STYLE_ASSIGNMENT (( #252 ) ) ;
#304 = COLOUR_RGB ( '',0.7921568627450980005, 0.8196078431372548767, 0.9333333333333333481 ) ;
#305 = FACE_OUTER_BOUND ( 'NONE', #299, .T. ) ;
#306 = LENGTH_MEASURE_WITH_UNIT ( LENGTH_MEASURE( 0.02539999999999999897 ), #80 );
#307 =( NAMED_UNIT ( * ) SI_UNIT ( $, .STERADIAN. ) SOLID_ANGLE_UNIT ( ) );
#308 = STYLED_ITEM ( 'NONE', ( #278 ), #49 ) ;
#309 = LENGTH_MEASURE_WITH_UNIT ( LENGTH_MEASURE( 0.02539999999999999897 ), #130 );
ENDSEC;
END-ISO-10303-21;
