ISO-10303-21;
HEADER;
FILE_DESCRIPTION (( 'STEP AP214' ),
    '1' );
FILE_NAME ('12482.STEP',
    '2023-06-30T21:51:29',
    ( '' ),
    ( '' ),
    'SwSTEP 2.0',
    'SolidWorks 2023',
    '' );
FILE_SCHEMA (( 'AUTOMOTIVE_DESIGN' ));
ENDSEC;

DATA;
#1 = PRESENTATION_LAYER_ASSIGNMENT (  '', '', ( #273 ) ) ;
#2 = CIRCLE ( 'NONE', #201, 0.3749999999999999445 ) ;
#3 = DIRECTION ( 'NONE',  ( -0.000000000000000000, -1.000000000000000000, -0.000000000000000000 ) ) ;
#4 = PRESENTATION_STYLE_ASSIGNMENT (( #262 ) ) ;
#5 = SURFACE_STYLE_USAGE ( .BOTH. , #263 ) ;
#6 = ORIENTED_EDGE ( 'NONE', *, *, #216, .T. ) ;
#7 = DIRECTION ( 'NONE',  ( -0.000000000000000000, -1.000000000000000000, -0.000000000000000000 ) ) ;
#8 = DIRECTION ( 'NONE',  ( 0.000000000000000000, 0.000000000000000000, -1.000000000000000000 ) ) ;
#9 = EDGE_LOOP ( 'NONE', ( #115, #291, #228, #175, #41 ) ) ;
#10 =( NAMED_UNIT ( * ) SI_UNIT ( $, .STERADIAN. ) SOLID_ANGLE_UNIT ( ) );
#11 = SPHERICAL_SURFACE ( 'NONE', #242, 0.3750000000000000555 ) ;
#12 =( GEOMETRIC_REPRESENTATION_CONTEXT ( 3 ) GLOBAL_UNCERTAINTY_ASSIGNED_CONTEXT ( ( #53 ) ) GLOBAL_UNIT_ASSIGNED_CONTEXT ( ( #29, #149, #37 ) ) REPRESENTATION_CONTEXT ( 'NONE', 'WORKASPACE' ) );
#13 = EDGE_LOOP ( 'NONE', ( #320, #142, #127, #169, #87 ) ) ;
#14 = ADVANCED_FACE ( 'NONE', ( #148 ), #333, .T. ) ;
#15 =( CONVERSION_BASED_UNIT ( 'INCH', #47 ) LENGTH_UNIT ( ) NAMED_UNIT ( #72 ) );
#16 = LENGTH_MEASURE_WITH_UNIT ( LENGTH_MEASURE( 0.02539999999999999897 ), #354 );
#17 = DIRECTION ( 'NONE',  ( 1.000000000000000000, 0.000000000000000000, 0.000000000000000000 ) ) ;
#18 = ORIENTED_EDGE ( 'NONE', *, *, #70, .T. ) ;
#19 = PRESENTATION_LAYER_ASSIGNMENT (  '', '', ( #34 ) ) ;
#20 = DIRECTION ( 'NONE',  ( -1.224646799147353207E-16, 1.000000000000000000, -0.000000000000000000 ) ) ;
#21 = PRODUCT_RELATED_PRODUCT_CATEGORY ( 'part', '', ( #136 ) ) ;
#22 = CARTESIAN_POINT ( 'NONE',  ( -4.592425496802575451E-17, 0.3750000000000000555, 0.000000000000000000 ) ) ;
#23 = UNCERTAINTY_MEASURE_WITH_UNIT (LENGTH_MEASURE( 1.000000000000000082E-05 ), #128, 'distance_accuracy_value', 'NONE');
#24 = FILL_AREA_STYLE_COLOUR ( '', #145 ) ;
#25 = FILL_AREA_STYLE_COLOUR ( '', #196 ) ;
#26 = EDGE_LOOP ( 'NONE', ( #264, #247, #371, #18 ) ) ;
#27 = CLOSED_SHELL ( 'NONE', ( #14, #248, #255, #231 ) ) ;
#28 = EDGE_LOOP ( 'NONE', ( #351, #368, #215, #233 ) ) ;
#29 =( CONVERSION_BASED_UNIT ( 'INCH', #186 ) LENGTH_UNIT ( ) NAMED_UNIT ( #61 ) );
#30 = SURFACE_STYLE_USAGE ( .BOTH. , #282 ) ;
#31 =( LENGTH_UNIT ( ) NAMED_UNIT ( * ) SI_UNIT ( $, .METRE. ) );
#32 = CARTESIAN_POINT ( 'NONE',  ( 0.3749999999999998335, 4.000000000000000000, 0.000000000000000000 ) ) ;
#33 = DIRECTION ( 'NONE',  ( -1.224646799147353207E-16, 1.000000000000000000, -0.000000000000000000 ) ) ;
#34 = STYLED_ITEM ( 'NONE', ( #182 ), #108 ) ;
#35 = PRODUCT_DEFINITION_FORMATION_WITH_SPECIFIED_SOURCE ( 'ANY', '', #136, .NOT_KNOWN. ) ;
#36 = FILL_AREA_STYLE ('',( #25 ) ) ;
#37 =( NAMED_UNIT ( * ) SI_UNIT ( $, .STERADIAN. ) SOLID_ANGLE_UNIT ( ) );
#38 = EDGE_LOOP ( 'NONE', ( #336, #307 ) ) ;
#39 = AXIS2_PLACEMENT_3D ( 'NONE', #249, #84, #112 ) ;
#40 = MECHANICAL_DESIGN_GEOMETRIC_PRESENTATION_REPRESENTATION (  '', ( #308 ), #335 ) ;
#41 = ORIENTED_EDGE ( 'NONE', *, *, #239, .F. ) ;
#42 = PRESENTATION_STYLE_ASSIGNMENT (( #165 ) ) ;
#43 = FILL_AREA_STYLE_COLOUR ( '', #120 ) ;
#44 = EDGE_CURVE ( 'NONE', #337, #50, #111, .T. ) ;
#45 =( GEOMETRIC_REPRESENTATION_CONTEXT ( 3 ) GLOBAL_UNCERTAINTY_ASSIGNED_CONTEXT ( ( #46 ) ) GLOBAL_UNIT_ASSIGNED_CONTEXT ( ( #176, #268, #326 ) ) REPRESENTATION_CONTEXT ( 'NONE', 'WORKASPACE' ) );
#46 = UNCERTAINTY_MEASURE_WITH_UNIT (LENGTH_MEASURE( 1.000000000000000082E-05 ), #176, 'distance_accuracy_value', 'NONE');
#47 = LENGTH_MEASURE_WITH_UNIT ( LENGTH_MEASURE( 0.02539999999999999897 ), #137 );
#48 = DIRECTION ( 'NONE',  ( 0.000000000000000000, 0.000000000000000000, -1.000000000000000000 ) ) ;
#49 = CARTESIAN_POINT ( 'NONE',  ( -1.224646799147352714E-16, 4.000000000000000000, 0.000000000000000000 ) ) ;
#50 = VERTEX_POINT ( 'NONE', #173 ) ;
#51 = CIRCLE ( 'NONE', #253, 0.3749999999999998335 ) ;
#52 = CYLINDRICAL_SURFACE ( 'NONE', #102, 0.3749999999999998890 ) ;
#53 = UNCERTAINTY_MEASURE_WITH_UNIT (LENGTH_MEASURE( 1.000000000000000082E-05 ), #29, 'distance_accuracy_value', 'NONE');
#54 = VERTEX_POINT ( 'NONE', #272 ) ;
#55 = DIRECTION ( 'NONE',  ( -1.224646799147353207E-16, 1.000000000000000000, -0.000000000000000000 ) ) ;
#56 = AXIS2_PLACEMENT_3D ( 'NONE', #22, #332, #305 ) ;
#57 = FACE_OUTER_BOUND ( 'NONE', #170, .T. ) ;
#58 = DIRECTION ( 'NONE',  ( -1.224646799147353207E-16, 1.000000000000000000, -0.000000000000000000 ) ) ;
#59 = CARTESIAN_POINT ( 'NONE',  ( 0.3749999999999996669, 4.000000000000000000, 4.592425496802572370E-17 ) ) ;
#60 = FILL_AREA_STYLE ('',( #238 ) ) ;
#61 = DIMENSIONAL_EXPONENTS ( 1.000000000000000000, 0.000000000000000000, 0.000000000000000000, 0.000000000000000000, 0.000000000000000000, 0.000000000000000000, 0.000000000000000000 ) ;
#62 = CARTESIAN_POINT ( 'NONE',  ( -0.3750000000000000555, 0.3750000000000001110, 4.592425496802574219E-17 ) ) ;
#63 = CARTESIAN_POINT ( 'NONE',  ( 1.683889348827610999E-16, 1.625000000000000000, 0.000000000000000000 ) ) ;
#64 = CARTESIAN_POINT ( 'NONE',  ( 1.683889348827610999E-16, 1.625000000000000000, 0.000000000000000000 ) ) ;
#65 = DIMENSIONAL_EXPONENTS ( 1.000000000000000000, 0.000000000000000000, 0.000000000000000000, 0.000000000000000000, 0.000000000000000000, 0.000000000000000000, 0.000000000000000000 ) ;
#66 = DIRECTION ( 'NONE',  ( 0.000000000000000000, -0.000000000000000000, 1.000000000000000000 ) ) ;
#67 = VECTOR ( 'NONE', #58, 39.37007874015748143 ) ;
#68 = FILL_AREA_STYLE ('',( #237 ) ) ;
#69 = PRESENTATION_STYLE_ASSIGNMENT (( #30 ) ) ;
#70 = EDGE_CURVE ( 'NONE', #204, #50, #265, .T. ) ;
#71 = FILL_AREA_STYLE_COLOUR ( '', #235 ) ;
#72 = DIMENSIONAL_EXPONENTS ( 1.000000000000000000, 0.000000000000000000, 0.000000000000000000, 0.000000000000000000, 0.000000000000000000, 0.000000000000000000, 0.000000000000000000 ) ;
#73 = EDGE_LOOP ( 'NONE', ( #164, #257, #349, #199 ) ) ;
#74 = MECHANICAL_DESIGN_GEOMETRIC_PRESENTATION_REPRESENTATION (  '', ( #316 ), #45 ) ;
#75 = CIRCLE ( 'NONE', #56, 0.3750000000000000555 ) ;
#76 = SURFACE_STYLE_FILL_AREA ( #325 ) ;
#77 = VERTEX_POINT ( 'NONE', #274 ) ;
#78 =( CONVERSION_BASED_UNIT ( 'INCH', #16 ) LENGTH_UNIT ( ) NAMED_UNIT ( #65 ) );
#79 = ADVANCED_FACE ( 'NONE', ( #226 ), #52, .T. ) ;
#80 = SPHERICAL_SURFACE ( 'NONE', #324, 0.3750000000000000555 ) ;
#81 = AXIS2_PLACEMENT_3D ( 'NONE', #91, #33, #189 ) ;
#82 = DIRECTION ( 'NONE',  ( 0.000000000000000000, 0.000000000000000000, -1.000000000000000000 ) ) ;
#83 = FILL_AREA_STYLE ('',( #24 ) ) ;
#84 = DIRECTION ( 'NONE',  ( -0.000000000000000000, -1.000000000000000000, -0.000000000000000000 ) ) ;
#85 = MECHANICAL_DESIGN_GEOMETRIC_PRESENTATION_REPRESENTATION (  '', ( #362 ), #348 ) ;
#86 = CARTESIAN_POINT ( 'NONE',  ( -0.3749999999999999445, 4.000000000000000000, 0.000000000000000000 ) ) ;
#87 = ORIENTED_EDGE ( 'NONE', *, *, #293, .F. ) ;
#88 = SURFACE_SIDE_STYLE ('',( #370 ) ) ;
#89 = FACE_OUTER_BOUND ( 'NONE', #294, .T. ) ;
#90 = AXIS2_PLACEMENT_3D ( 'NONE', #156, #373, #184 ) ;
#91 = CARTESIAN_POINT ( 'NONE',  ( -1.224646799147352714E-16, 4.000000000000000000, 0.000000000000000000 ) ) ;
#92 = EDGE_CURVE ( 'NONE', #217, #144, #355, .T. ) ;
#93 =( NAMED_UNIT ( * ) PLANE_ANGLE_UNIT ( ) SI_UNIT ( $, .RADIAN. ) );
#94 = CARTESIAN_POINT ( 'NONE',  ( 0.3749999999999999445, 0.3750000000000001110, 0.000000000000000000 ) ) ;
#95 = DIRECTION ( 'NONE',  ( -1.000000000000000000, 0.000000000000000000, 0.000000000000000000 ) ) ;
#96 = EDGE_CURVE ( 'NONE', #217, #133, #212, .T. ) ;
#97 = MECHANICAL_DESIGN_GEOMETRIC_PRESENTATION_REPRESENTATION (  '', ( #139 ), #296 ) ;
#98 = CARTESIAN_POINT ( 'NONE',  ( 0.000000000000000000, 1.625000000000000000, 0.000000000000000000 ) ) ;
#99 = AXIS2_PLACEMENT_3D ( 'NONE', #366, #203, #220 ) ;
#100 = ORIENTED_EDGE ( 'NONE', *, *, #319, .T. ) ;
#101 = FACE_OUTER_BOUND ( 'NONE', #9, .T. ) ;
#102 = AXIS2_PLACEMENT_3D ( 'NONE', #344, #7, #318 ) ;
#103 = SURFACE_SIDE_STYLE ('',( #76 ) ) ;
#104 = ORIENTED_EDGE ( 'NONE', *, *, #353, .T. ) ;
#105 = DIRECTION ( 'NONE',  ( 0.000000000000000000, 0.000000000000000000, 1.000000000000000000 ) ) ;
#106 = APPLICATION_CONTEXT ( 'automotive_design' ) ;
#107 = LENGTH_MEASURE_WITH_UNIT ( LENGTH_MEASURE( 0.02539999999999999897 ), #302 );
#108 = ADVANCED_FACE ( 'NONE', ( #101 ), #286, .T. ) ;
#109 = CIRCLE ( 'NONE', #81, 0.3749999999999999445 ) ;
#110 = DIRECTION ( 'NONE',  ( -1.000000000000000000, -1.224646799147353207E-16, 0.000000000000000000 ) ) ;
#111 = LINE ( 'NONE', #331, #327 ) ;
#112 = DIRECTION ( 'NONE',  ( 0.000000000000000000, 0.000000000000000000, -1.000000000000000000 ) ) ;
#113 = PRODUCT_DEFINITION_CONTEXT ( 'detailed design', #147, 'design' ) ;
#114 = CARTESIAN_POINT ( 'NONE',  ( 1.683889348827610752E-16, 1.625000000000000000, 0.000000000000000000 ) ) ;
#115 = ORIENTED_EDGE ( 'NONE', *, *, #223, .T. ) ;
#116 = AXIS2_PLACEMENT_3D ( 'NONE', #313, #181, #339 ) ;
#117 = DIRECTION ( 'NONE',  ( -1.224646799147353207E-16, 1.000000000000000000, -0.000000000000000000 ) ) ;
#118 = DIMENSIONAL_EXPONENTS ( 1.000000000000000000, 0.000000000000000000, 0.000000000000000000, 0.000000000000000000, 0.000000000000000000, 0.000000000000000000, 0.000000000000000000 ) ;
#119 = LENGTH_MEASURE_WITH_UNIT ( LENGTH_MEASURE( 0.02539999999999999897 ), #309 );
#120 = COLOUR_RGB ( '',1.000000000000000000, 0.000000000000000000, 0.000000000000000000 ) ;
#121 = AXIS2_PLACEMENT_3D ( 'NONE', #290, #48, #363 ) ;
#122 = LINE ( 'NONE', #86, #67 ) ;
#123 =( NAMED_UNIT ( * ) SI_UNIT ( $, .STERADIAN. ) SOLID_ANGLE_UNIT ( ) );
#124 =( NAMED_UNIT ( * ) SI_UNIT ( $, .STERADIAN. ) SOLID_ANGLE_UNIT ( ) );
#125 = DIMENSIONAL_EXPONENTS ( 1.000000000000000000, 0.000000000000000000, 0.000000000000000000, 0.000000000000000000, 0.000000000000000000, 0.000000000000000000, 0.000000000000000000 ) ;
#126 = CARTESIAN_POINT ( 'NONE',  ( 0.000000000000000000, 1.625000000000000000, 0.000000000000000000 ) ) ;
#127 = ORIENTED_EDGE ( 'NONE', *, *, #239, .T. ) ;
#128 =( CONVERSION_BASED_UNIT ( 'INCH', #119 ) LENGTH_UNIT ( ) NAMED_UNIT ( #125 ) );
#129 = DIMENSIONAL_EXPONENTS ( 1.000000000000000000, 0.000000000000000000, 0.000000000000000000, 0.000000000000000000, 0.000000000000000000, 0.000000000000000000, 0.000000000000000000 ) ;
#130 = CIRCLE ( 'NONE', #328, 0.3749999999999998335 ) ;
#131 = CARTESIAN_POINT ( 'NONE',  ( 0.3749999999999998335, 4.000000000000000000, 4.592425496802572986E-17 ) ) ;
#132 = LENGTH_MEASURE_WITH_UNIT ( LENGTH_MEASURE( 0.02539999999999999897 ), #31 );
#133 = VERTEX_POINT ( 'NONE', #131 ) ;
#134 = AXIS2_PLACEMENT_3D ( 'NONE', #32, #150, #155 ) ;
#135 = EDGE_LOOP ( 'NONE', ( #162, #194 ) ) ;
#136 = PRODUCT ( '12482', '12482', '', ( #198 ) ) ;
#137 =( LENGTH_UNIT ( ) NAMED_UNIT ( * ) SI_UNIT ( $, .METRE. ) );
#138 = DIRECTION ( 'NONE',  ( -1.000000000000000000, 0.000000000000000000, 0.000000000000000000 ) ) ;
#139 = STYLED_ITEM ( 'NONE', ( #69 ), #243 ) ;
#140 = DIRECTION ( 'NONE',  ( -0.000000000000000000, -1.000000000000000000, -0.000000000000000000 ) ) ;
#141 = DIRECTION ( 'NONE',  ( -1.000000000000000000, 0.000000000000000000, 0.000000000000000000 ) ) ;
#142 = ORIENTED_EDGE ( 'NONE', *, *, #221, .T. ) ;
#143 = SURFACE_STYLE_USAGE ( .BOTH. , #227 ) ;
#144 = VERTEX_POINT ( 'NONE', #200 ) ;
#145 = COLOUR_RGB ( '',0.7921568627450980005, 0.8196078431372548767, 0.9333333333333333481 ) ;
#146 = AXIS2_PLACEMENT_3D ( 'NONE', #177, #342, #343 ) ;
#147 = APPLICATION_CONTEXT ( 'automotive_design' ) ;
#148 = FACE_OUTER_BOUND ( 'NONE', #73, .T. ) ;
#149 =( NAMED_UNIT ( * ) PLANE_ANGLE_UNIT ( ) SI_UNIT ( $, .RADIAN. ) );
#150 = DIRECTION ( 'NONE',  ( 1.224646799147353207E-16, -1.000000000000000000, 0.000000000000000000 ) ) ;
#151 = SURFACE_SIDE_STYLE ('',( #340 ) ) ;
#152 = PRESENTATION_LAYER_ASSIGNMENT (  '', '', ( #362 ) ) ;
#153 = AXIS2_PLACEMENT_3D ( 'NONE', #114, #297, #110 ) ;
#154 = CARTESIAN_POINT ( 'NONE',  ( 4.592425496802572986E-17, 1.625000000000000000, 0.3749999999999998335 ) ) ;
#155 = DIRECTION ( 'NONE',  ( 1.000000000000000000, 1.224646799147353207E-16, 0.000000000000000000 ) ) ;
#156 = CARTESIAN_POINT ( 'NONE',  ( 0.000000000000000000, 0.000000000000000000, 0.000000000000000000 ) ) ;
#157 =( CONVERSION_BASED_UNIT ( 'INCH', #192 ) LENGTH_UNIT ( ) NAMED_UNIT ( #190 ) );
#158 = ORIENTED_EDGE ( 'NONE', *, *, #346, .F. ) ;
#159 = LENGTH_MEASURE_WITH_UNIT ( LENGTH_MEASURE( 0.02539999999999999897 ), #295 );
#160 = PRESENTATION_LAYER_ASSIGNMENT (  '', '', ( #308 ) ) ;
#161 = COLOUR_RGB ( '',1.000000000000000000, 0.000000000000000000, 0.000000000000000000 ) ;
#162 = ORIENTED_EDGE ( 'NONE', *, *, #211, .F. ) ;
#163 = ADVANCED_FACE ( 'NONE', ( #352 ), #11, .T. ) ;
#164 = ORIENTED_EDGE ( 'NONE', *, *, #211, .T. ) ;
#165 = SURFACE_STYLE_USAGE ( .BOTH. , #359 ) ;
#166 = VECTOR ( 'NONE', #3, 39.37007874015748143 ) ;
#167 = APPLICATION_PROTOCOL_DEFINITION ( 'draft international standard', 'automotive_design', 1998, #147 ) ;
#168 =( NAMED_UNIT ( * ) SI_UNIT ( $, .STERADIAN. ) SOLID_ANGLE_UNIT ( ) );
#169 = ORIENTED_EDGE ( 'NONE', *, *, #365, .F. ) ;
#170 = EDGE_LOOP ( 'NONE', ( #100, #6 ) ) ;
#171 = AXIS2_PLACEMENT_3D ( 'NONE', #126, #338, #66 ) ;
#172 = CIRCLE ( 'NONE', #146, 0.3749999999999999445 ) ;
#173 = CARTESIAN_POINT ( 'NONE',  ( 4.592425496802573602E-17, 0.3750000000000001110, 0.3749999999999999445 ) ) ;
#174 = ADVANCED_FACE ( 'NONE', ( #357 ), #241, .T. ) ;
#175 = ORIENTED_EDGE ( 'NONE', *, *, #353, .F. ) ;
#176 =( CONVERSION_BASED_UNIT ( 'INCH', #159 ) LENGTH_UNIT ( ) NAMED_UNIT ( #118 ) );
#177 = CARTESIAN_POINT ( 'NONE',  ( -1.224646799147352714E-16, 4.000000000000000000, 0.000000000000000000 ) ) ;
#178 = AXIS2_PLACEMENT_3D ( 'NONE', #202, #117, #138 ) ;
#179 = PRESENTATION_LAYER_ASSIGNMENT (  '', '', ( #139 ) ) ;
#180 =( GEOMETRIC_REPRESENTATION_CONTEXT ( 3 ) GLOBAL_UNCERTAINTY_ASSIGNED_CONTEXT ( ( #364 ) ) GLOBAL_UNIT_ASSIGNED_CONTEXT ( ( #219, #240, #269 ) ) REPRESENTATION_CONTEXT ( 'NONE', 'WORKASPACE' ) );
#181 = DIRECTION ( 'NONE',  ( -0.000000000000000000, -1.000000000000000000, -0.000000000000000000 ) ) ;
#182 = PRESENTATION_STYLE_ASSIGNMENT (( #5 ) ) ;
#183 = DIRECTION ( 'NONE',  ( -1.224646799147353207E-16, 1.000000000000000000, -0.000000000000000000 ) ) ;
#184 = DIRECTION ( 'NONE',  ( 0.000000000000000000, 0.000000000000000000, -1.000000000000000000 ) ) ;
#185 = DIRECTION ( 'NONE',  ( -0.000000000000000000, -1.000000000000000000, -0.000000000000000000 ) ) ;
#186 = LENGTH_MEASURE_WITH_UNIT ( LENGTH_MEASURE( 0.02539999999999999897 ), #281 );
#187 = LINE ( 'NONE', #258, #166 ) ;
#188 = COLOUR_RGB ( '',1.000000000000000000, 0.000000000000000000, 0.000000000000000000 ) ;
#189 = DIRECTION ( 'NONE',  ( -1.000000000000000000, 0.000000000000000000, 0.000000000000000000 ) ) ;
#190 = DIMENSIONAL_EXPONENTS ( 1.000000000000000000, 0.000000000000000000, 0.000000000000000000, 0.000000000000000000, 0.000000000000000000, 0.000000000000000000, 0.000000000000000000 ) ;
#191 = SURFACE_STYLE_FILL_AREA ( #68 ) ;
#192 = LENGTH_MEASURE_WITH_UNIT ( LENGTH_MEASURE( 0.02539999999999999897 ), #285 );
#193 = SURFACE_STYLE_USAGE ( .BOTH. , #103 ) ;
#194 = ORIENTED_EDGE ( 'NONE', *, *, #92, .F. ) ;
#195 =( NAMED_UNIT ( * ) PLANE_ANGLE_UNIT ( ) SI_UNIT ( $, .RADIAN. ) );
#196 = COLOUR_RGB ( '',1.000000000000000000, 0.000000000000000000, 0.000000000000000000 ) ;
#197 = SURFACE_STYLE_FILL_AREA ( #292 ) ;
#198 = PRODUCT_CONTEXT ( 'NONE', #106, 'mechanical' ) ;
#199 = ORIENTED_EDGE ( 'NONE', *, *, #284, .F. ) ;
#200 = CARTESIAN_POINT ( 'NONE',  ( -0.3749999999999995559, 1.625000000000000000, 0.000000000000000000 ) ) ;
#201 = AXIS2_PLACEMENT_3D ( 'NONE', #224, #140, #82 ) ;
#202 = CARTESIAN_POINT ( 'NONE',  ( -1.224646799147352714E-16, 4.000000000000000000, 0.000000000000000000 ) ) ;
#203 = DIRECTION ( 'NONE',  ( -0.000000000000000000, -1.000000000000000000, -0.000000000000000000 ) ) ;
#204 = VERTEX_POINT ( 'NONE', #94 ) ;
#205 = VECTOR ( 'NONE', #55, 39.37007874015748143 ) ;
#206 =( NAMED_UNIT ( * ) PLANE_ANGLE_UNIT ( ) SI_UNIT ( $, .RADIAN. ) );
#207 = UNCERTAINTY_MEASURE_WITH_UNIT (LENGTH_MEASURE( 1.000000000000000082E-05 ), #78, 'distance_accuracy_value', 'NONE');
#208 = PLANE ( 'NONE',  #134 ) ;
#209 = MECHANICAL_DESIGN_GEOMETRIC_PRESENTATION_REPRESENTATION (  '', ( #34 ), #12 ) ;
#210 = CARTESIAN_POINT ( 'NONE',  ( 0.000000000000000000, 1.625000000000000000, 0.000000000000000000 ) ) ;
#211 = EDGE_CURVE ( 'NONE', #144, #217, #259, .T. ) ;
#212 = LINE ( 'NONE', #59, #205 ) ;
#213 = COLOUR_RGB ( '',0.7921568627450980005, 0.8196078431372548767, 0.9333333333333333481 ) ;
#214 = SURFACE_STYLE_FILL_AREA ( #60 ) ;
#215 = ORIENTED_EDGE ( 'NONE', *, *, #284, .T. ) ;
#216 = EDGE_CURVE ( 'NONE', #133, #322, #109, .T. ) ;
#217 = VERTEX_POINT ( 'NONE', #234 ) ;
#218 = CARTESIAN_POINT ( 'NONE',  ( -4.592425496802575451E-17, 0.3750000000000000555, 0.000000000000000000 ) ) ;
#219 =( CONVERSION_BASED_UNIT ( 'INCH', #132 ) LENGTH_UNIT ( ) NAMED_UNIT ( #312 ) );
#220 = DIRECTION ( 'NONE',  ( 0.000000000000000000, 0.000000000000000000, -1.000000000000000000 ) ) ;
#221 = EDGE_CURVE ( 'NONE', #337, #54, #130, .T. ) ;
#222 = VERTEX_POINT ( 'NONE', #311 ) ;
#223 = EDGE_CURVE ( 'NONE', #54, #337, #51, .T. ) ;
#224 = CARTESIAN_POINT ( 'NONE',  ( 0.000000000000000000, 0.3750000000000001110, 0.000000000000000000 ) ) ;
#225 = PLANE ( 'NONE',  #153 ) ;
#226 = FACE_OUTER_BOUND ( 'NONE', #13, .T. ) ;
#227 = SURFACE_SIDE_STYLE ('',( #277 ) ) ;
#228 = ORIENTED_EDGE ( 'NONE', *, *, #70, .F. ) ;
#229 = AXIS2_PLACEMENT_3D ( 'NONE', #63, #350, #95 ) ;
#230 = FACE_OUTER_BOUND ( 'NONE', #135, .T. ) ;
#231 = ADVANCED_FACE ( 'NONE', ( #57 ), #208, .F. ) ;
#232 = FILL_AREA_STYLE ('',( #283 ) ) ;
#233 = ORIENTED_EDGE ( 'NONE', *, *, #216, .F. ) ;
#234 = CARTESIAN_POINT ( 'NONE',  ( 0.3749999999999998335, 1.625000000000000000, 4.592425496802572986E-17 ) ) ;
#235 = COLOUR_RGB ( '',1.000000000000000000, 0.000000000000000000, 0.000000000000000000 ) ;
#236 = STYLED_ITEM ( 'NONE', ( #4 ), #323 ) ;
#237 = FILL_AREA_STYLE_COLOUR ( '', #188 ) ;
#238 = FILL_AREA_STYLE_COLOUR ( '', #213 ) ;
#239 = EDGE_CURVE ( 'NONE', #54, #222, #187, .T. ) ;
#240 =( NAMED_UNIT ( * ) PLANE_ANGLE_UNIT ( ) SI_UNIT ( $, .RADIAN. ) );
#241 = PLANE ( 'NONE',  #171 ) ;
#242 = AXIS2_PLACEMENT_3D ( 'NONE', #218, #105, #321 ) ;
#243 = MANIFOLD_SOLID_BREP ( 'Revolve - Cutting Edge', #367 ) ;
#244 = MANIFOLD_SOLID_BREP ( 'Revolve - Tool Body (Straight Shanked)', #27 ) ;
#245 = EDGE_CURVE ( 'NONE', #204, #77, #304, .T. ) ;
#246 = CARTESIAN_POINT ( 'NONE',  ( -4.592425496802575451E-17, 0.3750000000000000555, 0.000000000000000000 ) ) ;
#247 = ORIENTED_EDGE ( 'NONE', *, *, #346, .T. ) ;
#248 = ADVANCED_FACE ( 'NONE', ( #230 ), #225, .F. ) ;
#249 = CARTESIAN_POINT ( 'NONE',  ( 0.000000000000000000, 0.3750000000000001110, 0.000000000000000000 ) ) ;
#250 = DIRECTION ( 'NONE',  ( 0.000000000000000000, 0.000000000000000000, 1.000000000000000000 ) ) ;
#251 = ORIENTED_EDGE ( 'NONE', *, *, #365, .T. ) ;
#252 =( CONVERSION_BASED_UNIT ( 'INCH', #107 ) LENGTH_UNIT ( ) NAMED_UNIT ( #129 ) );
#253 = AXIS2_PLACEMENT_3D ( 'NONE', #98, #288, #8 ) ;
#254 =( GEOMETRIC_REPRESENTATION_CONTEXT ( 3 ) GLOBAL_UNCERTAINTY_ASSIGNED_CONTEXT ( ( #329 ) ) GLOBAL_UNIT_ASSIGNED_CONTEXT ( ( #15, #206, #168 ) ) REPRESENTATION_CONTEXT ( 'NONE', 'WORKASPACE' ) );
#255 = ADVANCED_FACE ( 'NONE', ( #330 ), #300, .T. ) ;
#256 = CARTESIAN_POINT ( 'NONE',  ( -0.3750000000000001110, 4.000000000000000000, 0.000000000000000000 ) ) ;
#257 = ORIENTED_EDGE ( 'NONE', *, *, #96, .T. ) ;
#258 = CARTESIAN_POINT ( 'NONE',  ( 0.000000000000000000, 0.000000000000000000, -0.3749999999999998890 ) ) ;
#259 = CIRCLE ( 'NONE', #369, 0.3749999999999996669 ) ;
#260 = CIRCLE ( 'NONE', #99, 0.3749999999999999445 ) ;
#261 = PRESENTATION_STYLE_ASSIGNMENT (( #310 ) ) ;
#262 = SURFACE_STYLE_USAGE ( .BOTH. , #88 ) ;
#263 = SURFACE_SIDE_STYLE ('',( #191 ) ) ;
#264 = ORIENTED_EDGE ( 'NONE', *, *, #293, .T. ) ;
#265 = CIRCLE ( 'NONE', #39, 0.3749999999999999445 ) ;
#266 = ORIENTED_EDGE ( 'NONE', *, *, #245, .T. ) ;
#267 = MECHANICAL_DESIGN_GEOMETRIC_PRESENTATION_REPRESENTATION (  '', ( #273 ), #303 ) ;
#268 =( NAMED_UNIT ( * ) PLANE_ANGLE_UNIT ( ) SI_UNIT ( $, .RADIAN. ) );
#269 =( NAMED_UNIT ( * ) SI_UNIT ( $, .STERADIAN. ) SOLID_ANGLE_UNIT ( ) );
#270 =( NAMED_UNIT ( * ) PLANE_ANGLE_UNIT ( ) SI_UNIT ( $, .RADIAN. ) );
#271 = PRESENTATION_STYLE_ASSIGNMENT (( #143 ) ) ;
#272 = CARTESIAN_POINT ( 'NONE',  ( 0.000000000000000000, 1.625000000000000000, -0.3749999999999998335 ) ) ;
#273 = STYLED_ITEM ( 'NONE', ( #42 ), #163 ) ;
#274 = CARTESIAN_POINT ( 'NONE',  ( -2.296212748401287726E-17, 0.000000000000000000, 0.000000000000000000 ) ) ;
#275 = DIRECTION ( 'NONE',  ( 0.000000000000000000, 0.000000000000000000, 1.000000000000000000 ) ) ;
#276 = UNCERTAINTY_MEASURE_WITH_UNIT (LENGTH_MEASURE( 1.000000000000000082E-05 ), #157, 'distance_accuracy_value', 'NONE');
#277 = SURFACE_STYLE_FILL_AREA ( #83 ) ;
#278 = VERTEX_POINT ( 'NONE', #62 ) ;
#279 = PRODUCT_DEFINITION ( 'UNKNOWN', '', #35, #113 ) ;
#280 = PRESENTATION_LAYER_ASSIGNMENT (  '', '', ( #236 ) ) ;
#281 =( LENGTH_UNIT ( ) NAMED_UNIT ( * ) SI_UNIT ( $, .METRE. ) );
#282 = SURFACE_SIDE_STYLE ('',( #214 ) ) ;
#283 = FILL_AREA_STYLE_COLOUR ( '', #161 ) ;
#284 = EDGE_CURVE ( 'NONE', #144, #322, #122, .T. ) ;
#285 =( LENGTH_UNIT ( ) NAMED_UNIT ( * ) SI_UNIT ( $, .METRE. ) );
#286 = CYLINDRICAL_SURFACE ( 'NONE', #90, 0.3749999999999998890 ) ;
#287 =( NAMED_UNIT ( * ) PLANE_ANGLE_UNIT ( ) SI_UNIT ( $, .RADIAN. ) );
#288 = DIRECTION ( 'NONE',  ( -0.000000000000000000, -1.000000000000000000, -0.000000000000000000 ) ) ;
#289 = PRESENTATION_STYLE_ASSIGNMENT (( #193 ) ) ;
#290 = CARTESIAN_POINT ( 'NONE',  ( -4.592425496802575451E-17, 0.3750000000000000555, 0.000000000000000000 ) ) ;
#291 = ORIENTED_EDGE ( 'NONE', *, *, #44, .T. ) ;
#292 = FILL_AREA_STYLE ('',( #71 ) ) ;
#293 = EDGE_CURVE ( 'NONE', #50, #278, #356, .T. ) ;
#294 = EDGE_LOOP ( 'NONE', ( #158, #251, #104, #266 ) ) ;
#295 =( LENGTH_UNIT ( ) NAMED_UNIT ( * ) SI_UNIT ( $, .METRE. ) );
#296 =( GEOMETRIC_REPRESENTATION_CONTEXT ( 3 ) GLOBAL_UNCERTAINTY_ASSIGNED_CONTEXT ( ( #276 ) ) GLOBAL_UNIT_ASSIGNED_CONTEXT ( ( #157, #287, #124 ) ) REPRESENTATION_CONTEXT ( 'NONE', 'WORKASPACE' ) );
#297 = DIRECTION ( 'NONE',  ( -1.224646799147353207E-16, 1.000000000000000000, 0.000000000000000000 ) ) ;
#298 = AXIS2_PLACEMENT_3D ( 'NONE', #361, #250, #17 ) ;
#299 = DIRECTION ( 'NONE',  ( 1.000000000000000000, 0.000000000000000000, 0.000000000000000000 ) ) ;
#300 = CYLINDRICAL_SURFACE ( 'NONE', #341, 0.3749999999999998335 ) ;
#301 = DIRECTION ( 'NONE',  ( -0.000000000000000000, -1.000000000000000000, -0.000000000000000000 ) ) ;
#302 =( LENGTH_UNIT ( ) NAMED_UNIT ( * ) SI_UNIT ( $, .METRE. ) );
#303 =( GEOMETRIC_REPRESENTATION_CONTEXT ( 3 ) GLOBAL_UNCERTAINTY_ASSIGNED_CONTEXT ( ( #207 ) ) GLOBAL_UNIT_ASSIGNED_CONTEXT ( ( #78, #195, #10 ) ) REPRESENTATION_CONTEXT ( 'NONE', 'WORKASPACE' ) );
#304 = CIRCLE ( 'NONE', #121, 0.3750000000000000555 ) ;
#305 = DIRECTION ( 'NONE',  ( 1.000000000000000000, 0.000000000000000000, -1.224646799147353207E-16 ) ) ;
#306 =( NAMED_UNIT ( * ) SI_UNIT ( $, .STERADIAN. ) SOLID_ANGLE_UNIT ( ) );
#307 = ORIENTED_EDGE ( 'NONE', *, *, #221, .F. ) ;
#308 = STYLED_ITEM ( 'NONE', ( #271 ), #244 ) ;
#309 =( LENGTH_UNIT ( ) NAMED_UNIT ( * ) SI_UNIT ( $, .METRE. ) );
#310 = SURFACE_STYLE_USAGE ( .BOTH. , #151 ) ;
#311 = CARTESIAN_POINT ( 'NONE',  ( 0.000000000000000000, 0.3750000000000001110, -0.3749999999999999445 ) ) ;
#312 = DIMENSIONAL_EXPONENTS ( 1.000000000000000000, 0.000000000000000000, 0.000000000000000000, 0.000000000000000000, 0.000000000000000000, 0.000000000000000000, 0.000000000000000000 ) ;
#313 = CARTESIAN_POINT ( 'NONE',  ( 0.000000000000000000, 0.3750000000000001110, 0.000000000000000000 ) ) ;
#314 = DIRECTION ( 'NONE',  ( -1.000000000000000000, 0.000000000000000000, 0.000000000000000000 ) ) ;
#315 = PRESENTATION_LAYER_ASSIGNMENT (  '', '', ( #316 ) ) ;
#316 = STYLED_ITEM ( 'NONE', ( #289 ), #174 ) ;
#317 = MECHANICAL_DESIGN_GEOMETRIC_PRESENTATION_REPRESENTATION (  '', ( #236 ), #180 ) ;
#318 = DIRECTION ( 'NONE',  ( 0.000000000000000000, 0.000000000000000000, -1.000000000000000000 ) ) ;
#319 = EDGE_CURVE ( 'NONE', #322, #133, #172, .T. ) ;
#320 = ORIENTED_EDGE ( 'NONE', *, *, #44, .F. ) ;
#321 = DIRECTION ( 'NONE',  ( 1.000000000000000000, 0.000000000000000000, 0.000000000000000000 ) ) ;
#322 = VERTEX_POINT ( 'NONE', #256 ) ;
#323 = ADVANCED_FACE ( 'NONE', ( #89 ), #80, .T. ) ;
#324 = AXIS2_PLACEMENT_3D ( 'NONE', #246, #275, #299 ) ;
#325 = FILL_AREA_STYLE ('',( #43 ) ) ;
#326 =( NAMED_UNIT ( * ) SI_UNIT ( $, .STERADIAN. ) SOLID_ANGLE_UNIT ( ) );
#327 = VECTOR ( 'NONE', #301, 39.37007874015748143 ) ;
#328 = AXIS2_PLACEMENT_3D ( 'NONE', #210, #185, #347 ) ;
#329 = UNCERTAINTY_MEASURE_WITH_UNIT (LENGTH_MEASURE( 1.000000000000000082E-05 ), #15, 'distance_accuracy_value', 'NONE');
#330 = FACE_OUTER_BOUND ( 'NONE', #28, .T. ) ;
#331 = CARTESIAN_POINT ( 'NONE',  ( 4.592425496802572986E-17, 0.000000000000000000, 0.3749999999999998890 ) ) ;
#332 = DIRECTION ( 'NONE',  ( 1.224646799147353207E-16, -0.000000000000000000, 1.000000000000000000 ) ) ;
#333 = CYLINDRICAL_SURFACE ( 'NONE', #178, 0.3749999999999998335 ) ;
#334 = APPLICATION_PROTOCOL_DEFINITION ( 'draft international standard', 'automotive_design', 1998, #106 ) ;
#335 =( GEOMETRIC_REPRESENTATION_CONTEXT ( 3 ) GLOBAL_UNCERTAINTY_ASSIGNED_CONTEXT ( ( #360 ) ) GLOBAL_UNIT_ASSIGNED_CONTEXT ( ( #252, #270, #306 ) ) REPRESENTATION_CONTEXT ( 'NONE', 'WORKASPACE' ) );
#336 = ORIENTED_EDGE ( 'NONE', *, *, #223, .F. ) ;
#337 = VERTEX_POINT ( 'NONE', #154 ) ;
#338 = DIRECTION ( 'NONE',  ( 0.000000000000000000, 1.000000000000000000, 0.000000000000000000 ) ) ;
#339 = DIRECTION ( 'NONE',  ( 0.000000000000000000, 0.000000000000000000, -1.000000000000000000 ) ) ;
#340 = SURFACE_STYLE_FILL_AREA ( #36 ) ;
#341 = AXIS2_PLACEMENT_3D ( 'NONE', #49, #20, #141 ) ;
#342 = DIRECTION ( 'NONE',  ( -1.224646799147353207E-16, 1.000000000000000000, -0.000000000000000000 ) ) ;
#343 = DIRECTION ( 'NONE',  ( -1.000000000000000000, 0.000000000000000000, 0.000000000000000000 ) ) ;
#344 = CARTESIAN_POINT ( 'NONE',  ( 0.000000000000000000, 0.000000000000000000, 0.000000000000000000 ) ) ;
#345 = ADVANCED_BREP_SHAPE_REPRESENTATION ( '12482', ( #243, #244, #298 ), #254 ) ;
#346 = EDGE_CURVE ( 'NONE', #278, #77, #75, .T. ) ;
#347 = DIRECTION ( 'NONE',  ( 0.000000000000000000, 0.000000000000000000, -1.000000000000000000 ) ) ;
#348 =( GEOMETRIC_REPRESENTATION_CONTEXT ( 3 ) GLOBAL_UNCERTAINTY_ASSIGNED_CONTEXT ( ( #23 ) ) GLOBAL_UNIT_ASSIGNED_CONTEXT ( ( #128, #93, #123 ) ) REPRESENTATION_CONTEXT ( 'NONE', 'WORKASPACE' ) );
#349 = ORIENTED_EDGE ( 'NONE', *, *, #319, .F. ) ;
#350 = DIRECTION ( 'NONE',  ( -1.224646799147353207E-16, 1.000000000000000000, -0.000000000000000000 ) ) ;
#351 = ORIENTED_EDGE ( 'NONE', *, *, #96, .F. ) ;
#352 = FACE_OUTER_BOUND ( 'NONE', #26, .T. ) ;
#353 = EDGE_CURVE ( 'NONE', #222, #204, #260, .T. ) ;
#354 =( LENGTH_UNIT ( ) NAMED_UNIT ( * ) SI_UNIT ( $, .METRE. ) );
#355 = CIRCLE ( 'NONE', #229, 0.3749999999999996669 ) ;
#356 = CIRCLE ( 'NONE', #116, 0.3749999999999999445 ) ;
#357 = FACE_OUTER_BOUND ( 'NONE', #38, .T. ) ;
#358 = SHAPE_DEFINITION_REPRESENTATION ( #372, #345 ) ;
#359 = SURFACE_SIDE_STYLE ('',( #197 ) ) ;
#360 = UNCERTAINTY_MEASURE_WITH_UNIT (LENGTH_MEASURE( 1.000000000000000082E-05 ), #252, 'distance_accuracy_value', 'NONE');
#361 = CARTESIAN_POINT ( 'NONE',  ( 0.000000000000000000, 0.000000000000000000, 0.000000000000000000 ) ) ;
#362 = STYLED_ITEM ( 'NONE', ( #261 ), #79 ) ;
#363 = DIRECTION ( 'NONE',  ( -1.000000000000000000, 0.000000000000000000, 0.000000000000000000 ) ) ;
#364 = UNCERTAINTY_MEASURE_WITH_UNIT (LENGTH_MEASURE( 1.000000000000000082E-05 ), #219, 'distance_accuracy_value', 'NONE');
#365 = EDGE_CURVE ( 'NONE', #278, #222, #2, .T. ) ;
#366 = CARTESIAN_POINT ( 'NONE',  ( 0.000000000000000000, 0.3750000000000001110, 0.000000000000000000 ) ) ;
#367 = CLOSED_SHELL ( 'NONE', ( #163, #108, #174, #79, #323 ) ) ;
#368 = ORIENTED_EDGE ( 'NONE', *, *, #92, .T. ) ;
#369 = AXIS2_PLACEMENT_3D ( 'NONE', #64, #183, #314 ) ;
#370 = SURFACE_STYLE_FILL_AREA ( #232 ) ;
#371 = ORIENTED_EDGE ( 'NONE', *, *, #245, .F. ) ;
#372 = PRODUCT_DEFINITION_SHAPE ( 'NONE', 'NONE',  #279 ) ;
#373 = DIRECTION ( 'NONE',  ( -0.000000000000000000, -1.000000000000000000, -0.000000000000000000 ) ) ;
ENDSEC;
END-ISO-10303-21;
