ISO-10303-21;
HEADER;
FILE_DESCRIPTION (( 'STEP AP214' ),
    '1' );
FILE_NAME ('Micro_MMBM-020-20.STEP',
    '2021-09-03T16:31:03',
    ( '' ),
    ( '' ),
    'SwSTEP 2.0',
    'SolidWorks 2020',
    '' );
FILE_SCHEMA (( 'AUTOMOTIVE_DESIGN' ));
ENDSEC;

DATA;
#1 =( NAMED_UNIT ( * ) PLANE_ANGLE_UNIT ( ) SI_UNIT ( $, .RADIAN. ) );
#2 = EDGE_CURVE ( 'NONE', #68, #133, #221, .T. ) ;
#3 = CONICAL_SURFACE ( 'NONE', #141, 0.1031100000000002570, 0.7853981633974318477 ) ;
#4 = DIRECTION ( 'NONE',  ( -0.0000000000000000000, -0.0000000000000000000, -1.000000000000000000 ) ) ;
#5 = ADVANCED_FACE ( 'NONE', ( #138 ), #345, .T. ) ;
#6 = FACE_OUTER_BOUND ( 'NONE', #42, .T. ) ;
#7 = LINE ( 'NONE', #226, #54 ) ;
#8 = AXIS2_PLACEMENT_3D ( 'NONE', #122, #92, #329 ) ;
#9 = ORIENTED_EDGE ( 'NONE', *, *, #332, .F. ) ;
#10 = EDGE_CURVE ( 'NONE', #276, #342, #371, .T. ) ;
#11 = CARTESIAN_POINT ( 'NONE',  ( 0.0000000000000000000, 0.0000000000000000000, 0.08988159042539359267 ) ) ;
#12 = ORIENTED_EDGE ( 'NONE', *, *, #50, .T. ) ;
#13 = EDGE_CURVE ( 'NONE', #106, #68, #23, .T. ) ;
#14 = ORIENTED_EDGE ( 'NONE', *, *, #50, .F. ) ;
#15 = DIRECTION ( 'NONE',  ( -0.0000000000000000000, -0.0000000000000000000, -1.000000000000000000 ) ) ;
#16 = ORIENTED_EDGE ( 'NONE', *, *, #204, .T. ) ;
#17 = PRODUCT_DEFINITION_FORMATION_WITH_SPECIFIED_SOURCE ( 'ANY', '', #365, .NOT_KNOWN. ) ;
#18 = VECTOR ( 'NONE', #116, 39.37007874015748143 ) ;
#19 = VERTEX_POINT ( 'NONE', #21 ) ;
#20 = PRODUCT_DEFINITION_SHAPE ( 'NONE', 'NONE',  #227 ) ;
#21 = CARTESIAN_POINT ( 'NONE',  ( -0.03936606300000000669, 0.0000000000000000000, 0.07874000000000000443 ) ) ;
#22 = DIRECTION ( 'NONE',  ( 1.000000000000000000, 0.0000000000000000000, 0.0000000000000000000 ) ) ;
#23 = LINE ( 'NONE', #317, #217 ) ;
#24 = EDGE_CURVE ( 'NONE', #48, #106, #53, .T. ) ;
#25 = DIRECTION ( 'NONE',  ( 0.7071067811865358044, 8.659560562354788645E-17, -0.7071067811865590080 ) ) ;
#26 =( LENGTH_UNIT ( ) NAMED_UNIT ( * ) SI_UNIT ( $, .METRE. ) );
#27 = EDGE_LOOP ( 'NONE', ( #243, #125, #128, #9 ) ) ;
#28 = EDGE_CURVE ( 'NONE', #106, #48, #64, .T. ) ;
#29 = DIRECTION ( 'NONE',  ( 0.0000000000000000000, 0.0000000000000000000, 1.000000000000000000 ) ) ;
#30 = MECHANICAL_DESIGN_GEOMETRIC_PRESENTATION_REPRESENTATION (  '', ( #277 ), #253 ) ;
#31 = EDGE_LOOP ( 'NONE', ( #185, #75 ) ) ;
#32 = CARTESIAN_POINT ( 'NONE',  ( 0.0000000000000000000, 0.0000000000000000000, 2.244094000000000033 ) ) ;
#33 = ADVANCED_BREP_SHAPE_REPRESENTATION ( 'Micro_MMBM-020-20', ( #205, #193 ), #186 ) ;
#34 = CYLINDRICAL_SURFACE ( 'NONE', #291, 0.03936606300000000669 ) ;
#35 = AXIS2_PLACEMENT_3D ( 'NONE', #263, #51, #294 ) ;
#36 = DIRECTION ( 'NONE',  ( 0.0000000000000000000, 0.0000000000000000000, -1.000000000000000000 ) ) ;
#37 = FILL_AREA_STYLE ('',( #298 ) ) ;
#38 = EDGE_CURVE ( 'NONE', #314, #19, #305, .T. ) ;
#39 = LINE ( 'NONE', #334, #200 ) ;
#40 = ORIENTED_EDGE ( 'NONE', *, *, #2, .T. ) ;
#41 = LINE ( 'NONE', #102, #95 ) ;
#42 = EDGE_LOOP ( 'NONE', ( #370, #210, #358, #237 ) ) ;
#43 =( CONVERSION_BASED_UNIT ( 'INCH', #239 ) LENGTH_UNIT ( ) NAMED_UNIT ( #238 ) );
#44 = ORIENTED_EDGE ( 'NONE', *, *, #262, .T. ) ;
#45 = FACE_OUTER_BOUND ( 'NONE', #364, .T. ) ;
#46 = ORIENTED_EDGE ( 'NONE', *, *, #246, .T. ) ;
#47 = DIRECTION ( 'NONE',  ( -1.000000000000000000, 0.0000000000000000000, 0.0000000000000000000 ) ) ;
#48 = VERTEX_POINT ( 'NONE', #379 ) ;
#49 = VERTEX_POINT ( 'NONE', #191 ) ;
#50 = EDGE_CURVE ( 'NONE', #19, #314, #135, .T. ) ;
#51 = DIRECTION ( 'NONE',  ( 0.0000000000000000000, 0.0000000000000000000, 1.000000000000000000 ) ) ;
#52 = CYLINDRICAL_SURFACE ( 'NONE', #234, 0.03936606300000000669 ) ;
#53 = CIRCLE ( 'NONE', #35, 0.1031100000000002570 ) ;
#54 = VECTOR ( 'NONE', #349, 39.37007874015748143 ) ;
#55 =( NAMED_UNIT ( * ) SI_UNIT ( $, .STERADIAN. ) SOLID_ANGLE_UNIT ( ) );
#56 = FACE_OUTER_BOUND ( 'NONE', #31, .T. ) ;
#57 = DIRECTION ( 'NONE',  ( -0.0000000000000000000, -0.0000000000000000000, -1.000000000000000000 ) ) ;
#58 = CARTESIAN_POINT ( 'NONE',  ( 0.0000000000000000000, 0.0000000000000000000, 0.0000000000000000000 ) ) ;
#59 = AXIS2_PLACEMENT_3D ( 'NONE', #79, #319, #187 ) ;
#60 = CONICAL_SURFACE ( 'NONE', #119, 0.03936606300000000669, 0.1745329251994332254 ) ;
#61 = DIRECTION ( 'NONE',  ( -1.000000000000000000, 0.0000000000000000000, 0.0000000000000000000 ) ) ;
#62 = LENGTH_MEASURE_WITH_UNIT ( LENGTH_MEASURE( 0.02539999999999999897 ), #232 );
#63 = DIRECTION ( 'NONE',  ( -0.0000000000000000000, -0.0000000000000000000, -1.000000000000000000 ) ) ;
#64 = CIRCLE ( 'NONE', #100, 0.1031100000000002570 ) ;
#65 = CIRCLE ( 'NONE', #228, 0.03740150000000001113 ) ;
#66 = LINE ( 'NONE', #175, #245 ) ;
#67 = CYLINDRICAL_SURFACE ( 'NONE', #347, 0.1181100000000000066 ) ;
#68 = VERTEX_POINT ( 'NONE', #252 ) ;
#69 = DIRECTION ( 'NONE',  ( 1.000000000000000000, 0.0000000000000000000, 0.0000000000000000000 ) ) ;
#70 = ORIENTED_EDGE ( 'NONE', *, *, #115, .T. ) ;
#71 = PRODUCT_RELATED_PRODUCT_CATEGORY ( 'part', '', ( #365 ) ) ;
#72 = CARTESIAN_POINT ( 'NONE',  ( 0.0000000000000000000, 0.0000000000000000000, 2.244094000000000033 ) ) ;
#73 = ORIENTED_EDGE ( 'NONE', *, *, #250, .F. ) ;
#74 = FACE_BOUND ( 'NONE', #161, .T. ) ;
#75 = ORIENTED_EDGE ( 'NONE', *, *, #28, .T. ) ;
#76 = DIRECTION ( 'NONE',  ( -0.0000000000000000000, -0.0000000000000000000, -1.000000000000000000 ) ) ;
#77 = ORIENTED_EDGE ( 'NONE', *, *, #332, .T. ) ;
#78 = CIRCLE ( 'NONE', #192, 0.03936606300000000669 ) ;
#79 = CARTESIAN_POINT ( 'NONE',  ( 0.0000000000000000000, 0.0000000000000000000, 0.07874000000000000443 ) ) ;
#80 = CARTESIAN_POINT ( 'NONE',  ( 0.0000000000000000000, 0.0000000000000000000, 0.7874019999999998243 ) ) ;
#81 = SURFACE_SIDE_STYLE ('',( #223 ) ) ;
#82 = CARTESIAN_POINT ( 'NONE',  ( 0.1181100000000000066, 1.446430334472939084E-17, 2.244094000000000033 ) ) ;
#83 =( CONVERSION_BASED_UNIT ( 'INCH', #219 ) LENGTH_UNIT ( ) NAMED_UNIT ( #93 ) );
#84 = CARTESIAN_POINT ( 'NONE',  ( 0.0000000000000000000, 0.0000000000000000000, 2.244094000000000033 ) ) ;
#85 = AXIS2_PLACEMENT_3D ( 'NONE', #112, #220, #344 ) ;
#86 = ORIENTED_EDGE ( 'NONE', *, *, #312, .T. ) ;
#87 = ADVANCED_FACE ( 'NONE', ( #316 ), #113, .T. ) ;
#88 = CARTESIAN_POINT ( 'NONE',  ( 0.0000000000000000000, 0.0000000000000000000, 0.0000000000000000000 ) ) ;
#89 = EDGE_CURVE ( 'NONE', #286, #133, #295, .T. ) ;
#90 = CYLINDRICAL_SURFACE ( 'NONE', #140, 0.03740150000000005276 ) ;
#91 = CARTESIAN_POINT ( 'NONE',  ( 0.0000000000000000000, 0.0000000000000000000, 0.0000000000000000000 ) ) ;
#92 = DIRECTION ( 'NONE',  ( -0.0000000000000000000, -0.0000000000000000000, -1.000000000000000000 ) ) ;
#93 = DIMENSIONAL_EXPONENTS ( 1.000000000000000000, 0.0000000000000000000, 0.0000000000000000000, 0.0000000000000000000, 0.0000000000000000000, 0.0000000000000000000, 0.0000000000000000000 ) ;
#94 = MECHANICAL_DESIGN_GEOMETRIC_PRESENTATION_REPRESENTATION (  '', ( #328 ), #261 ) ;
#95 = VECTOR ( 'NONE', #282, 39.37007874015748854 ) ;
#96 = CARTESIAN_POINT ( 'NONE',  ( 0.0000000000000000000, 0.0000000000000000000, 0.07874000000000000443 ) ) ;
#97 = EDGE_LOOP ( 'NONE', ( #46, #104 ) ) ;
#98 = CARTESIAN_POINT ( 'NONE',  ( -0.03740150000000009439, 0.0000000000000000000, 0.7874019999999999353 ) ) ;
#99 = ORIENTED_EDGE ( 'NONE', *, *, #231, .T. ) ;
#100 = AXIS2_PLACEMENT_3D ( 'NONE', #343, #29, #225 ) ;
#101 = ADVANCED_FACE ( 'NONE', ( #373 ), #52, .T. ) ;
#102 = CARTESIAN_POINT ( 'NONE',  ( -0.1031100000000002570, 0.0000000000000000000, 2.244094000000000033 ) ) ;
#103 = CIRCLE ( 'NONE', #378, 0.1181100000000000066 ) ;
#104 = ORIENTED_EDGE ( 'NONE', *, *, #169, .T. ) ;
#105 = CARTESIAN_POINT ( 'NONE',  ( 0.0000000000000000000, 0.0000000000000000000, 2.229093999999999465 ) ) ;
#106 = VERTEX_POINT ( 'NONE', #137 ) ;
#107 = DIRECTION ( 'NONE',  ( 0.0000000000000000000, 0.0000000000000000000, 1.000000000000000000 ) ) ;
#108 = ORIENTED_EDGE ( 'NONE', *, *, #353, .F. ) ;
#109 = FILL_AREA_STYLE ('',( #257 ) ) ;
#110 = AXIS2_PLACEMENT_3D ( 'NONE', #293, #259, #377 ) ;
#111 = CIRCLE ( 'NONE', #159, 0.03936606300000000669 ) ;
#112 = CARTESIAN_POINT ( 'NONE',  ( 0.0000000000000000000, 0.0000000000000000000, 0.0000000000000000000 ) ) ;
#113 = CYLINDRICAL_SURFACE ( 'NONE', #85, 0.03740150000000005276 ) ;
#114 = LINE ( 'NONE', #222, #268 ) ;
#115 = EDGE_CURVE ( 'NONE', #335, #19, #114, .T. ) ;
#116 = DIRECTION ( 'NONE',  ( -0.0000000000000000000, -0.0000000000000000000, -1.000000000000000000 ) ) ;
#117 = ORIENTED_EDGE ( 'NONE', *, *, #115, .F. ) ;
#118 = DIRECTION ( 'NONE',  ( 0.1736481776669306087, 2.126576849575774688E-17, -0.9848077530122080203 ) ) ;
#119 = AXIS2_PLACEMENT_3D ( 'NONE', #336, #15, #313 ) ;
#120 = UNCERTAINTY_MEASURE_WITH_UNIT (LENGTH_MEASURE( 1.000000000000000082E-05 ), #83, 'distance_accuracy_value', 'NONE');
#121 = DIRECTION ( 'NONE',  ( -0.0000000000000000000, -0.0000000000000000000, -1.000000000000000000 ) ) ;
#122 = CARTESIAN_POINT ( 'NONE',  ( 0.0000000000000000000, 0.0000000000000000000, 0.08988159042539359267 ) ) ;
#123 = DIRECTION ( 'NONE',  ( -1.000000000000000000, 0.0000000000000000000, 0.0000000000000000000 ) ) ;
#124 = DIRECTION ( 'NONE',  ( -0.0000000000000000000, -0.0000000000000000000, -1.000000000000000000 ) ) ;
#125 = ORIENTED_EDGE ( 'NONE', *, *, #281, .T. ) ;
#126 = APPLICATION_CONTEXT ( 'automotive_design' ) ;
#127 = FACE_OUTER_BOUND ( 'NONE', #153, .T. ) ;
#128 = ORIENTED_EDGE ( 'NONE', *, *, #235, .T. ) ;
#129 = DIRECTION ( 'NONE',  ( -0.0000000000000000000, -0.0000000000000000000, -1.000000000000000000 ) ) ;
#130 = AXIS2_PLACEMENT_3D ( 'NONE', #247, #149, #278 ) ;
#131 = ORIENTED_EDGE ( 'NONE', *, *, #10, .F. ) ;
#132 = EDGE_LOOP ( 'NONE', ( #311, #99, #70, #323 ) ) ;
#133 = VERTEX_POINT ( 'NONE', #321 ) ;
#134 =( NAMED_UNIT ( * ) PLANE_ANGLE_UNIT ( ) SI_UNIT ( $, .RADIAN. ) );
#135 = CIRCLE ( 'NONE', #59, 0.03936606300000000669 ) ;
#136 = DIRECTION ( 'NONE',  ( -0.0000000000000000000, -0.0000000000000000000, -1.000000000000000000 ) ) ;
#137 = CARTESIAN_POINT ( 'NONE',  ( 0.1031100000000002570, 1.354581824536888722E-17, 2.244094000000000033 ) ) ;
#138 = FACE_OUTER_BOUND ( 'NONE', #27, .T. ) ;
#139 = CARTESIAN_POINT ( 'NONE',  ( 0.0000000000000000000, 0.0000000000000000000, 0.07874000000000000443 ) ) ;
#140 = AXIS2_PLACEMENT_3D ( 'NONE', #91, #4, #61 ) ;
#141 = AXIS2_PLACEMENT_3D ( 'NONE', #72, #304, #152 ) ;
#142 = DIRECTION ( 'NONE',  ( -1.000000000000000000, 0.0000000000000000000, 0.0000000000000000000 ) ) ;
#143 = ADVANCED_FACE ( 'NONE', ( #56 ), #167, .T. ) ;
#144 = DIRECTION ( 'NONE',  ( -1.000000000000000000, 0.0000000000000000000, 0.0000000000000000000 ) ) ;
#145 = AXIS2_PLACEMENT_3D ( 'NONE', #139, #136, #163 ) ;
#146 = PRESENTATION_LAYER_ASSIGNMENT (  '', '', ( #277 ) ) ;
#147 = CARTESIAN_POINT ( 'NONE',  ( 0.03740150000000001113, 4.700657515314640450E-18, 0.08988159042539359267 ) ) ;
#148 = DIRECTION ( 'NONE',  ( -0.0000000000000000000, -0.0000000000000000000, -1.000000000000000000 ) ) ;
#149 = DIRECTION ( 'NONE',  ( 0.0000000000000000000, 0.0000000000000000000, -1.000000000000000000 ) ) ;
#150 = ORIENTED_EDGE ( 'NONE', *, *, #359, .T. ) ;
#151 = CIRCLE ( 'NONE', #8, 0.03740150000000001113 ) ;
#152 = DIRECTION ( 'NONE',  ( -1.000000000000000000, 0.0000000000000000000, 0.0000000000000000000 ) ) ;
#153 = EDGE_LOOP ( 'NONE', ( #348, #216, #44, #368 ) ) ;
#154 = ADVANCED_FACE ( 'NONE', ( #325 ), #284, .T. ) ;
#155 = ORIENTED_EDGE ( 'NONE', *, *, #312, .F. ) ;
#156 = CARTESIAN_POINT ( 'NONE',  ( 0.0000000000000000000, 0.0000000000000000000, 0.7874019999999998243 ) ) ;
#157 = VERTEX_POINT ( 'NONE', #173 ) ;
#158 = ADVANCED_FACE ( 'NONE', ( #203 ), #34, .T. ) ;
#159 = AXIS2_PLACEMENT_3D ( 'NONE', #350, #148, #271 ) ;
#160 = CARTESIAN_POINT ( 'NONE',  ( 0.0000000000000000000, 0.0000000000000000000, 2.244094000000000033 ) ) ;
#161 = EDGE_LOOP ( 'NONE', ( #181, #131 ) ) ;
#162 = ORIENTED_EDGE ( 'NONE', *, *, #235, .F. ) ;
#163 = DIRECTION ( 'NONE',  ( -1.000000000000000000, 0.0000000000000000000, 0.0000000000000000000 ) ) ;
#164 = SHAPE_DEFINITION_REPRESENTATION ( #20, #33 ) ;
#165 = CARTESIAN_POINT ( 'NONE',  ( 0.0000000000000000000, 0.0000000000000000000, 0.0000000000000000000 ) ) ;
#166 = EDGE_CURVE ( 'NONE', #342, #335, #300, .T. ) ;
#167 = PLANE ( 'NONE',  #110 ) ;
#168 = DIRECTION ( 'NONE',  ( -0.0000000000000000000, -0.0000000000000000000, -1.000000000000000000 ) ) ;
#169 = EDGE_CURVE ( 'NONE', #157, #190, #78, .T. ) ;
#170 = SURFACE_STYLE_USAGE ( .BOTH. , #230 ) ;
#171 = CARTESIAN_POINT ( 'NONE',  ( 0.03936606300000000669, 4.820952304798306567E-18, 0.07874000000000000443 ) ) ;
#172 = PRODUCT_DEFINITION_CONTEXT ( 'detailed design', #126, 'design' ) ;
#173 = CARTESIAN_POINT ( 'NONE',  ( 0.03936606300000000669, 4.820952304798306567E-18, 0.0000000000000000000 ) ) ;
#174 = PRESENTATION_STYLE_ASSIGNMENT (( #170 ) ) ;
#175 = CARTESIAN_POINT ( 'NONE',  ( -0.1181100000000000066, 0.0000000000000000000, 2.244094000000000033 ) ) ;
#176 = LINE ( 'NONE', #308, #218 ) ;
#177 = ORIENTED_EDGE ( 'NONE', *, *, #359, .F. ) ;
#178 = DIRECTION ( 'NONE',  ( -1.000000000000000000, 0.0000000000000000000, 0.0000000000000000000 ) ) ;
#179 = ORIENTED_EDGE ( 'NONE', *, *, #353, .T. ) ;
#180 = DIRECTION ( 'NONE',  ( -0.0000000000000000000, -0.0000000000000000000, -1.000000000000000000 ) ) ;
#181 = ORIENTED_EDGE ( 'NONE', *, *, #229, .F. ) ;
#182 = FACE_OUTER_BOUND ( 'NONE', #213, .T. ) ;
#183 = ORIENTED_EDGE ( 'NONE', *, *, #28, .F. ) ;
#184 = DIRECTION ( 'NONE',  ( -0.0000000000000000000, 0.0000000000000000000, -1.000000000000000000 ) ) ;
#185 = ORIENTED_EDGE ( 'NONE', *, *, #24, .T. ) ;
#186 =( GEOMETRIC_REPRESENTATION_CONTEXT ( 3 ) GLOBAL_UNCERTAINTY_ASSIGNED_CONTEXT ( ( #326 ) ) GLOBAL_UNIT_ASSIGNED_CONTEXT ( ( #43, #134, #249 ) ) REPRESENTATION_CONTEXT ( 'NONE', 'WORKASPACE' ) );
#187 = DIRECTION ( 'NONE',  ( -1.000000000000000000, 0.0000000000000000000, 0.0000000000000000000 ) ) ;
#188 = PRODUCT_CONTEXT ( 'NONE', #189, 'mechanical' ) ;
#189 = APPLICATION_CONTEXT ( 'automotive_design' ) ;
#190 = VERTEX_POINT ( 'NONE', #202 ) ;
#191 = CARTESIAN_POINT ( 'NONE',  ( -0.1181100000000000066, 0.0000000000000000000, 2.229093999999999465 ) ) ;
#192 = AXIS2_PLACEMENT_3D ( 'NONE', #58, #299, #144 ) ;
#193 = AXIS2_PLACEMENT_3D ( 'NONE', #318, #107, #22 ) ;
#194 = DIRECTION ( 'NONE',  ( -0.1736481776669306087, 0.0000000000000000000, -0.9848077530122080203 ) ) ;
#195 = APPLICATION_PROTOCOL_DEFINITION ( 'draft international standard', 'automotive_design', 1998, #126 ) ;
#196 = CARTESIAN_POINT ( 'NONE',  ( 0.0000000000000000000, 0.0000000000000000000, 0.7874019999999999353 ) ) ;
#197 = DIRECTION ( 'NONE',  ( -1.000000000000000000, 0.0000000000000000000, 0.0000000000000000000 ) ) ;
#198 = ADVANCED_FACE ( 'NONE', ( #6 ), #90, .T. ) ;
#199 = SURFACE_STYLE_FILL_AREA ( #37 ) ;
#200 = VECTOR ( 'NONE', #129, 39.37007874015748143 ) ;
#201 = CLOSED_SHELL ( 'NONE', ( #101, #87, #256, #154, #324, #5, #143, #322, #290, #374, #198, #158, #266 ) ) ;
#202 = CARTESIAN_POINT ( 'NONE',  ( -0.03936606300000000669, 0.0000000000000000000, 0.0000000000000000000 ) ) ;
#203 = FACE_OUTER_BOUND ( 'NONE', #251, .T. ) ;
#204 = EDGE_CURVE ( 'NONE', #208, #314, #327, .T. ) ;
#205 = MANIFOLD_SOLID_BREP ( 'Cut-Revolve1', #201 ) ;
#206 = CARTESIAN_POINT ( 'NONE',  ( -0.03740150000000005276, 0.0000000000000000000, 0.0000000000000000000 ) ) ;
#207 = DIRECTION ( 'NONE',  ( -0.0000000000000000000, -0.0000000000000000000, -1.000000000000000000 ) ) ;
#208 = VERTEX_POINT ( 'NONE', #147 ) ;
#209 = CARTESIAN_POINT ( 'NONE',  ( 0.03740150000000009439, 0.0000000000000000000, 0.7874019999999999353 ) ) ;
#210 = ORIENTED_EDGE ( 'NONE', *, *, #10, .T. ) ;
#211 = CIRCLE ( 'NONE', #372, 0.03740150000000009439 ) ;
#212 = PLANE ( 'NONE',  #269 ) ;
#213 = EDGE_LOOP ( 'NONE', ( #179, #16, #14, #117 ) ) ;
#214 = CARTESIAN_POINT ( 'NONE',  ( 0.03936606300000000669, 4.820952304798306567E-18, 0.07874000000000000443 ) ) ;
#215 = ORIENTED_EDGE ( 'NONE', *, *, #229, .T. ) ;
#216 = ORIENTED_EDGE ( 'NONE', *, *, #24, .F. ) ;
#217 = VECTOR ( 'NONE', #25, 39.37007874015748854 ) ;
#218 = VECTOR ( 'NONE', #124, 39.37007874015748143 ) ;
#219 = LENGTH_MEASURE_WITH_UNIT ( LENGTH_MEASURE( 0.02539999999999999897 ), #26 );
#220 = DIRECTION ( 'NONE',  ( -0.0000000000000000000, -0.0000000000000000000, -1.000000000000000000 ) ) ;
#221 = LINE ( 'NONE', #82, #18 ) ;
#222 = CARTESIAN_POINT ( 'NONE',  ( -0.03936606300000000669, 0.0000000000000000000, 0.07874000000000000443 ) ) ;
#223 = SURFACE_STYLE_FILL_AREA ( #109 ) ;
#224 = VECTOR ( 'NONE', #118, 39.37007874015748143 ) ;
#225 = DIRECTION ( 'NONE',  ( 1.000000000000000000, 0.0000000000000000000, 0.0000000000000000000 ) ) ;
#226 = CARTESIAN_POINT ( 'NONE',  ( 0.03936606300000000669, 4.820952304798306567E-18, 0.0000000000000000000 ) ) ;
#227 = PRODUCT_DEFINITION ( 'UNKNOWN', '', #17, #172 ) ;
#228 = AXIS2_PLACEMENT_3D ( 'NONE', #11, #76, #233 ) ;
#229 = EDGE_CURVE ( 'NONE', #342, #276, #211, .T. ) ;
#230 = SURFACE_SIDE_STYLE ('',( #199 ) ) ;
#231 = EDGE_CURVE ( 'NONE', #208, #335, #151, .T. ) ;
#232 =( LENGTH_UNIT ( ) NAMED_UNIT ( * ) SI_UNIT ( $, .METRE. ) );
#233 = DIRECTION ( 'NONE',  ( -1.000000000000000000, 0.0000000000000000000, 0.0000000000000000000 ) ) ;
#234 = AXIS2_PLACEMENT_3D ( 'NONE', #165, #375, #292 ) ;
#235 = EDGE_CURVE ( 'NONE', #49, #286, #66, .T. ) ;
#236 =( LENGTH_UNIT ( ) NAMED_UNIT ( * ) SI_UNIT ( $, .METRE. ) );
#237 = ORIENTED_EDGE ( 'NONE', *, *, #231, .F. ) ;
#238 = DIMENSIONAL_EXPONENTS ( 1.000000000000000000, 0.0000000000000000000, 0.0000000000000000000, 0.0000000000000000000, 0.0000000000000000000, 0.0000000000000000000, 0.0000000000000000000 ) ;
#239 = LENGTH_MEASURE_WITH_UNIT ( LENGTH_MEASURE( 0.02539999999999999897 ), #236 );
#240 = ORIENTED_EDGE ( 'NONE', *, *, #246, .F. ) ;
#241 = UNCERTAINTY_MEASURE_WITH_UNIT (LENGTH_MEASURE( 1.000000000000000082E-05 ), #264, 'distance_accuracy_value', 'NONE');
#242 = DIRECTION ( 'NONE',  ( -0.0000000000000000000, -0.0000000000000000000, -1.000000000000000000 ) ) ;
#243 = ORIENTED_EDGE ( 'NONE', *, *, #2, .F. ) ;
#244 = AXIS2_PLACEMENT_3D ( 'NONE', #84, #57, #287 ) ;
#245 = VECTOR ( 'NONE', #301, 39.37007874015748143 ) ;
#246 = EDGE_CURVE ( 'NONE', #190, #157, #111, .T. ) ;
#247 = CARTESIAN_POINT ( 'NONE',  ( 0.0000000000000000000, 0.0000000000000000000, 2.229093999999999465 ) ) ;
#248 = ORIENTED_EDGE ( 'NONE', *, *, #166, .F. ) ;
#249 =( NAMED_UNIT ( * ) SI_UNIT ( $, .STERADIAN. ) SOLID_ANGLE_UNIT ( ) );
#250 = EDGE_CURVE ( 'NONE', #314, #157, #7, .T. ) ;
#251 = EDGE_LOOP ( 'NONE', ( #73, #296, #150, #280 ) ) ;
#252 = CARTESIAN_POINT ( 'NONE',  ( 0.1181100000000000066, 1.446430334472939084E-17, 2.229093999999999465 ) ) ;
#253 =( GEOMETRIC_REPRESENTATION_CONTEXT ( 3 ) GLOBAL_UNCERTAINTY_ASSIGNED_CONTEXT ( ( #120 ) ) GLOBAL_UNIT_ASSIGNED_CONTEXT ( ( #83, #288, #55 ) ) REPRESENTATION_CONTEXT ( 'NONE', 'WORKASPACE' ) );
#254 = PRESENTATION_STYLE_ASSIGNMENT (( #376 ) ) ;
#255 = DIRECTION ( 'NONE',  ( -1.000000000000000000, 0.0000000000000000000, 0.0000000000000000000 ) ) ;
#256 = ADVANCED_FACE ( 'NONE', ( #182 ), #60, .T. ) ;
#257 = FILL_AREA_STYLE_COLOUR ( '', #320 ) ;
#258 = ORIENTED_EDGE ( 'NONE', *, *, #13, .T. ) ;
#259 = DIRECTION ( 'NONE',  ( 0.0000000000000000000, 0.0000000000000000000, 1.000000000000000000 ) ) ;
#260 = AXIS2_PLACEMENT_3D ( 'NONE', #196, #168, #346 ) ;
#261 =( GEOMETRIC_REPRESENTATION_CONTEXT ( 3 ) GLOBAL_UNCERTAINTY_ASSIGNED_CONTEXT ( ( #241 ) ) GLOBAL_UNIT_ASSIGNED_CONTEXT ( ( #264, #1, #267 ) ) REPRESENTATION_CONTEXT ( 'NONE', 'WORKASPACE' ) );
#262 = EDGE_CURVE ( 'NONE', #48, #49, #41, .T. ) ;
#263 = CARTESIAN_POINT ( 'NONE',  ( 0.0000000000000000000, 0.0000000000000000000, 2.244094000000000033 ) ) ;
#264 =( CONVERSION_BASED_UNIT ( 'INCH', #62 ) LENGTH_UNIT ( ) NAMED_UNIT ( #272 ) );
#265 = DIRECTION ( 'NONE',  ( -0.0000000000000000000, -0.0000000000000000000, -1.000000000000000000 ) ) ;
#266 = ADVANCED_FACE ( 'NONE', ( #360 ), #212, .F. ) ;
#267 =( NAMED_UNIT ( * ) SI_UNIT ( $, .STERADIAN. ) SOLID_ANGLE_UNIT ( ) );
#268 = VECTOR ( 'NONE', #194, 39.37007874015748143 ) ;
#269 = AXIS2_PLACEMENT_3D ( 'NONE', #339, #362, #341 ) ;
#270 = CARTESIAN_POINT ( 'NONE',  ( 0.0000000000000000000, 0.0000000000000000000, 0.7874019999999999353 ) ) ;
#271 = DIRECTION ( 'NONE',  ( -1.000000000000000000, 0.0000000000000000000, 0.0000000000000000000 ) ) ;
#272 = DIMENSIONAL_EXPONENTS ( 1.000000000000000000, 0.0000000000000000000, 0.0000000000000000000, 0.0000000000000000000, 0.0000000000000000000, 0.0000000000000000000, 0.0000000000000000000 ) ;
#273 = DIRECTION ( 'NONE',  ( -1.000000000000000000, 0.0000000000000000000, 0.0000000000000000000 ) ) ;
#274 = EDGE_CURVE ( 'NONE', #276, #208, #39, .T. ) ;
#275 = VECTOR ( 'NONE', #63, 39.37007874015748143 ) ;
#276 = VERTEX_POINT ( 'NONE', #357 ) ;
#277 = STYLED_ITEM ( 'NONE', ( #254 ), #33 ) ;
#278 = DIRECTION ( 'NONE',  ( 1.000000000000000000, 0.0000000000000000000, 0.0000000000000000000 ) ) ;
#279 = ORIENTED_EDGE ( 'NONE', *, *, #89, .F. ) ;
#280 = ORIENTED_EDGE ( 'NONE', *, *, #169, .F. ) ;
#281 = EDGE_CURVE ( 'NONE', #68, #49, #297, .T. ) ;
#282 = DIRECTION ( 'NONE',  ( -0.7071067811865358044, 0.0000000000000000000, -0.7071067811865590080 ) ) ;
#283 = EDGE_LOOP ( 'NONE', ( #306, #77 ) ) ;
#284 = CONICAL_SURFACE ( 'NONE', #363, 0.1031100000000002570, 0.7853981633974318477 ) ;
#285 = DIRECTION ( 'NONE',  ( 0.0000000000000000000, 0.0000000000000000000, -1.000000000000000000 ) ) ;
#286 = VERTEX_POINT ( 'NONE', #366 ) ;
#287 = DIRECTION ( 'NONE',  ( -1.000000000000000000, 0.0000000000000000000, 0.0000000000000000000 ) ) ;
#288 =( NAMED_UNIT ( * ) PLANE_ANGLE_UNIT ( ) SI_UNIT ( $, .RADIAN. ) );
#289 = DIRECTION ( 'NONE',  ( -0.0000000000000000000, -0.0000000000000000000, -1.000000000000000000 ) ) ;
#290 = ADVANCED_FACE ( 'NONE', ( #74, #302 ), #310, .T. ) ;
#291 = AXIS2_PLACEMENT_3D ( 'NONE', #88, #121, #197 ) ;
#292 = DIRECTION ( 'NONE',  ( -1.000000000000000000, 0.0000000000000000000, 0.0000000000000000000 ) ) ;
#293 = CARTESIAN_POINT ( 'NONE',  ( 0.0000000000000000000, 0.0000000000000000000, 2.244094000000000033 ) ) ;
#294 = DIRECTION ( 'NONE',  ( 1.000000000000000000, 0.0000000000000000000, 0.0000000000000000000 ) ) ;
#295 = CIRCLE ( 'NONE', #351, 0.1181100000000000066 ) ;
#296 = ORIENTED_EDGE ( 'NONE', *, *, #38, .T. ) ;
#297 = CIRCLE ( 'NONE', #130, 0.1181100000000000066 ) ;
#298 = FILL_AREA_STYLE_COLOUR ( '', #330 ) ;
#299 = DIRECTION ( 'NONE',  ( -0.0000000000000000000, -0.0000000000000000000, -1.000000000000000000 ) ) ;
#300 = LINE ( 'NONE', #206, #275 ) ;
#301 = DIRECTION ( 'NONE',  ( -0.0000000000000000000, -0.0000000000000000000, -1.000000000000000000 ) ) ;
#302 = FACE_OUTER_BOUND ( 'NONE', #283, .T. ) ;
#303 = EDGE_LOOP ( 'NONE', ( #183, #258, #155, #361 ) ) ;
#304 = DIRECTION ( 'NONE',  ( 0.0000000000000000000, 0.0000000000000000000, -1.000000000000000000 ) ) ;
#305 = CIRCLE ( 'NONE', #145, 0.03936606300000000669 ) ;
#306 = ORIENTED_EDGE ( 'NONE', *, *, #89, .T. ) ;
#307 = CONICAL_SURFACE ( 'NONE', #338, 0.03936606300000000669, 0.1745329251994332254 ) ;
#308 = CARTESIAN_POINT ( 'NONE',  ( -0.03936606300000000669, 0.0000000000000000000, 0.0000000000000000000 ) ) ;
#309 = EDGE_LOOP ( 'NONE', ( #215, #367, #108, #248 ) ) ;
#310 = PLANE ( 'NONE',  #356 ) ;
#311 = ORIENTED_EDGE ( 'NONE', *, *, #204, .F. ) ;
#312 = EDGE_CURVE ( 'NONE', #49, #68, #315, .T. ) ;
#313 = DIRECTION ( 'NONE',  ( -1.000000000000000000, 0.0000000000000000000, 0.0000000000000000000 ) ) ;
#314 = VERTEX_POINT ( 'NONE', #214 ) ;
#315 = CIRCLE ( 'NONE', #331, 0.1181100000000000066 ) ;
#316 = FACE_OUTER_BOUND ( 'NONE', #309, .T. ) ;
#317 = CARTESIAN_POINT ( 'NONE',  ( 0.1031100000000002570, 1.262733314600838667E-17, 2.244094000000000033 ) ) ;
#318 = CARTESIAN_POINT ( 'NONE',  ( 0.0000000000000000000, 0.0000000000000000000, 0.0000000000000000000 ) ) ;
#319 = DIRECTION ( 'NONE',  ( -0.0000000000000000000, -0.0000000000000000000, -1.000000000000000000 ) ) ;
#320 = COLOUR_RGB ( '',0.7921568627450980005, 0.8196078431372548767, 0.9333333333333333481 ) ;
#321 = CARTESIAN_POINT ( 'NONE',  ( 0.1181100000000000066, 1.446430334472939084E-17, 0.7874019999999998243 ) ) ;
#322 = ADVANCED_FACE ( 'NONE', ( #127 ), #3, .T. ) ;
#323 = ORIENTED_EDGE ( 'NONE', *, *, #38, .F. ) ;
#324 = ADVANCED_FACE ( 'NONE', ( #45 ), #67, .T. ) ;
#325 = FACE_OUTER_BOUND ( 'NONE', #303, .T. ) ;
#326 = UNCERTAINTY_MEASURE_WITH_UNIT (LENGTH_MEASURE( 1.000000000000000082E-05 ), #43, 'distance_accuracy_value', 'NONE');
#327 = LINE ( 'NONE', #171, #224 ) ;
#328 = STYLED_ITEM ( 'NONE', ( #174 ), #205 ) ;
#329 = DIRECTION ( 'NONE',  ( -1.000000000000000000, 0.0000000000000000000, 0.0000000000000000000 ) ) ;
#330 = COLOUR_RGB ( '',0.7921568627450980005, 0.8196078431372548767, 0.9333333333333333481 ) ;
#331 = AXIS2_PLACEMENT_3D ( 'NONE', #105, #285, #69 ) ;
#332 = EDGE_CURVE ( 'NONE', #133, #286, #103, .T. ) ;
#333 = CARTESIAN_POINT ( 'NONE',  ( -0.03740150000000001113, 0.0000000000000000000, 0.08988159042539359267 ) ) ;
#334 = CARTESIAN_POINT ( 'NONE',  ( 0.03740150000000005276, 4.580362725830979725E-18, 0.0000000000000000000 ) ) ;
#335 = VERTEX_POINT ( 'NONE', #333 ) ;
#336 = CARTESIAN_POINT ( 'NONE',  ( 0.0000000000000000000, 0.0000000000000000000, 0.07874000000000000443 ) ) ;
#337 = ORIENTED_EDGE ( 'NONE', *, *, #250, .T. ) ;
#338 = AXIS2_PLACEMENT_3D ( 'NONE', #96, #207, #273 ) ;
#339 = CARTESIAN_POINT ( 'NONE',  ( 0.0000000000000000000, 0.0000000000000000000, 0.0000000000000000000 ) ) ;
#340 = EDGE_LOOP ( 'NONE', ( #12, #337, #240, #177 ) ) ;
#341 = DIRECTION ( 'NONE',  ( 1.000000000000000000, 0.0000000000000000000, -0.0000000000000000000 ) ) ;
#342 = VERTEX_POINT ( 'NONE', #98 ) ;
#343 = CARTESIAN_POINT ( 'NONE',  ( 0.0000000000000000000, 0.0000000000000000000, 2.244094000000000033 ) ) ;
#344 = DIRECTION ( 'NONE',  ( -1.000000000000000000, 0.0000000000000000000, 0.0000000000000000000 ) ) ;
#345 = CYLINDRICAL_SURFACE ( 'NONE', #244, 0.1181100000000000066 ) ;
#346 = DIRECTION ( 'NONE',  ( -1.000000000000000000, 0.0000000000000000000, 0.0000000000000000000 ) ) ;
#347 = AXIS2_PLACEMENT_3D ( 'NONE', #160, #242, #123 ) ;
#348 = ORIENTED_EDGE ( 'NONE', *, *, #13, .F. ) ;
#349 = DIRECTION ( 'NONE',  ( -0.0000000000000000000, -0.0000000000000000000, -1.000000000000000000 ) ) ;
#350 = CARTESIAN_POINT ( 'NONE',  ( 0.0000000000000000000, 0.0000000000000000000, 0.0000000000000000000 ) ) ;
#351 = AXIS2_PLACEMENT_3D ( 'NONE', #80, #289, #255 ) ;
#352 = DIRECTION ( 'NONE',  ( -1.000000000000000000, 0.0000000000000000000, 0.0000000000000000000 ) ) ;
#353 = EDGE_CURVE ( 'NONE', #335, #208, #65, .T. ) ;
#354 = PRESENTATION_LAYER_ASSIGNMENT (  '', '', ( #328 ) ) ;
#355 = FACE_OUTER_BOUND ( 'NONE', #132, .T. ) ;
#356 = AXIS2_PLACEMENT_3D ( 'NONE', #209, #184, #178 ) ;
#357 = CARTESIAN_POINT ( 'NONE',  ( 0.03740150000000009439, 4.580362725830984347E-18, 0.7874019999999999353 ) ) ;
#358 = ORIENTED_EDGE ( 'NONE', *, *, #166, .T. ) ;
#359 = EDGE_CURVE ( 'NONE', #19, #190, #176, .T. ) ;
#360 = FACE_OUTER_BOUND ( 'NONE', #97, .T. ) ;
#361 = ORIENTED_EDGE ( 'NONE', *, *, #262, .F. ) ;
#362 = DIRECTION ( 'NONE',  ( 0.0000000000000000000, 0.0000000000000000000, 1.000000000000000000 ) ) ;
#363 = AXIS2_PLACEMENT_3D ( 'NONE', #32, #36, #142 ) ;
#364 = EDGE_LOOP ( 'NONE', ( #86, #40, #279, #162 ) ) ;
#365 = PRODUCT ( 'Micro_MMBM-020-20', 'Micro_MMBM-020-20', '', ( #188 ) ) ;
#366 = CARTESIAN_POINT ( 'NONE',  ( -0.1181100000000000066, 0.0000000000000000000, 0.7874019999999998243 ) ) ;
#367 = ORIENTED_EDGE ( 'NONE', *, *, #274, .T. ) ;
#368 = ORIENTED_EDGE ( 'NONE', *, *, #281, .F. ) ;
#369 = APPLICATION_PROTOCOL_DEFINITION ( 'draft international standard', 'automotive_design', 1998, #189 ) ;
#370 = ORIENTED_EDGE ( 'NONE', *, *, #274, .F. ) ;
#371 = CIRCLE ( 'NONE', #260, 0.03740150000000009439 ) ;
#372 = AXIS2_PLACEMENT_3D ( 'NONE', #270, #265, #352 ) ;
#373 = FACE_OUTER_BOUND ( 'NONE', #340, .T. ) ;
#374 = ADVANCED_FACE ( 'NONE', ( #355 ), #307, .T. ) ;
#375 = DIRECTION ( 'NONE',  ( -0.0000000000000000000, -0.0000000000000000000, -1.000000000000000000 ) ) ;
#376 = SURFACE_STYLE_USAGE ( .BOTH. , #81 ) ;
#377 = DIRECTION ( 'NONE',  ( 1.000000000000000000, 0.0000000000000000000, -0.0000000000000000000 ) ) ;
#378 = AXIS2_PLACEMENT_3D ( 'NONE', #156, #180, #47 ) ;
#379 = CARTESIAN_POINT ( 'NONE',  ( -0.1031100000000002570, 0.0000000000000000000, 2.244094000000000033 ) ) ;
ENDSEC;
END-ISO-10303-21;
