ISO-10303-21;
HEADER;
FILE_DESCRIPTION (( 'STEP AP214' ),
    '1' );
FILE_NAME ('59272.STEP',
    '2023-06-22T22:42:22',
    ( '' ),
    ( '' ),
    'SwSTEP 2.0',
    'SolidWorks 2023',
    '' );
FILE_SCHEMA (( 'AUTOMOTIVE_DESIGN' ));
ENDSEC;

DATA;
#1 = DIRECTION ( 'NONE',  ( -0.000000000000000000, -1.000000000000000000, -0.000000000000000000 ) ) ;
#2 = ORIENTED_EDGE ( 'NONE', *, *, #285, .F. ) ;
#3 = MECHANICAL_DESIGN_GEOMETRIC_PRESENTATION_REPRESENTATION (  '', ( #229 ), #60 ) ;
#4 = DIRECTION ( 'NONE',  ( 1.224646799147352961E-16, 1.000000000000000000, -0.000000000000000000 ) ) ;
#5 = LENGTH_MEASURE_WITH_UNIT ( LENGTH_MEASURE( 0.02539999999999999897 ), #301 );
#6 = UNCERTAINTY_MEASURE_WITH_UNIT (LENGTH_MEASURE( 1.000000000000000082E-05 ), #299, 'distance_accuracy_value', 'NONE');
#7 = COLOUR_RGB ( '',1.000000000000000000, 0.000000000000000000, 0.000000000000000000 ) ;
#8 = PRODUCT_CONTEXT ( 'NONE', #100, 'mechanical' ) ;
#9 =( NAMED_UNIT ( * ) PLANE_ANGLE_UNIT ( ) SI_UNIT ( $, .RADIAN. ) );
#10 = DIMENSIONAL_EXPONENTS ( 1.000000000000000000, 0.000000000000000000, 0.000000000000000000, 0.000000000000000000, 0.000000000000000000, 0.000000000000000000, 0.000000000000000000 ) ;
#11 = FILL_AREA_STYLE_COLOUR ( '', #7 ) ;
#12 = AXIS2_PLACEMENT_3D ( 'NONE', #227, #205, #304 ) ;
#13 = DIRECTION ( 'NONE',  ( 0.000000000000000000, -1.000000000000000000, -0.000000000000000000 ) ) ;
#14 = PLANE ( 'NONE',  #12 ) ;
#15 = CARTESIAN_POINT ( 'NONE',  ( 2.812049592490981988E-33, 1.000000000000000000, 0.000000000000000000 ) ) ;
#16 = ORIENTED_EDGE ( 'NONE', *, *, #142, .F. ) ;
#17 = COLOUR_RGB ( '',1.000000000000000000, 0.000000000000000000, 0.000000000000000000 ) ;
#18 = CIRCLE ( 'NONE', #158, 0.3750000000000000555 ) ;
#19 = STYLED_ITEM ( 'NONE', ( #273 ), #177 ) ;
#20 = AXIS2_PLACEMENT_3D ( 'NONE', #101, #57, #270 ) ;
#21 = DIRECTION ( 'NONE',  ( -0.000000000000000000, -1.000000000000000000, -0.000000000000000000 ) ) ;
#22 = ORIENTED_EDGE ( 'NONE', *, *, #32, .F. ) ;
#23 = DIRECTION ( 'NONE',  ( -0.000000000000000000, -1.000000000000000000, -0.000000000000000000 ) ) ;
#24 =( GEOMETRIC_REPRESENTATION_CONTEXT ( 3 ) GLOBAL_UNCERTAINTY_ASSIGNED_CONTEXT ( ( #6 ) ) GLOBAL_UNIT_ASSIGNED_CONTEXT ( ( #299, #176, #297 ) ) REPRESENTATION_CONTEXT ( 'NONE', 'WORKASPACE' ) );
#25 =( CONVERSION_BASED_UNIT ( 'INCH', #46 ) LENGTH_UNIT ( ) NAMED_UNIT ( #185 ) );
#26 = ADVANCED_FACE ( 'NONE', ( #89 ), #71, .T. ) ;
#27 = CARTESIAN_POINT ( 'NONE',  ( 0.3750000000000000555, 1.000000000000000000, 4.592425496802573602E-17 ) ) ;
#28 = SURFACE_SIDE_STYLE ('',( #139 ) ) ;
#29 = CIRCLE ( 'NONE', #300, 0.3750000000000000555 ) ;
#30 =( NAMED_UNIT ( * ) SI_UNIT ( $, .STERADIAN. ) SOLID_ANGLE_UNIT ( ) );
#31 = MECHANICAL_DESIGN_GEOMETRIC_PRESENTATION_REPRESENTATION (  '', ( #248 ), #206 ) ;
#32 = EDGE_CURVE ( 'NONE', #132, #282, #18, .T. ) ;
#33 = SURFACE_STYLE_FILL_AREA ( #269 ) ;
#34 = MECHANICAL_DESIGN_GEOMETRIC_PRESENTATION_REPRESENTATION (  '', ( #189 ), #230 ) ;
#35 = CARTESIAN_POINT ( 'NONE',  ( 4.592425496802575451E-17, 0.000000000000000000, 0.3750000000000000555 ) ) ;
#36 = LINE ( 'NONE', #35, #152 ) ;
#37 = ORIENTED_EDGE ( 'NONE', *, *, #166, .F. ) ;
#38 = DIMENSIONAL_EXPONENTS ( 1.000000000000000000, 0.000000000000000000, 0.000000000000000000, 0.000000000000000000, 0.000000000000000000, 0.000000000000000000, 0.000000000000000000 ) ;
#39 = ORIENTED_EDGE ( 'NONE', *, *, #142, .T. ) ;
#40 = VECTOR ( 'NONE', #225, 39.37007874015748143 ) ;
#41 = SURFACE_STYLE_USAGE ( .BOTH. , #28 ) ;
#42 = EDGE_LOOP ( 'NONE', ( #264, #161 ) ) ;
#43 = CARTESIAN_POINT ( 'NONE',  ( 0.000000000000000000, 1.000000000000000000, -0.3750000000000000555 ) ) ;
#44 = FILL_AREA_STYLE_COLOUR ( '', #182 ) ;
#45 = CYLINDRICAL_SURFACE ( 'NONE', #253, 0.3750000000000000555 ) ;
#46 = LENGTH_MEASURE_WITH_UNIT ( LENGTH_MEASURE( 0.02539999999999999897 ), #94 );
#47 = FILL_AREA_STYLE_COLOUR ( '', #224 ) ;
#48 = PRODUCT_DEFINITION_CONTEXT ( 'detailed design', #82, 'design' ) ;
#49 = SURFACE_SIDE_STYLE ('',( #239 ) ) ;
#50 = AXIS2_PLACEMENT_3D ( 'NONE', #298, #267, #124 ) ;
#51 =( LENGTH_UNIT ( ) NAMED_UNIT ( * ) SI_UNIT ( $, .METRE. ) );
#52 = DIRECTION ( 'NONE',  ( 0.000000000000000000, 0.000000000000000000, 1.000000000000000000 ) ) ;
#53 = PRESENTATION_STYLE_ASSIGNMENT (( #58 ) ) ;
#54 = PRESENTATION_LAYER_ASSIGNMENT (  '', '', ( #189 ) ) ;
#55 = PRODUCT_RELATED_PRODUCT_CATEGORY ( 'part', '', ( #286 ) ) ;
#56 = AXIS2_PLACEMENT_3D ( 'NONE', #66, #266, #70 ) ;
#57 = DIRECTION ( 'NONE',  ( 1.224646799147352961E-16, 1.000000000000000000, -0.000000000000000000 ) ) ;
#58 = SURFACE_STYLE_USAGE ( .BOTH. , #121 ) ;
#59 = DIRECTION ( 'NONE',  ( -1.000000000000000000, 1.224646799147352961E-16, 0.000000000000000000 ) ) ;
#60 =( GEOMETRIC_REPRESENTATION_CONTEXT ( 3 ) GLOBAL_UNCERTAINTY_ASSIGNED_CONTEXT ( ( #150 ) ) GLOBAL_UNIT_ASSIGNED_CONTEXT ( ( #25, #193, #167 ) ) REPRESENTATION_CONTEXT ( 'NONE', 'WORKASPACE' ) );
#61 = PLANE ( 'NONE',  #190 ) ;
#62 = EDGE_LOOP ( 'NONE', ( #276, #207, #284, #104 ) ) ;
#63 = VERTEX_POINT ( 'NONE', #168 ) ;
#64 = PRESENTATION_LAYER_ASSIGNMENT (  '', '', ( #248 ) ) ;
#65 = ORIENTED_EDGE ( 'NONE', *, *, #194, .T. ) ;
#66 = CARTESIAN_POINT ( 'NONE',  ( 0.000000000000000000, 0.000000000000000000, 0.000000000000000000 ) ) ;
#67 = FACE_OUTER_BOUND ( 'NONE', #293, .T. ) ;
#68 = PRESENTATION_LAYER_ASSIGNMENT (  '', '', ( #130 ) ) ;
#69 = ADVANCED_FACE ( 'NONE', ( #67 ), #234, .T. ) ;
#70 = DIRECTION ( 'NONE',  ( 0.000000000000000000, 0.000000000000000000, -1.000000000000000000 ) ) ;
#71 = CYLINDRICAL_SURFACE ( 'NONE', #210, 0.3749999999999998890 ) ;
#72 = LENGTH_MEASURE_WITH_UNIT ( LENGTH_MEASURE( 0.02539999999999999897 ), #51 );
#73 = DIRECTION ( 'NONE',  ( -0.000000000000000000, -1.000000000000000000, -0.000000000000000000 ) ) ;
#74 = DIRECTION ( 'NONE',  ( -1.000000000000000000, 0.000000000000000000, 0.000000000000000000 ) ) ;
#75 = FACE_OUTER_BOUND ( 'NONE', #62, .T. ) ;
#76 =( NAMED_UNIT ( * ) SI_UNIT ( $, .STERADIAN. ) SOLID_ANGLE_UNIT ( ) );
#77 = DIRECTION ( 'NONE',  ( 1.224646799147352961E-16, 1.000000000000000000, -0.000000000000000000 ) ) ;
#78 =( CONVERSION_BASED_UNIT ( 'INCH', #5 ) LENGTH_UNIT ( ) NAMED_UNIT ( #38 ) );
#79 = PRESENTATION_LAYER_ASSIGNMENT (  '', '', ( #169 ) ) ;
#80 = AXIS2_PLACEMENT_3D ( 'NONE', #192, #77, #74 ) ;
#81 = DIMENSIONAL_EXPONENTS ( 1.000000000000000000, 0.000000000000000000, 0.000000000000000000, 0.000000000000000000, 0.000000000000000000, 0.000000000000000000, 0.000000000000000000 ) ;
#82 = APPLICATION_CONTEXT ( 'automotive_design' ) ;
#83 = DIRECTION ( 'NONE',  ( 0.000000000000000000, -0.000000000000000000, 1.000000000000000000 ) ) ;
#84 = CIRCLE ( 'NONE', #112, 0.3750000000000000555 ) ;
#85 = CARTESIAN_POINT ( 'NONE',  ( 0.3750000000000001665, 3.000000000000000444, 4.592425496802572986E-17 ) ) ;
#86 = EDGE_LOOP ( 'NONE', ( #202, #159, #308, #2 ) ) ;
#87 = ORIENTED_EDGE ( 'NONE', *, *, #252, .T. ) ;
#88 = CIRCLE ( 'NONE', #173, 0.3750000000000000555 ) ;
#89 = FACE_OUTER_BOUND ( 'NONE', #86, .T. ) ;
#90 = SURFACE_STYLE_FILL_AREA ( #91 ) ;
#91 = FILL_AREA_STYLE ('',( #164 ) ) ;
#92 = AXIS2_PLACEMENT_3D ( 'NONE', #296, #52, #95 ) ;
#93 = CARTESIAN_POINT ( 'NONE',  ( 0.000000000000000000, 1.000000000000000000, 0.000000000000000000 ) ) ;
#94 =( LENGTH_UNIT ( ) NAMED_UNIT ( * ) SI_UNIT ( $, .METRE. ) );
#95 = DIRECTION ( 'NONE',  ( 1.000000000000000000, 0.000000000000000000, 0.000000000000000000 ) ) ;
#96 = CARTESIAN_POINT ( 'NONE',  ( -0.3750000000000000555, 1.000000000000000000, 0.000000000000000000 ) ) ;
#97 =( LENGTH_UNIT ( ) NAMED_UNIT ( * ) SI_UNIT ( $, .METRE. ) );
#98 = APPLICATION_PROTOCOL_DEFINITION ( 'draft international standard', 'automotive_design', 1998, #82 ) ;
#99 = DIRECTION ( 'NONE',  ( 0.000000000000000000, 0.000000000000000000, -1.000000000000000000 ) ) ;
#100 = APPLICATION_CONTEXT ( 'automotive_design' ) ;
#101 = CARTESIAN_POINT ( 'NONE',  ( 2.449293598294705921E-16, 3.000000000000000444, 0.000000000000000000 ) ) ;
#102 =( NAMED_UNIT ( * ) PLANE_ANGLE_UNIT ( ) SI_UNIT ( $, .RADIAN. ) );
#103 = SURFACE_SIDE_STYLE ('',( #33 ) ) ;
#104 = ORIENTED_EDGE ( 'NONE', *, *, #133, .F. ) ;
#105 = FILL_AREA_STYLE ('',( #149 ) ) ;
#106 = LINE ( 'NONE', #85, #40 ) ;
#107 = DIMENSIONAL_EXPONENTS ( 1.000000000000000000, 0.000000000000000000, 0.000000000000000000, 0.000000000000000000, 0.000000000000000000, 0.000000000000000000, 0.000000000000000000 ) ;
#108 = FACE_OUTER_BOUND ( 'NONE', #42, .T. ) ;
#109 = ORIENTED_EDGE ( 'NONE', *, *, #235, .F. ) ;
#110 = DIRECTION ( 'NONE',  ( -0.000000000000000000, -1.000000000000000000, -0.000000000000000000 ) ) ;
#111 = DIRECTION ( 'NONE',  ( -1.000000000000000000, 0.000000000000000000, 0.000000000000000000 ) ) ;
#112 = AXIS2_PLACEMENT_3D ( 'NONE', #254, #275, #157 ) ;
#113 = LINE ( 'NONE', #187, #135 ) ;
#114 = SURFACE_STYLE_USAGE ( .BOTH. , #49 ) ;
#115 = LENGTH_MEASURE_WITH_UNIT ( LENGTH_MEASURE( 0.02539999999999999897 ), #240 );
#116 = SURFACE_STYLE_USAGE ( .BOTH. , #289 ) ;
#117 = AXIS2_PLACEMENT_3D ( 'NONE', #15, #129, #59 ) ;
#118 =( NAMED_UNIT ( * ) PLANE_ANGLE_UNIT ( ) SI_UNIT ( $, .RADIAN. ) );
#119 = ORIENTED_EDGE ( 'NONE', *, *, #252, .F. ) ;
#120 = CYLINDRICAL_SURFACE ( 'NONE', #20, 0.3749999999999998890 ) ;
#121 = SURFACE_SIDE_STYLE ('',( #200 ) ) ;
#122 = VECTOR ( 'NONE', #73, 39.37007874015748143 ) ;
#123 = FILL_AREA_STYLE ('',( #170 ) ) ;
#124 = DIRECTION ( 'NONE',  ( -1.000000000000000000, 0.000000000000000000, 0.000000000000000000 ) ) ;
#125 = PRODUCT_DEFINITION_SHAPE ( 'NONE', 'NONE',  #226 ) ;
#126 = FACE_OUTER_BOUND ( 'NONE', #179, .T. ) ;
#127 = CARTESIAN_POINT ( 'NONE',  ( 0.3750000000000000555, 3.000000000000000444, 4.592425496802573602E-17 ) ) ;
#128 = ORIENTED_EDGE ( 'NONE', *, *, #258, .T. ) ;
#129 = DIRECTION ( 'NONE',  ( 1.224646799147352961E-16, 1.000000000000000000, -0.000000000000000000 ) ) ;
#130 = STYLED_ITEM ( 'NONE', ( #186 ), #141 ) ;
#131 =( NAMED_UNIT ( * ) SI_UNIT ( $, .STERADIAN. ) SOLID_ANGLE_UNIT ( ) );
#132 = VERTEX_POINT ( 'NONE', #27 ) ;
#133 = EDGE_CURVE ( 'NONE', #282, #154, #113, .T. ) ;
#134 = DIRECTION ( 'NONE',  ( -1.000000000000000000, 0.000000000000000000, 0.000000000000000000 ) ) ;
#135 = VECTOR ( 'NONE', #287, 39.37007874015748143 ) ;
#136 = PRODUCT_DEFINITION_FORMATION_WITH_SPECIFIED_SOURCE ( 'ANY', '', #286, .NOT_KNOWN. ) ;
#137 = FACE_OUTER_BOUND ( 'NONE', #255, .T. ) ;
#138 = FILL_AREA_STYLE ('',( #44 ) ) ;
#139 = SURFACE_STYLE_FILL_AREA ( #263 ) ;
#140 = CARTESIAN_POINT ( 'NONE',  ( 0.000000000000000000, 0.000000000000000000, 0.000000000000000000 ) ) ;
#141 = MANIFOLD_SOLID_BREP ( 'Revolve - Tool Body (Straight Shanked)', #146 ) ;
#142 = EDGE_CURVE ( 'NONE', #257, #204, #250, .T. ) ;
#143 = FACE_OUTER_BOUND ( 'NONE', #213, .T. ) ;
#144 = UNCERTAINTY_MEASURE_WITH_UNIT (LENGTH_MEASURE( 1.000000000000000082E-05 ), #174, 'distance_accuracy_value', 'NONE');
#145 = SURFACE_STYLE_USAGE ( .BOTH. , #103 ) ;
#146 = CLOSED_SHELL ( 'NONE', ( #278, #197, #26, #244 ) ) ;
#147 = COLOUR_RGB ( '',1.000000000000000000, 0.000000000000000000, 0.000000000000000000 ) ;
#148 = MANIFOLD_SOLID_BREP ( 'Revolve - Cutting Edge', #288 ) ;
#149 = FILL_AREA_STYLE_COLOUR ( '', #147 ) ;
#150 = UNCERTAINTY_MEASURE_WITH_UNIT (LENGTH_MEASURE( 1.000000000000000082E-05 ), #25, 'distance_accuracy_value', 'NONE');
#151 = CARTESIAN_POINT ( 'NONE',  ( 0.000000000000000000, 0.000000000000000000, -0.3750000000000000555 ) ) ;
#152 = VECTOR ( 'NONE', #21, 39.37007874015748143 ) ;
#153 = SURFACE_STYLE_USAGE ( .BOTH. , #208 ) ;
#154 = VERTEX_POINT ( 'NONE', #271 ) ;
#155 =( LENGTH_UNIT ( ) NAMED_UNIT ( * ) SI_UNIT ( $, .METRE. ) );
#156 = ORIENTED_EDGE ( 'NONE', *, *, #258, .F. ) ;
#157 = DIRECTION ( 'NONE',  ( -1.000000000000000000, 0.000000000000000000, 0.000000000000000000 ) ) ;
#158 = AXIS2_PLACEMENT_3D ( 'NONE', #309, #291, #111 ) ;
#159 = ORIENTED_EDGE ( 'NONE', *, *, #32, .T. ) ;
#160 = MECHANICAL_DESIGN_GEOMETRIC_PRESENTATION_REPRESENTATION (  '', ( #169 ), #165 ) ;
#161 = ORIENTED_EDGE ( 'NONE', *, *, #285, .T. ) ;
#162 = DIRECTION ( 'NONE',  ( 0.000000000000000000, 0.000000000000000000, -1.000000000000000000 ) ) ;
#163 = ORIENTED_EDGE ( 'NONE', *, *, #235, .T. ) ;
#164 = FILL_AREA_STYLE_COLOUR ( '', #17 ) ;
#165 =( GEOMETRIC_REPRESENTATION_CONTEXT ( 3 ) GLOBAL_UNCERTAINTY_ASSIGNED_CONTEXT ( ( #268 ) ) GLOBAL_UNIT_ASSIGNED_CONTEXT ( ( #303, #180, #131 ) ) REPRESENTATION_CONTEXT ( 'NONE', 'WORKASPACE' ) );
#166 = EDGE_CURVE ( 'NONE', #257, #63, #88, .T. ) ;
#167 =( NAMED_UNIT ( * ) SI_UNIT ( $, .STERADIAN. ) SOLID_ANGLE_UNIT ( ) );
#168 = CARTESIAN_POINT ( 'NONE',  ( 4.592425496802575451E-17, 1.000000000000000000, 0.3750000000000000555 ) ) ;
#169 = STYLED_ITEM ( 'NONE', ( #203 ), #247 ) ;
#170 = FILL_AREA_STYLE_COLOUR ( '', #236 ) ;
#171 = DIRECTION ( 'NONE',  ( -0.000000000000000000, -1.000000000000000000, -0.000000000000000000 ) ) ;
#172 = DIRECTION ( 'NONE',  ( 0.000000000000000000, 0.000000000000000000, -1.000000000000000000 ) ) ;
#173 = AXIS2_PLACEMENT_3D ( 'NONE', #93, #171, #99 ) ;
#174 =( CONVERSION_BASED_UNIT ( 'INCH', #72 ) LENGTH_UNIT ( ) NAMED_UNIT ( #81 ) );
#175 =( GEOMETRIC_REPRESENTATION_CONTEXT ( 3 ) GLOBAL_UNCERTAINTY_ASSIGNED_CONTEXT ( ( #144 ) ) GLOBAL_UNIT_ASSIGNED_CONTEXT ( ( #174, #292, #249 ) ) REPRESENTATION_CONTEXT ( 'NONE', 'WORKASPACE' ) );
#176 =( NAMED_UNIT ( * ) PLANE_ANGLE_UNIT ( ) SI_UNIT ( $, .RADIAN. ) );
#177 = ADVANCED_FACE ( 'NONE', ( #143 ), #245, .T. ) ;
#178 = MECHANICAL_DESIGN_GEOMETRIC_PRESENTATION_REPRESENTATION (  '', ( #19 ), #243 ) ;
#179 = EDGE_LOOP ( 'NONE', ( #87, #65 ) ) ;
#180 =( NAMED_UNIT ( * ) PLANE_ANGLE_UNIT ( ) SI_UNIT ( $, .RADIAN. ) );
#181 = CARTESIAN_POINT ( 'NONE',  ( 4.592425496802575451E-17, 0.000000000000000000, 0.3750000000000000555 ) ) ;
#182 = COLOUR_RGB ( '',0.7921568627450980005, 0.8196078431372548767, 0.9333333333333333481 ) ;
#183 = EDGE_CURVE ( 'NONE', #132, #228, #106, .T. ) ;
#184 = CIRCLE ( 'NONE', #80, 0.3749999999999997780 ) ;
#185 = DIMENSIONAL_EXPONENTS ( 1.000000000000000000, 0.000000000000000000, 0.000000000000000000, 0.000000000000000000, 0.000000000000000000, 0.000000000000000000, 0.000000000000000000 ) ;
#186 = PRESENTATION_STYLE_ASSIGNMENT (( #114 ) ) ;
#187 = CARTESIAN_POINT ( 'NONE',  ( -0.3749999999999996114, 3.000000000000000444, 0.000000000000000000 ) ) ;
#188 = PRESENTATION_STYLE_ASSIGNMENT (( #116 ) ) ;
#189 = STYLED_ITEM ( 'NONE', ( #191 ), #262 ) ;
#190 = AXIS2_PLACEMENT_3D ( 'NONE', #279, #13, #209 ) ;
#191 = PRESENTATION_STYLE_ASSIGNMENT (( #41 ) ) ;
#192 = CARTESIAN_POINT ( 'NONE',  ( 2.449293598294705921E-16, 3.000000000000000444, 0.000000000000000000 ) ) ;
#193 =( NAMED_UNIT ( * ) PLANE_ANGLE_UNIT ( ) SI_UNIT ( $, .RADIAN. ) );
#194 = EDGE_CURVE ( 'NONE', #211, #204, #283, .T. ) ;
#195 = PRESENTATION_LAYER_ASSIGNMENT (  '', '', ( #19 ) ) ;
#196 = LENGTH_MEASURE_WITH_UNIT ( LENGTH_MEASURE( 0.02539999999999999897 ), #97 );
#197 = ADVANCED_FACE ( 'NONE', ( #274 ), #231, .F. ) ;
#198 = DIMENSIONAL_EXPONENTS ( 1.000000000000000000, 0.000000000000000000, 0.000000000000000000, 0.000000000000000000, 0.000000000000000000, 0.000000000000000000, 0.000000000000000000 ) ;
#199 = AXIS2_PLACEMENT_3D ( 'NONE', #140, #23, #241 ) ;
#200 = SURFACE_STYLE_FILL_AREA ( #123 ) ;
#201 = UNCERTAINTY_MEASURE_WITH_UNIT (LENGTH_MEASURE( 1.000000000000000082E-05 ), #78, 'distance_accuracy_value', 'NONE');
#202 = ORIENTED_EDGE ( 'NONE', *, *, #183, .F. ) ;
#203 = PRESENTATION_STYLE_ASSIGNMENT (( #153 ) ) ;
#204 = VERTEX_POINT ( 'NONE', #151 ) ;
#205 = DIRECTION ( 'NONE',  ( -1.224646799147352961E-16, -1.000000000000000000, 0.000000000000000000 ) ) ;
#206 =( GEOMETRIC_REPRESENTATION_CONTEXT ( 3 ) GLOBAL_UNCERTAINTY_ASSIGNED_CONTEXT ( ( #238 ) ) GLOBAL_UNIT_ASSIGNED_CONTEXT ( ( #251, #102, #76 ) ) REPRESENTATION_CONTEXT ( 'NONE', 'WORKASPACE' ) );
#207 = ORIENTED_EDGE ( 'NONE', *, *, #183, .T. ) ;
#208 = SURFACE_SIDE_STYLE ('',( #260 ) ) ;
#209 = DIRECTION ( 'NONE',  ( 0.000000000000000000, 0.000000000000000000, -1.000000000000000000 ) ) ;
#210 = AXIS2_PLACEMENT_3D ( 'NONE', #214, #4, #134 ) ;
#211 = VERTEX_POINT ( 'NONE', #181 ) ;
#212 = UNCERTAINTY_MEASURE_WITH_UNIT (LENGTH_MEASURE( 1.000000000000000082E-05 ), #215, 'distance_accuracy_value', 'NONE');
#213 = EDGE_LOOP ( 'NONE', ( #37, #156 ) ) ;
#214 = CARTESIAN_POINT ( 'NONE',  ( 2.449293598294705921E-16, 3.000000000000000444, 0.000000000000000000 ) ) ;
#215 =( CONVERSION_BASED_UNIT ( 'INCH', #115 ) LENGTH_UNIT ( ) NAMED_UNIT ( #198 ) );
#216 = ORIENTED_EDGE ( 'NONE', *, *, #166, .T. ) ;
#217 =( NAMED_UNIT ( * ) SI_UNIT ( $, .STERADIAN. ) SOLID_ANGLE_UNIT ( ) );
#218 = CARTESIAN_POINT ( 'NONE',  ( 0.000000000000000000, 0.000000000000000000, 0.000000000000000000 ) ) ;
#219 = CARTESIAN_POINT ( 'NONE',  ( 0.000000000000000000, 0.000000000000000000, -0.3750000000000000555 ) ) ;
#220 = DIRECTION ( 'NONE',  ( -0.000000000000000000, -1.000000000000000000, -0.000000000000000000 ) ) ;
#221 = EDGE_CURVE ( 'NONE', #282, #132, #84, .T. ) ;
#222 = APPLICATION_PROTOCOL_DEFINITION ( 'draft international standard', 'automotive_design', 1998, #100 ) ;
#223 = LENGTH_MEASURE_WITH_UNIT ( LENGTH_MEASURE( 0.02539999999999999897 ), #242 );
#224 = COLOUR_RGB ( '',1.000000000000000000, 0.000000000000000000, 0.000000000000000000 ) ;
#225 = DIRECTION ( 'NONE',  ( 1.224646799147352961E-16, 1.000000000000000000, -0.000000000000000000 ) ) ;
#226 = PRODUCT_DEFINITION ( 'UNKNOWN', '', #136, #48 ) ;
#227 = CARTESIAN_POINT ( 'NONE',  ( 0.3750000000000000555, 3.000000000000000444, 0.000000000000000000 ) ) ;
#228 = VERTEX_POINT ( 'NONE', #127 ) ;
#229 = STYLED_ITEM ( 'NONE', ( #188 ), #69 ) ;
#230 =( GEOMETRIC_REPRESENTATION_CONTEXT ( 3 ) GLOBAL_UNCERTAINTY_ASSIGNED_CONTEXT ( ( #212 ) ) GLOBAL_UNIT_ASSIGNED_CONTEXT ( ( #215, #118, #217 ) ) REPRESENTATION_CONTEXT ( 'NONE', 'WORKASPACE' ) );
#231 = PLANE ( 'NONE',  #117 ) ;
#232 = ORIENTED_EDGE ( 'NONE', *, *, #194, .F. ) ;
#233 = ADVANCED_BREP_SHAPE_REPRESENTATION ( '59272', ( #148, #141, #92 ), #175 ) ;
#234 = CYLINDRICAL_SURFACE ( 'NONE', #199, 0.3750000000000000555 ) ;
#235 = EDGE_CURVE ( 'NONE', #63, #211, #36, .T. ) ;
#236 = COLOUR_RGB ( '',0.7921568627450980005, 0.8196078431372548767, 0.9333333333333333481 ) ;
#237 = CIRCLE ( 'NONE', #50, 0.3749999999999997780 ) ;
#238 = UNCERTAINTY_MEASURE_WITH_UNIT (LENGTH_MEASURE( 1.000000000000000082E-05 ), #251, 'distance_accuracy_value', 'NONE');
#239 = SURFACE_STYLE_FILL_AREA ( #138 ) ;
#240 =( LENGTH_UNIT ( ) NAMED_UNIT ( * ) SI_UNIT ( $, .METRE. ) );
#241 = DIRECTION ( 'NONE',  ( 0.000000000000000000, 0.000000000000000000, -1.000000000000000000 ) ) ;
#242 =( LENGTH_UNIT ( ) NAMED_UNIT ( * ) SI_UNIT ( $, .METRE. ) );
#243 =( GEOMETRIC_REPRESENTATION_CONTEXT ( 3 ) GLOBAL_UNCERTAINTY_ASSIGNED_CONTEXT ( ( #201 ) ) GLOBAL_UNIT_ASSIGNED_CONTEXT ( ( #78, #9, #30 ) ) REPRESENTATION_CONTEXT ( 'NONE', 'WORKASPACE' ) );
#244 = ADVANCED_FACE ( 'NONE', ( #108 ), #14, .F. ) ;
#245 = PLANE ( 'NONE',  #265 ) ;
#246 = SHAPE_DEFINITION_REPRESENTATION ( #125, #233 ) ;
#247 = ADVANCED_FACE ( 'NONE', ( #126 ), #61, .T. ) ;
#248 = STYLED_ITEM ( 'NONE', ( #53 ), #148 ) ;
#249 =( NAMED_UNIT ( * ) SI_UNIT ( $, .STERADIAN. ) SOLID_ANGLE_UNIT ( ) );
#250 = LINE ( 'NONE', #219, #122 ) ;
#251 =( CONVERSION_BASED_UNIT ( 'INCH', #196 ) LENGTH_UNIT ( ) NAMED_UNIT ( #10 ) );
#252 = EDGE_CURVE ( 'NONE', #204, #211, #259, .T. ) ;
#253 = AXIS2_PLACEMENT_3D ( 'NONE', #218, #220, #172 ) ;
#254 = CARTESIAN_POINT ( 'NONE',  ( -3.032960542342103792E-32, 1.000000000000000000, 0.000000000000000000 ) ) ;
#255 = EDGE_LOOP ( 'NONE', ( #109, #128, #39, #232 ) ) ;
#256 = DIRECTION ( 'NONE',  ( 0.000000000000000000, 0.000000000000000000, -1.000000000000000000 ) ) ;
#257 = VERTEX_POINT ( 'NONE', #43 ) ;
#258 = EDGE_CURVE ( 'NONE', #63, #257, #29, .T. ) ;
#259 = CIRCLE ( 'NONE', #56, 0.3750000000000000555 ) ;
#260 = SURFACE_STYLE_FILL_AREA ( #105 ) ;
#261 = CARTESIAN_POINT ( 'NONE',  ( 0.000000000000000000, 1.000000000000000000, 0.000000000000000000 ) ) ;
#262 = ADVANCED_FACE ( 'NONE', ( #137 ), #45, .T. ) ;
#263 = FILL_AREA_STYLE ('',( #47 ) ) ;
#264 = ORIENTED_EDGE ( 'NONE', *, *, #295, .T. ) ;
#265 = AXIS2_PLACEMENT_3D ( 'NONE', #307, #302, #83 ) ;
#266 = DIRECTION ( 'NONE',  ( -0.000000000000000000, -1.000000000000000000, -0.000000000000000000 ) ) ;
#267 = DIRECTION ( 'NONE',  ( 1.224646799147352961E-16, 1.000000000000000000, -0.000000000000000000 ) ) ;
#268 = UNCERTAINTY_MEASURE_WITH_UNIT (LENGTH_MEASURE( 1.000000000000000082E-05 ), #303, 'distance_accuracy_value', 'NONE');
#269 = FILL_AREA_STYLE ('',( #11 ) ) ;
#270 = DIRECTION ( 'NONE',  ( -1.000000000000000000, 0.000000000000000000, 0.000000000000000000 ) ) ;
#271 = CARTESIAN_POINT ( 'NONE',  ( -0.3749999999999995004, 3.000000000000000444, 0.000000000000000000 ) ) ;
#272 = PRESENTATION_LAYER_ASSIGNMENT (  '', '', ( #229 ) ) ;
#273 = PRESENTATION_STYLE_ASSIGNMENT (( #145 ) ) ;
#274 = FACE_OUTER_BOUND ( 'NONE', #280, .T. ) ;
#275 = DIRECTION ( 'NONE',  ( 1.224646799147352961E-16, 1.000000000000000000, -0.000000000000000000 ) ) ;
#276 = ORIENTED_EDGE ( 'NONE', *, *, #221, .T. ) ;
#277 = DIMENSIONAL_EXPONENTS ( 1.000000000000000000, 0.000000000000000000, 0.000000000000000000, 0.000000000000000000, 0.000000000000000000, 0.000000000000000000, 0.000000000000000000 ) ;
#278 = ADVANCED_FACE ( 'NONE', ( #75 ), #120, .T. ) ;
#279 = CARTESIAN_POINT ( 'NONE',  ( 0.000000000000000000, 0.000000000000000000, 0.000000000000000000 ) ) ;
#280 = EDGE_LOOP ( 'NONE', ( #306, #22 ) ) ;
#281 = CARTESIAN_POINT ( 'NONE',  ( 0.000000000000000000, 0.000000000000000000, 0.000000000000000000 ) ) ;
#282 = VERTEX_POINT ( 'NONE', #96 ) ;
#283 = CIRCLE ( 'NONE', #290, 0.3750000000000000555 ) ;
#284 = ORIENTED_EDGE ( 'NONE', *, *, #295, .F. ) ;
#285 = EDGE_CURVE ( 'NONE', #228, #154, #237, .T. ) ;
#286 = PRODUCT ( '59272', '59272', '', ( #8 ) ) ;
#287 = DIRECTION ( 'NONE',  ( 1.224646799147352961E-16, 1.000000000000000000, -0.000000000000000000 ) ) ;
#288 = CLOSED_SHELL ( 'NONE', ( #69, #177, #262, #247 ) ) ;
#289 = SURFACE_SIDE_STYLE ('',( #90 ) ) ;
#290 = AXIS2_PLACEMENT_3D ( 'NONE', #281, #110, #256 ) ;
#291 = DIRECTION ( 'NONE',  ( 1.224646799147352961E-16, 1.000000000000000000, -0.000000000000000000 ) ) ;
#292 =( NAMED_UNIT ( * ) PLANE_ANGLE_UNIT ( ) SI_UNIT ( $, .RADIAN. ) );
#293 = EDGE_LOOP ( 'NONE', ( #216, #163, #119, #16 ) ) ;
#294 = MECHANICAL_DESIGN_GEOMETRIC_PRESENTATION_REPRESENTATION (  '', ( #130 ), #24 ) ;
#295 = EDGE_CURVE ( 'NONE', #154, #228, #184, .T. ) ;
#296 = CARTESIAN_POINT ( 'NONE',  ( 0.000000000000000000, 0.000000000000000000, 0.000000000000000000 ) ) ;
#297 =( NAMED_UNIT ( * ) SI_UNIT ( $, .STERADIAN. ) SOLID_ANGLE_UNIT ( ) );
#298 = CARTESIAN_POINT ( 'NONE',  ( 2.449293598294705921E-16, 3.000000000000000444, 0.000000000000000000 ) ) ;
#299 =( CONVERSION_BASED_UNIT ( 'INCH', #223 ) LENGTH_UNIT ( ) NAMED_UNIT ( #277 ) );
#300 = AXIS2_PLACEMENT_3D ( 'NONE', #261, #1, #162 ) ;
#301 =( LENGTH_UNIT ( ) NAMED_UNIT ( * ) SI_UNIT ( $, .METRE. ) );
#302 = DIRECTION ( 'NONE',  ( 0.000000000000000000, 1.000000000000000000, 0.000000000000000000 ) ) ;
#303 =( CONVERSION_BASED_UNIT ( 'INCH', #305 ) LENGTH_UNIT ( ) NAMED_UNIT ( #107 ) );
#304 = DIRECTION ( 'NONE',  ( 1.000000000000000000, -1.224646799147352961E-16, 0.000000000000000000 ) ) ;
#305 = LENGTH_MEASURE_WITH_UNIT ( LENGTH_MEASURE( 0.02539999999999999897 ), #155 );
#306 = ORIENTED_EDGE ( 'NONE', *, *, #221, .F. ) ;
#307 = CARTESIAN_POINT ( 'NONE',  ( 0.000000000000000000, 1.000000000000000000, 0.000000000000000000 ) ) ;
#308 = ORIENTED_EDGE ( 'NONE', *, *, #133, .T. ) ;
#309 = CARTESIAN_POINT ( 'NONE',  ( -3.032960542342103792E-32, 1.000000000000000000, 0.000000000000000000 ) ) ;
ENDSEC;
END-ISO-10303-21;
