ISO-10303-21;
HEADER;
FILE_DESCRIPTION (( 'STEP AP214' ),
    '1' );
FILE_NAME ('59667.STEP',
    '2023-07-24T15:21:41',
    ( '' ),
    ( '' ),
    'SwSTEP 2.0',
    'SolidWorks 2023',
    '' );
FILE_SCHEMA (( 'AUTOMOTIVE_DESIGN' ));
ENDSEC;

DATA;
#1 = SURFACE_SIDE_STYLE ('',( #341 ) ) ;
#2 = FACE_OUTER_BOUND ( 'NONE', #182, .T. ) ;
#3 = VECTOR ( 'NONE', #153, 1000.000000000000000 ) ;
#4 = FILL_AREA_STYLE ('',( #367 ) ) ;
#5 = EDGE_CURVE ( 'NONE', #219, #138, #321, .T. ) ;
#6 = CARTESIAN_POINT ( 'NONE',  ( 0.000000000000000000, 0.000000000000000000, 0.000000000000000000 ) ) ;
#7 = SURFACE_STYLE_USAGE ( .BOTH. , #126 ) ;
#8 =( NAMED_UNIT ( * ) PLANE_ANGLE_UNIT ( ) SI_UNIT ( $, .RADIAN. ) );
#9 = SURFACE_STYLE_FILL_AREA ( #296 ) ;
#10 = EDGE_CURVE ( 'NONE', #138, #191, #21, .T. ) ;
#11 =( GEOMETRIC_REPRESENTATION_CONTEXT ( 3 ) GLOBAL_UNCERTAINTY_ASSIGNED_CONTEXT ( ( #336 ) ) GLOBAL_UNIT_ASSIGNED_CONTEXT ( ( #31, #337, #64 ) ) REPRESENTATION_CONTEXT ( 'NONE', 'WORKASPACE' ) );
#12 = EDGE_LOOP ( 'NONE', ( #295, #16, #280, #131 ) ) ;
#13 = ORIENTED_EDGE ( 'NONE', *, *, #322, .T. ) ;
#14 = SURFACE_SIDE_STYLE ('',( #320 ) ) ;
#15 = EDGE_LOOP ( 'NONE', ( #303, #352, #129, #78 ) ) ;
#16 = ORIENTED_EDGE ( 'NONE', *, *, #202, .T. ) ;
#17 =( NAMED_UNIT ( * ) SI_UNIT ( $, .STERADIAN. ) SOLID_ANGLE_UNIT ( ) );
#18 = DIRECTION ( 'NONE',  ( -1.000000000000000000, 0.000000000000000000, 0.000000000000000000 ) ) ;
#19 = FILL_AREA_STYLE ('',( #190 ) ) ;
#20 = EDGE_CURVE ( 'NONE', #70, #101, #215, .T. ) ;
#21 = CIRCLE ( 'NONE', #258, 9.000000000000001776 ) ;
#22 = AXIS2_PLACEMENT_3D ( 'NONE', #329, #88, #200 ) ;
#23 = PRESENTATION_LAYER_ASSIGNMENT (  '', '', ( #205 ) ) ;
#24 = FILL_AREA_STYLE_COLOUR ( '', #81 ) ;
#25 = DIRECTION ( 'NONE',  ( 0.000000000000000000, 0.000000000000000000, -1.000000000000000000 ) ) ;
#26 = DIRECTION ( 'NONE',  ( -0.000000000000000000, -1.000000000000000000, -0.000000000000000000 ) ) ;
#27 = UNCERTAINTY_MEASURE_WITH_UNIT (LENGTH_MEASURE( 1.000000000000000082E-05 ), #221, 'distance_accuracy_value', 'NONE');
#28 = MECHANICAL_DESIGN_GEOMETRIC_PRESENTATION_REPRESENTATION (  '', ( #319 ), #358 ) ;
#29 = EDGE_CURVE ( 'NONE', #83, #48, #42, .T. ) ;
#30 = PRODUCT_DEFINITION_FORMATION_WITH_SPECIFIED_SOURCE ( 'ANY', '', #177, .NOT_KNOWN. ) ;
#31 =( LENGTH_UNIT ( ) NAMED_UNIT ( * ) SI_UNIT ( .MILLI., .METRE. ) );
#32 = AXIS2_PLACEMENT_3D ( 'NONE', #264, #212, #326 ) ;
#33 = AXIS2_PLACEMENT_3D ( 'NONE', #135, #85, #108 ) ;
#34 = DIRECTION ( 'NONE',  ( -1.000000000000000000, 0.000000000000000000, 0.000000000000000000 ) ) ;
#35 = LINE ( 'NONE', #94, #147 ) ;
#36 = PLANE ( 'NONE',  #275 ) ;
#37 = VERTEX_POINT ( 'NONE', #254 ) ;
#38 = CARTESIAN_POINT ( 'NONE',  ( 1.102182119232617911E-15, 1.000000000000000000, 9.000000000000001776 ) ) ;
#39 = CARTESIAN_POINT ( 'NONE',  ( 0.000000000000000000, 1.000000000000000000, 0.000000000000000000 ) ) ;
#40 = AXIS2_PLACEMENT_3D ( 'NONE', #349, #154, #345 ) ;
#41 =( GEOMETRIC_REPRESENTATION_CONTEXT ( 3 ) GLOBAL_UNCERTAINTY_ASSIGNED_CONTEXT ( ( #176 ) ) GLOBAL_UNIT_ASSIGNED_CONTEXT ( ( #327, #8, #198 ) ) REPRESENTATION_CONTEXT ( 'NONE', 'WORKASPACE' ) );
#42 = LINE ( 'NONE', #141, #3 ) ;
#43 = CARTESIAN_POINT ( 'NONE',  ( 0.000000000000000000, 0.000000000000000000, -9.000000000000001776 ) ) ;
#44 = DIRECTION ( 'NONE',  ( -0.000000000000000000, -1.000000000000000000, -0.000000000000000000 ) ) ;
#45 = SURFACE_STYLE_FILL_AREA ( #113 ) ;
#46 = ADVANCED_BREP_SHAPE_REPRESENTATION ( '59667', ( #65, #188, #76 ), #310 ) ;
#47 = EDGE_LOOP ( 'NONE', ( #274, #330, #159, #185 ) ) ;
#48 = VERTEX_POINT ( 'NONE', #271 ) ;
#49 =( LENGTH_UNIT ( ) NAMED_UNIT ( * ) SI_UNIT ( .MILLI., .METRE. ) );
#50 = CIRCLE ( 'NONE', #251, 9.000000000000001776 ) ;
#51 = MECHANICAL_DESIGN_GEOMETRIC_PRESENTATION_REPRESENTATION (  '', ( #315 ), #91 ) ;
#52 = DIRECTION ( 'NONE',  ( -1.236440607496819135E-16, 1.000000000000000000, -0.000000000000000000 ) ) ;
#53 = CYLINDRICAL_SURFACE ( 'NONE', #33, 10.00000000000000178 ) ;
#54 = ORIENTED_EDGE ( 'NONE', *, *, #242, .F. ) ;
#55 = DIRECTION ( 'NONE',  ( -1.000000000000000000, 0.000000000000000000, 0.000000000000000000 ) ) ;
#56 = ORIENTED_EDGE ( 'NONE', *, *, #10, .T. ) ;
#57 = MECHANICAL_DESIGN_GEOMETRIC_PRESENTATION_REPRESENTATION (  '', ( #210 ), #103 ) ;
#58 = CARTESIAN_POINT ( 'NONE',  ( 0.000000000000000000, 0.000000000000000000, 0.000000000000000000 ) ) ;
#59 = CARTESIAN_POINT ( 'NONE',  ( 10.00000000000000178, 40.00000000000000000, 1.224646799147353651E-15 ) ) ;
#60 = APPLICATION_CONTEXT ( 'automotive_design' ) ;
#61 = CARTESIAN_POINT ( 'NONE',  ( 0.000000000000000000, 0.000000000000000000, -10.00000000000000178 ) ) ;
#62 = AXIS2_PLACEMENT_3D ( 'NONE', #253, #106, #363 ) ;
#63 = SURFACE_STYLE_FILL_AREA ( #4 ) ;
#64 =( NAMED_UNIT ( * ) SI_UNIT ( $, .STERADIAN. ) SOLID_ANGLE_UNIT ( ) );
#65 = MANIFOLD_SOLID_BREP ( 'Revolve - Cutting Edge', #116 ) ;
#66 = CARTESIAN_POINT ( 'NONE',  ( 6.071532165918824830E-15, 40.00000000000000000, 0.000000000000000000 ) ) ;
#67 = AXIS2_PLACEMENT_3D ( 'NONE', #301, #44, #236 ) ;
#68 = FILL_AREA_STYLE ('',( #208 ) ) ;
#69 = PRESENTATION_STYLE_ASSIGNMENT (( #7 ) ) ;
#70 = VERTEX_POINT ( 'NONE', #59 ) ;
#71 = PRESENTATION_STYLE_ASSIGNMENT (( #213 ) ) ;
#72 = DIRECTION ( 'NONE',  ( -1.236440607496819135E-16, 1.000000000000000000, -0.000000000000000000 ) ) ;
#73 = FACE_OUTER_BOUND ( 'NONE', #127, .T. ) ;
#74 = DIRECTION ( 'NONE',  ( -0.000000000000000000, -1.000000000000000000, -0.000000000000000000 ) ) ;
#75 = CIRCLE ( 'NONE', #67, 10.00000000000000000 ) ;
#76 = AXIS2_PLACEMENT_3D ( 'NONE', #165, #112, #307 ) ;
#77 = ORIENTED_EDGE ( 'NONE', *, *, #20, .T. ) ;
#78 = ORIENTED_EDGE ( 'NONE', *, *, #102, .F. ) ;
#79 =( NAMED_UNIT ( * ) SI_UNIT ( $, .STERADIAN. ) SOLID_ANGLE_UNIT ( ) );
#80 = VECTOR ( 'NONE', #115, 1000.000000000000000 ) ;
#81 = COLOUR_RGB ( '',1.000000000000000000, 0.000000000000000000, 0.000000000000000000 ) ;
#82 = CARTESIAN_POINT ( 'NONE',  ( -1.347111479062089982E-15, 100.0000000000000000, 0.000000000000000000 ) ) ;
#83 = VERTEX_POINT ( 'NONE', #146 ) ;
#84 = UNCERTAINTY_MEASURE_WITH_UNIT (LENGTH_MEASURE( 1.000000000000000082E-05 ), #226, 'distance_accuracy_value', 'NONE');
#85 = DIRECTION ( 'NONE',  ( -0.000000000000000000, -1.000000000000000000, -0.000000000000000000 ) ) ;
#86 = PRESENTATION_STYLE_ASSIGNMENT (( #144 ) ) ;
#87 = ADVANCED_FACE ( 'NONE', ( #260 ), #243, .T. ) ;
#88 = DIRECTION ( 'NONE',  ( -0.000000000000000000, -1.000000000000000000, -0.000000000000000000 ) ) ;
#89 = EDGE_CURVE ( 'NONE', #219, #37, #342, .T. ) ;
#90 = CIRCLE ( 'NONE', #230, 1.000000000000000888 ) ;
#91 =( GEOMETRIC_REPRESENTATION_CONTEXT ( 3 ) GLOBAL_UNCERTAINTY_ASSIGNED_CONTEXT ( ( #171 ) ) GLOBAL_UNIT_ASSIGNED_CONTEXT ( ( #125, #294, #246 ) ) REPRESENTATION_CONTEXT ( 'NONE', 'WORKASPACE' ) );
#92 =( NAMED_UNIT ( * ) SI_UNIT ( $, .STERADIAN. ) SOLID_ANGLE_UNIT ( ) );
#93 = PRODUCT_DEFINITION_SHAPE ( 'NONE', 'NONE',  #335 ) ;
#94 = CARTESIAN_POINT ( 'NONE',  ( 1.224646799147353454E-15, 0.000000000000000000, 10.00000000000000178 ) ) ;
#95 = FILL_AREA_STYLE_COLOUR ( '', #211 ) ;
#96 = AXIS2_PLACEMENT_3D ( 'NONE', #267, #235, #289 ) ;
#97 = CARTESIAN_POINT ( 'NONE',  ( 0.000000000000000000, 40.00000000000000000, -10.00000000000000000 ) ) ;
#98 = PRESENTATION_LAYER_ASSIGNMENT (  '', '', ( #174 ) ) ;
#99 = ORIENTED_EDGE ( 'NONE', *, *, #322, .F. ) ;
#100 = CARTESIAN_POINT ( 'NONE',  ( 0.000000000000000000, 40.00000000000000000, 0.000000000000000000 ) ) ;
#101 = VERTEX_POINT ( 'NONE', #316 ) ;
#102 = EDGE_CURVE ( 'NONE', #247, #219, #143, .T. ) ;
#103 =( GEOMETRIC_REPRESENTATION_CONTEXT ( 3 ) GLOBAL_UNCERTAINTY_ASSIGNED_CONTEXT ( ( #84 ) ) GLOBAL_UNIT_ASSIGNED_CONTEXT ( ( #226, #288, #92 ) ) REPRESENTATION_CONTEXT ( 'NONE', 'WORKASPACE' ) );
#104 = ORIENTED_EDGE ( 'NONE', *, *, #353, .T. ) ;
#105 = SURFACE_STYLE_FILL_AREA ( #249 ) ;
#106 = DIRECTION ( 'NONE',  ( -0.000000000000000000, -1.000000000000000000, -0.000000000000000000 ) ) ;
#107 = EDGE_LOOP ( 'NONE', ( #272, #189, #160, #151 ) ) ;
#108 = DIRECTION ( 'NONE',  ( 0.000000000000000000, 0.000000000000000000, -1.000000000000000000 ) ) ;
#109 = APPLICATION_PROTOCOL_DEFINITION ( 'draft international standard', 'automotive_design', 1998, #357 ) ;
#110 = ORIENTED_EDGE ( 'NONE', *, *, #302, .T. ) ;
#111 = PRESENTATION_STYLE_ASSIGNMENT (( #157 ) ) ;
#112 = DIRECTION ( 'NONE',  ( 0.000000000000000000, 0.000000000000000000, 1.000000000000000000 ) ) ;
#113 = FILL_AREA_STYLE ('',( #186 ) ) ;
#114 =( NAMED_UNIT ( * ) PLANE_ANGLE_UNIT ( ) SI_UNIT ( $, .RADIAN. ) );
#115 = DIRECTION ( 'NONE',  ( -0.000000000000000000, -1.000000000000000000, -0.000000000000000000 ) ) ;
#116 = CLOSED_SHELL ( 'NONE', ( #333, #87, #120, #362, #266, #346 ) ) ;
#117 = STYLED_ITEM ( 'NONE', ( #229 ), #87 ) ;
#118 = AXIS2_PLACEMENT_3D ( 'NONE', #187, #164, #311 ) ;
#119 = DIRECTION ( 'NONE',  ( 0.000000000000000000, -0.000000000000000000, 1.000000000000000000 ) ) ;
#120 = ADVANCED_FACE ( 'NONE', ( #2 ), #255, .T. ) ;
#121 = CIRCLE ( 'NONE', #139, 10.00000000000000355 ) ;
#122 = PLANE ( 'NONE',  #194 ) ;
#123 = DIRECTION ( 'NONE',  ( -0.000000000000000000, -1.000000000000000000, -0.000000000000000000 ) ) ;
#124 = CARTESIAN_POINT ( 'NONE',  ( 0.000000000000000000, 1.000000000000000000, -10.00000000000000178 ) ) ;
#125 =( LENGTH_UNIT ( ) NAMED_UNIT ( * ) SI_UNIT ( .MILLI., .METRE. ) );
#126 = SURFACE_SIDE_STYLE ('',( #9 ) ) ;
#127 = EDGE_LOOP ( 'NONE', ( #104, #77, #99, #312 ) ) ;
#128 = CYLINDRICAL_SURFACE ( 'NONE', #32, 9.999999999999998224 ) ;
#129 = ORIENTED_EDGE ( 'NONE', *, *, #89, .F. ) ;
#130 = EDGE_CURVE ( 'NONE', #70, #83, #199, .T. ) ;
#131 = ORIENTED_EDGE ( 'NONE', *, *, #261, .F. ) ;
#132 =( NAMED_UNIT ( * ) SI_UNIT ( $, .STERADIAN. ) SOLID_ANGLE_UNIT ( ) );
#133 = PRESENTATION_LAYER_ASSIGNMENT (  '', '', ( #210 ) ) ;
#134 = ORIENTED_EDGE ( 'NONE', *, *, #232, .T. ) ;
#135 = CARTESIAN_POINT ( 'NONE',  ( 0.000000000000000000, 0.000000000000000000, 0.000000000000000000 ) ) ;
#136 = PRODUCT_CONTEXT ( 'NONE', #60, 'mechanical' ) ;
#137 = CYLINDRICAL_SURFACE ( 'NONE', #364, 10.00000000000000178 ) ;
#138 = VERTEX_POINT ( 'NONE', #43 ) ;
#139 = AXIS2_PLACEMENT_3D ( 'NONE', #82, #52, #18 ) ;
#140 = DIRECTION ( 'NONE',  ( 0.000000000000000000, 0.000000000000000000, -1.000000000000000000 ) ) ;
#141 = CARTESIAN_POINT ( 'NONE',  ( -10.00000000000000000, 100.0000000000000000, 0.000000000000000000 ) ) ;
#142 = DIRECTION ( 'NONE',  ( 0.000000000000000000, 0.000000000000000000, -1.000000000000000000 ) ) ;
#143 = LINE ( 'NONE', #61, #80 ) ;
#144 = SURFACE_STYLE_USAGE ( .BOTH. , #225 ) ;
#145 = SURFACE_SIDE_STYLE ('',( #63 ) ) ;
#146 = CARTESIAN_POINT ( 'NONE',  ( -9.999999999999987566, 40.00000000000000000, 0.000000000000000000 ) ) ;
#147 = VECTOR ( 'NONE', #123, 1000.000000000000000 ) ;
#148 = FACE_OUTER_BOUND ( 'NONE', #297, .T. ) ;
#149 = CARTESIAN_POINT ( 'NONE',  ( 1.224646799147353256E-15, 40.00000000000000000, 10.00000000000000000 ) ) ;
#150 = FACE_OUTER_BOUND ( 'NONE', #47, .T. ) ;
#151 = ORIENTED_EDGE ( 'NONE', *, *, #5, .F. ) ;
#152 = DIRECTION ( 'NONE',  ( -1.224646799147353454E-16, 0.000000000000000000, -1.000000000000000000 ) ) ;
#153 = DIRECTION ( 'NONE',  ( -1.236440607496819135E-16, 1.000000000000000000, -0.000000000000000000 ) ) ;
#154 = DIRECTION ( 'NONE',  ( -0.000000000000000000, -1.000000000000000000, -0.000000000000000000 ) ) ;
#155 = FACE_OUTER_BOUND ( 'NONE', #12, .T. ) ;
#156 = EDGE_LOOP ( 'NONE', ( #239, #134, #214, #195 ) ) ;
#157 = SURFACE_STYLE_USAGE ( .BOTH. , #304 ) ;
#158 = SHAPE_DEFINITION_REPRESENTATION ( #93, #46 ) ;
#159 = ORIENTED_EDGE ( 'NONE', *, *, #29, .T. ) ;
#160 = ORIENTED_EDGE ( 'NONE', *, *, #10, .F. ) ;
#161 =( LENGTH_UNIT ( ) NAMED_UNIT ( * ) SI_UNIT ( .MILLI., .METRE. ) );
#162 = PRESENTATION_LAYER_ASSIGNMENT (  '', '', ( #117 ) ) ;
#163 = CIRCLE ( 'NONE', #370, 9.999999999999994671 ) ;
#164 = DIRECTION ( 'NONE',  ( -1.236440607496819135E-16, 1.000000000000000000, 0.000000000000000000 ) ) ;
#165 = CARTESIAN_POINT ( 'NONE',  ( 0.000000000000000000, 0.000000000000000000, 0.000000000000000000 ) ) ;
#166 = PRESENTATION_STYLE_ASSIGNMENT (( #240 ) ) ;
#167 = VERTEX_POINT ( 'NONE', #149 ) ;
#168 = FACE_OUTER_BOUND ( 'NONE', #15, .T. ) ;
#169 = DIRECTION ( 'NONE',  ( -1.000000000000000000, 0.000000000000000000, 0.000000000000000000 ) ) ;
#170 = MECHANICAL_DESIGN_GEOMETRIC_PRESENTATION_REPRESENTATION (  '', ( #117 ), #263 ) ;
#171 = UNCERTAINTY_MEASURE_WITH_UNIT (LENGTH_MEASURE( 1.000000000000000082E-05 ), #125, 'distance_accuracy_value', 'NONE');
#172 = PRESENTATION_STYLE_ASSIGNMENT (( #257 ) ) ;
#173 = MECHANICAL_DESIGN_GEOMETRIC_PRESENTATION_REPRESENTATION (  '', ( #209 ), #11 ) ;
#174 = STYLED_ITEM ( 'NONE', ( #71 ), #346 ) ;
#175 = EDGE_CURVE ( 'NONE', #167, #37, #35, .T. ) ;
#176 = UNCERTAINTY_MEASURE_WITH_UNIT (LENGTH_MEASURE( 1.000000000000000082E-05 ), #327, 'distance_accuracy_value', 'NONE');
#177 = PRODUCT ( '59667', '59667', '', ( #136 ) ) ;
#178 = EDGE_CURVE ( 'NONE', #37, #191, #90, .T. ) ;
#179 = AXIS2_PLACEMENT_3D ( 'NONE', #339, #26, #142 ) ;
#180 =( GEOMETRIC_REPRESENTATION_CONTEXT ( 3 ) GLOBAL_UNCERTAINTY_ASSIGNED_CONTEXT ( ( #201 ) ) GLOBAL_UNIT_ASSIGNED_CONTEXT ( ( #161, #220, #276 ) ) REPRESENTATION_CONTEXT ( 'NONE', 'WORKASPACE' ) );
#181 = DIRECTION ( 'NONE',  ( -1.236440607496819135E-16, 1.000000000000000000, -0.000000000000000000 ) ) ;
#182 = EDGE_LOOP ( 'NONE', ( #56, #238 ) ) ;
#183 = ADVANCED_FACE ( 'NONE', ( #73 ), #354, .T. ) ;
#184 = DIRECTION ( 'NONE',  ( -1.000000000000000000, 0.000000000000000000, 0.000000000000000000 ) ) ;
#185 = ORIENTED_EDGE ( 'NONE', *, *, #302, .F. ) ;
#186 = FILL_AREA_STYLE_COLOUR ( '', #216 ) ;
#187 = CARTESIAN_POINT ( 'NONE',  ( 6.071532165918824830E-15, 40.00000000000000000, 0.000000000000000000 ) ) ;
#188 = MANIFOLD_SOLID_BREP ( 'Revolve - Tool Body (Straight Shanked)', #227 ) ;
#189 = ORIENTED_EDGE ( 'NONE', *, *, #178, .T. ) ;
#190 = FILL_AREA_STYLE_COLOUR ( '', #298 ) ;
#191 = VERTEX_POINT ( 'NONE', #347 ) ;
#192 = ADVANCED_FACE ( 'NONE', ( #150 ), #128, .T. ) ;
#193 = PRESENTATION_LAYER_ASSIGNMENT (  '', '', ( #369 ) ) ;
#194 = AXIS2_PLACEMENT_3D ( 'NONE', #100, #366, #119 ) ;
#195 = ORIENTED_EDGE ( 'NONE', *, *, #202, .F. ) ;
#196 = CARTESIAN_POINT ( 'NONE',  ( -1.347111479062089982E-15, 100.0000000000000000, 0.000000000000000000 ) ) ;
#197 =( NAMED_UNIT ( * ) SI_UNIT ( $, .STERADIAN. ) SOLID_ANGLE_UNIT ( ) );
#198 =( NAMED_UNIT ( * ) SI_UNIT ( $, .STERADIAN. ) SOLID_ANGLE_UNIT ( ) );
#199 = CIRCLE ( 'NONE', #270, 9.999999999999994671 ) ;
#200 = DIRECTION ( 'NONE',  ( 0.000000000000000000, 0.000000000000000000, -1.000000000000000000 ) ) ;
#201 = UNCERTAINTY_MEASURE_WITH_UNIT (LENGTH_MEASURE( 1.000000000000000082E-05 ), #161, 'distance_accuracy_value', 'NONE');
#202 = EDGE_CURVE ( 'NONE', #37, #219, #228, .T. ) ;
#203 = FILL_AREA_STYLE ('',( #286 ) ) ;
#204 = CIRCLE ( 'NONE', #40, 10.00000000000000000 ) ;
#205 = STYLED_ITEM ( 'NONE', ( #166 ), #333 ) ;
#206 = PRODUCT_DEFINITION_CONTEXT ( 'detailed design', #357, 'design' ) ;
#207 = FILL_AREA_STYLE ('',( #300 ) ) ;
#208 = FILL_AREA_STYLE_COLOUR ( '', #231 ) ;
#209 = STYLED_ITEM ( 'NONE', ( #86 ), #65 ) ;
#210 = STYLED_ITEM ( 'NONE', ( #172 ), #120 ) ;
#211 = COLOUR_RGB ( '',1.000000000000000000, 0.000000000000000000, 0.000000000000000000 ) ;
#212 = DIRECTION ( 'NONE',  ( -1.236440607496819135E-16, 1.000000000000000000, -0.000000000000000000 ) ) ;
#213 = SURFACE_STYLE_USAGE ( .BOTH. , #351 ) ;
#214 = ORIENTED_EDGE ( 'NONE', *, *, #102, .T. ) ;
#215 = LINE ( 'NONE', #269, #368 ) ;
#216 = COLOUR_RGB ( '',0.7921568627450980005, 0.8196078431372548767, 0.9333333333333333481 ) ;
#217 = AXIS2_PLACEMENT_3D ( 'NONE', #39, #74, #268 ) ;
#218 = DIRECTION ( 'NONE',  ( 0.000000000000000000, 0.000000000000000000, -1.000000000000000000 ) ) ;
#219 = VERTEX_POINT ( 'NONE', #124 ) ;
#220 =( NAMED_UNIT ( * ) PLANE_ANGLE_UNIT ( ) SI_UNIT ( $, .RADIAN. ) );
#221 =( LENGTH_UNIT ( ) NAMED_UNIT ( * ) SI_UNIT ( .MILLI., .METRE. ) );
#222 = FACE_OUTER_BOUND ( 'NONE', #241, .T. ) ;
#223 = DIRECTION ( 'NONE',  ( 1.000000000000000000, 1.236440607496819135E-16, 0.000000000000000000 ) ) ;
#224 = CIRCLE ( 'NONE', #259, 10.00000000000000355 ) ;
#225 = SURFACE_SIDE_STYLE ('',( #45 ) ) ;
#226 =( LENGTH_UNIT ( ) NAMED_UNIT ( * ) SI_UNIT ( .MILLI., .METRE. ) );
#227 = CLOSED_SHELL ( 'NONE', ( #183, #318, #192, #250 ) ) ;
#228 = CIRCLE ( 'NONE', #217, 10.00000000000000178 ) ;
#229 = PRESENTATION_STYLE_ASSIGNMENT (( #340 ) ) ;
#230 = AXIS2_PLACEMENT_3D ( 'NONE', #38, #234, #152 ) ;
#231 = COLOUR_RGB ( '',1.000000000000000000, 0.000000000000000000, 0.000000000000000000 ) ;
#232 = EDGE_CURVE ( 'NONE', #167, #247, #75, .T. ) ;
#233 = SURFACE_STYLE_USAGE ( .BOTH. , #14 ) ;
#234 = DIRECTION ( 'NONE',  ( 1.000000000000000000, 0.000000000000000000, -1.224646799147353207E-16 ) ) ;
#235 = DIRECTION ( 'NONE',  ( -1.236440607496819135E-16, 1.000000000000000000, -0.000000000000000000 ) ) ;
#236 = DIRECTION ( 'NONE',  ( 0.000000000000000000, 0.000000000000000000, -1.000000000000000000 ) ) ;
#237 = PRESENTATION_LAYER_ASSIGNMENT (  '', '', ( #209 ) ) ;
#238 = ORIENTED_EDGE ( 'NONE', *, *, #261, .T. ) ;
#239 = ORIENTED_EDGE ( 'NONE', *, *, #175, .F. ) ;
#240 = SURFACE_STYLE_USAGE ( .BOTH. , #306 ) ;
#241 = EDGE_LOOP ( 'NONE', ( #360, #305 ) ) ;
#242 = EDGE_CURVE ( 'NONE', #247, #167, #204, .T. ) ;
#243 = TOROIDAL_SURFACE ( 'NONE', #179, 9.000000000000001776, 1.000000000000000444 ) ;
#244 = MECHANICAL_DESIGN_GEOMETRIC_PRESENTATION_REPRESENTATION (  '', ( #205 ), #180 ) ;
#245 = DIRECTION ( 'NONE',  ( -0.000000000000000000, -1.000000000000000000, -0.000000000000000000 ) ) ;
#246 =( NAMED_UNIT ( * ) SI_UNIT ( $, .STERADIAN. ) SOLID_ANGLE_UNIT ( ) );
#247 = VERTEX_POINT ( 'NONE', #97 ) ;
#248 = APPLICATION_PROTOCOL_DEFINITION ( 'draft international standard', 'automotive_design', 1998, #60 ) ;
#249 = FILL_AREA_STYLE ('',( #24 ) ) ;
#250 = ADVANCED_FACE ( 'NONE', ( #323 ), #36, .F. ) ;
#251 = AXIS2_PLACEMENT_3D ( 'NONE', #334, #245, #218 ) ;
#252 = PRESENTATION_LAYER_ASSIGNMENT (  '', '', ( #315 ) ) ;
#253 = CARTESIAN_POINT ( 'NONE',  ( 0.000000000000000000, 1.000000000000000000, 0.000000000000000000 ) ) ;
#254 = CARTESIAN_POINT ( 'NONE',  ( 1.224646799147353256E-15, 1.000000000000000000, 10.00000000000000178 ) ) ;
#255 = PLANE ( 'NONE',  #338 ) ;
#256 = UNCERTAINTY_MEASURE_WITH_UNIT (LENGTH_MEASURE( 1.000000000000000082E-05 ), #49, 'distance_accuracy_value', 'NONE');
#257 = SURFACE_STYLE_USAGE ( .BOTH. , #1 ) ;
#258 = AXIS2_PLACEMENT_3D ( 'NONE', #325, #355, #25 ) ;
#259 = AXIS2_PLACEMENT_3D ( 'NONE', #196, #277, #55 ) ;
#260 = FACE_OUTER_BOUND ( 'NONE', #107, .T. ) ;
#261 = EDGE_CURVE ( 'NONE', #191, #138, #50, .T. ) ;
#262 =( NAMED_UNIT ( * ) PLANE_ANGLE_UNIT ( ) SI_UNIT ( $, .RADIAN. ) );
#263 =( GEOMETRIC_REPRESENTATION_CONTEXT ( 3 ) GLOBAL_UNCERTAINTY_ASSIGNED_CONTEXT ( ( #278 ) ) GLOBAL_UNIT_ASSIGNED_CONTEXT ( ( #317, #262, #197 ) ) REPRESENTATION_CONTEXT ( 'NONE', 'WORKASPACE' ) );
#264 = CARTESIAN_POINT ( 'NONE',  ( -1.347111479062090180E-15, 100.0000000000000000, 0.000000000000000000 ) ) ;
#265 = UNCERTAINTY_MEASURE_WITH_UNIT (LENGTH_MEASURE( 1.000000000000000082E-05 ), #291, 'distance_accuracy_value', 'NONE');
#266 = ADVANCED_FACE ( 'NONE', ( #283 ), #53, .T. ) ;
#267 = CARTESIAN_POINT ( 'NONE',  ( -1.347111479062090180E-15, 100.0000000000000000, 0.000000000000000000 ) ) ;
#268 = DIRECTION ( 'NONE',  ( 0.000000000000000000, 0.000000000000000000, -1.000000000000000000 ) ) ;
#269 = CARTESIAN_POINT ( 'NONE',  ( 9.999999999999996447, 100.0000000000000000, 1.224646799147353059E-15 ) ) ;
#270 = AXIS2_PLACEMENT_3D ( 'NONE', #66, #181, #184 ) ;
#271 = CARTESIAN_POINT ( 'NONE',  ( -10.00000000000000533, 100.0000000000000000, 0.000000000000000000 ) ) ;
#272 = ORIENTED_EDGE ( 'NONE', *, *, #89, .T. ) ;
#273 = PRODUCT_RELATED_PRODUCT_CATEGORY ( 'part', '', ( #177 ) ) ;
#274 = ORIENTED_EDGE ( 'NONE', *, *, #20, .F. ) ;
#275 = AXIS2_PLACEMENT_3D ( 'NONE', #332, #279, #223 ) ;
#276 =( NAMED_UNIT ( * ) SI_UNIT ( $, .STERADIAN. ) SOLID_ANGLE_UNIT ( ) );
#277 = DIRECTION ( 'NONE',  ( -1.236440607496819135E-16, 1.000000000000000000, -0.000000000000000000 ) ) ;
#278 = UNCERTAINTY_MEASURE_WITH_UNIT (LENGTH_MEASURE( 1.000000000000000082E-05 ), #317, 'distance_accuracy_value', 'NONE');
#279 = DIRECTION ( 'NONE',  ( 1.236440607496819135E-16, -1.000000000000000000, 0.000000000000000000 ) ) ;
#280 = ORIENTED_EDGE ( 'NONE', *, *, #5, .T. ) ;
#281 = AXIS2_PLACEMENT_3D ( 'NONE', #331, #169, #284 ) ;
#282 =( GEOMETRIC_REPRESENTATION_CONTEXT ( 3 ) GLOBAL_UNCERTAINTY_ASSIGNED_CONTEXT ( ( #256 ) ) GLOBAL_UNIT_ASSIGNED_CONTEXT ( ( #49, #313, #17 ) ) REPRESENTATION_CONTEXT ( 'NONE', 'WORKASPACE' ) );
#283 = FACE_OUTER_BOUND ( 'NONE', #156, .T. ) ;
#284 = DIRECTION ( 'NONE',  ( 0.000000000000000000, 0.000000000000000000, 1.000000000000000000 ) ) ;
#285 = DIRECTION ( 'NONE',  ( -0.000000000000000000, -1.000000000000000000, -0.000000000000000000 ) ) ;
#286 = FILL_AREA_STYLE_COLOUR ( '', #287 ) ;
#287 = COLOUR_RGB ( '',1.000000000000000000, 0.000000000000000000, 0.000000000000000000 ) ;
#288 =( NAMED_UNIT ( * ) PLANE_ANGLE_UNIT ( ) SI_UNIT ( $, .RADIAN. ) );
#289 = DIRECTION ( 'NONE',  ( -1.000000000000000000, 0.000000000000000000, 0.000000000000000000 ) ) ;
#290 = PRESENTATION_LAYER_ASSIGNMENT (  '', '', ( #319 ) ) ;
#291 =( LENGTH_UNIT ( ) NAMED_UNIT ( * ) SI_UNIT ( .MILLI., .METRE. ) );
#292 = SURFACE_STYLE_FILL_AREA ( #68 ) ;
#293 = DIRECTION ( 'NONE',  ( 0.000000000000000000, -1.000000000000000000, -0.000000000000000000 ) ) ;
#294 =( NAMED_UNIT ( * ) PLANE_ANGLE_UNIT ( ) SI_UNIT ( $, .RADIAN. ) );
#295 = ORIENTED_EDGE ( 'NONE', *, *, #178, .F. ) ;
#296 = FILL_AREA_STYLE ('',( #95 ) ) ;
#297 = EDGE_LOOP ( 'NONE', ( #54, #356 ) ) ;
#298 = COLOUR_RGB ( '',1.000000000000000000, 0.000000000000000000, 0.000000000000000000 ) ;
#299 = TOROIDAL_SURFACE ( 'NONE', #62, 9.000000000000001776, 1.000000000000000444 ) ;
#300 = FILL_AREA_STYLE_COLOUR ( '', #309 ) ;
#301 = CARTESIAN_POINT ( 'NONE',  ( 0.000000000000000000, 40.00000000000000000, 0.000000000000000000 ) ) ;
#302 = EDGE_CURVE ( 'NONE', #101, #48, #121, .T. ) ;
#303 = ORIENTED_EDGE ( 'NONE', *, *, #242, .T. ) ;
#304 = SURFACE_SIDE_STYLE ('',( #365 ) ) ;
#305 = ORIENTED_EDGE ( 'NONE', *, *, #130, .F. ) ;
#306 = SURFACE_SIDE_STYLE ('',( #105 ) ) ;
#307 = DIRECTION ( 'NONE',  ( 1.000000000000000000, 0.000000000000000000, 0.000000000000000000 ) ) ;
#308 = EDGE_LOOP ( 'NONE', ( #13, #110 ) ) ;
#309 = COLOUR_RGB ( '',0.7921568627450980005, 0.8196078431372548767, 0.9333333333333333481 ) ;
#310 =( GEOMETRIC_REPRESENTATION_CONTEXT ( 3 ) GLOBAL_UNCERTAINTY_ASSIGNED_CONTEXT ( ( #27 ) ) GLOBAL_UNIT_ASSIGNED_CONTEXT ( ( #221, #114, #79 ) ) REPRESENTATION_CONTEXT ( 'NONE', 'WORKASPACE' ) );
#311 = DIRECTION ( 'NONE',  ( -1.000000000000000000, -1.236440607496819135E-16, 0.000000000000000000 ) ) ;
#312 = ORIENTED_EDGE ( 'NONE', *, *, #29, .F. ) ;
#313 =( NAMED_UNIT ( * ) PLANE_ANGLE_UNIT ( ) SI_UNIT ( $, .RADIAN. ) );
#314 = COLOUR_RGB ( '',1.000000000000000000, 0.000000000000000000, 0.000000000000000000 ) ;
#315 = STYLED_ITEM ( 'NONE', ( #69 ), #362 ) ;
#316 = CARTESIAN_POINT ( 'NONE',  ( 10.00000000000000355, 100.0000000000000000, 1.224646799147353651E-15 ) ) ;
#317 =( LENGTH_UNIT ( ) NAMED_UNIT ( * ) SI_UNIT ( .MILLI., .METRE. ) );
#318 = ADVANCED_FACE ( 'NONE', ( #222 ), #359, .F. ) ;
#319 = STYLED_ITEM ( 'NONE', ( #344 ), #188 ) ;
#320 = SURFACE_STYLE_FILL_AREA ( #207 ) ;
#321 = CIRCLE ( 'NONE', #281, 1.000000000000000888 ) ;
#322 = EDGE_CURVE ( 'NONE', #48, #101, #224, .T. ) ;
#323 = FACE_OUTER_BOUND ( 'NONE', #308, .T. ) ;
#324 = DIRECTION ( 'NONE',  ( 0.000000000000000000, 0.000000000000000000, -1.000000000000000000 ) ) ;
#325 = CARTESIAN_POINT ( 'NONE',  ( 0.000000000000000000, 0.000000000000000000, 0.000000000000000000 ) ) ;
#326 = DIRECTION ( 'NONE',  ( -1.000000000000000000, 0.000000000000000000, 0.000000000000000000 ) ) ;
#327 =( LENGTH_UNIT ( ) NAMED_UNIT ( * ) SI_UNIT ( .MILLI., .METRE. ) );
#328 = DIRECTION ( 'NONE',  ( -1.236440607496819135E-16, 1.000000000000000000, -0.000000000000000000 ) ) ;
#329 = CARTESIAN_POINT ( 'NONE',  ( 0.000000000000000000, 1.000000000000000000, 0.000000000000000000 ) ) ;
#330 = ORIENTED_EDGE ( 'NONE', *, *, #130, .T. ) ;
#331 = CARTESIAN_POINT ( 'NONE',  ( 0.000000000000000000, 1.000000000000000000, -9.000000000000001776 ) ) ;
#332 = CARTESIAN_POINT ( 'NONE',  ( 10.00000000000000178, 100.0000000000000000, 0.000000000000000000 ) ) ;
#333 = ADVANCED_FACE ( 'NONE', ( #168 ), #137, .T. ) ;
#334 = CARTESIAN_POINT ( 'NONE',  ( 0.000000000000000000, 0.000000000000000000, 0.000000000000000000 ) ) ;
#335 = PRODUCT_DEFINITION ( 'UNKNOWN', '', #30, #206 ) ;
#336 = UNCERTAINTY_MEASURE_WITH_UNIT (LENGTH_MEASURE( 1.000000000000000082E-05 ), #31, 'distance_accuracy_value', 'NONE');
#337 =( NAMED_UNIT ( * ) PLANE_ANGLE_UNIT ( ) SI_UNIT ( $, .RADIAN. ) );
#338 = AXIS2_PLACEMENT_3D ( 'NONE', #6, #293, #324 ) ;
#339 = CARTESIAN_POINT ( 'NONE',  ( 0.000000000000000000, 1.000000000000000000, 0.000000000000000000 ) ) ;
#340 = SURFACE_STYLE_USAGE ( .BOTH. , #145 ) ;
#341 = SURFACE_STYLE_FILL_AREA ( #203 ) ;
#342 = CIRCLE ( 'NONE', #22, 10.00000000000000178 ) ;
#343 = MECHANICAL_DESIGN_GEOMETRIC_PRESENTATION_REPRESENTATION (  '', ( #174 ), #41 ) ;
#344 = PRESENTATION_STYLE_ASSIGNMENT (( #233 ) ) ;
#345 = DIRECTION ( 'NONE',  ( 0.000000000000000000, 0.000000000000000000, -1.000000000000000000 ) ) ;
#346 = ADVANCED_FACE ( 'NONE', ( #148 ), #122, .T. ) ;
#347 = CARTESIAN_POINT ( 'NONE',  ( 1.163414459189985682E-15, 0.000000000000000000, 9.000000000000001776 ) ) ;
#348 = CARTESIAN_POINT ( 'NONE',  ( 6.071532165918824830E-15, 40.00000000000000000, 0.000000000000000000 ) ) ;
#349 = CARTESIAN_POINT ( 'NONE',  ( 0.000000000000000000, 40.00000000000000000, 0.000000000000000000 ) ) ;
#350 = MECHANICAL_DESIGN_GEOMETRIC_PRESENTATION_REPRESENTATION (  '', ( #369 ), #282 ) ;
#351 = SURFACE_SIDE_STYLE ('',( #292 ) ) ;
#352 = ORIENTED_EDGE ( 'NONE', *, *, #175, .T. ) ;
#353 = EDGE_CURVE ( 'NONE', #83, #70, #163, .T. ) ;
#354 = CYLINDRICAL_SURFACE ( 'NONE', #96, 9.999999999999998224 ) ;
#355 = DIRECTION ( 'NONE',  ( -0.000000000000000000, -1.000000000000000000, -0.000000000000000000 ) ) ;
#356 = ORIENTED_EDGE ( 'NONE', *, *, #232, .F. ) ;
#357 = APPLICATION_CONTEXT ( 'automotive_design' ) ;
#358 =( GEOMETRIC_REPRESENTATION_CONTEXT ( 3 ) GLOBAL_UNCERTAINTY_ASSIGNED_CONTEXT ( ( #265 ) ) GLOBAL_UNIT_ASSIGNED_CONTEXT ( ( #291, #361, #132 ) ) REPRESENTATION_CONTEXT ( 'NONE', 'WORKASPACE' ) );
#359 = PLANE ( 'NONE',  #118 ) ;
#360 = ORIENTED_EDGE ( 'NONE', *, *, #353, .F. ) ;
#361 =( NAMED_UNIT ( * ) PLANE_ANGLE_UNIT ( ) SI_UNIT ( $, .RADIAN. ) );
#362 = ADVANCED_FACE ( 'NONE', ( #155 ), #299, .T. ) ;
#363 = DIRECTION ( 'NONE',  ( 0.000000000000000000, 0.000000000000000000, -1.000000000000000000 ) ) ;
#364 = AXIS2_PLACEMENT_3D ( 'NONE', #58, #285, #140 ) ;
#365 = SURFACE_STYLE_FILL_AREA ( #19 ) ;
#366 = DIRECTION ( 'NONE',  ( 0.000000000000000000, 1.000000000000000000, 0.000000000000000000 ) ) ;
#367 = FILL_AREA_STYLE_COLOUR ( '', #314 ) ;
#368 = VECTOR ( 'NONE', #72, 1000.000000000000000 ) ;
#369 = STYLED_ITEM ( 'NONE', ( #111 ), #266 ) ;
#370 = AXIS2_PLACEMENT_3D ( 'NONE', #348, #328, #34 ) ;
ENDSEC;
END-ISO-10303-21;
