ISO-10303-21;
HEADER;
FILE_DESCRIPTION (( 'STEP AP214' ),
    '1' );
FILE_NAME ('Micro_DCM-013.STEP',
    '2021-08-31T17:23:08',
    ( '' ),
    ( '' ),
    'SwSTEP 2.0',
    'SolidWorks 2020',
    '' );
FILE_SCHEMA (( 'AUTOMOTIVE_DESIGN' ));
ENDSEC;

DATA;
#1 = FILL_AREA_STYLE_COLOUR ( '', #12 ) ;
#2 = VERTEX_POINT ( 'NONE', #92 ) ;
#3 = DIRECTION ( 'NONE',  ( 1.239087977630706367E-16, 0.0000000000000000000, 1.000000000000000000 ) ) ;
#4 = AXIS2_PLACEMENT_3D ( 'NONE', #332, #208, #213 ) ;
#5 = CARTESIAN_POINT ( 'NONE',  ( 9.637264082552590622E-18, 0.0000000000000000000, 1.300175923177898429 ) ) ;
#6 = CIRCLE ( 'NONE', #220, 0.02460649999999999990 ) ;
#7 = ADVANCED_FACE ( 'NONE', ( #122 ), #393, .T. ) ;
#8 = DIRECTION ( 'NONE',  ( 0.8571673007021137769, 0.0000000000000000000, -0.5150380749100517130 ) ) ;
#9 = CARTESIAN_POINT ( 'NONE',  ( 0.0000000000000000000, 0.0000000000000000000, 0.0000000000000000000 ) ) ;
#10 = FACE_OUTER_BOUND ( 'NONE', #206, .T. ) ;
#11 = CONICAL_SURFACE ( 'NONE', #231, 0.02460649999999999990, 0.5235987755983023684 ) ;
#12 = COLOUR_RGB ( '',0.7921568627450980005, 0.8196078431372548767, 0.9333333333333333481 ) ;
#13 = CARTESIAN_POINT ( 'NONE',  ( 1.832001093861246868E-18, 0.0000000000000000000, 0.01478507682210157374 ) ) ;
#14 = CARTESIAN_POINT ( 'NONE',  ( 0.0000000000000000000, 0.0000000000000000000, 1.377952999999999983 ) ) ;
#15 = DIRECTION ( 'NONE',  ( 1.239087977630706367E-16, 0.0000000000000000000, 1.000000000000000000 ) ) ;
#16 = EDGE_CURVE ( 'NONE', #203, #2, #219, .T. ) ;
#17 = AXIS2_PLACEMENT_3D ( 'NONE', #310, #247, #113 ) ;
#18 = VECTOR ( 'NONE', #322, 39.37007874015748143 ) ;
#19 = DIRECTION ( 'NONE',  ( 0.5000000000000031086, 0.0000000000000000000, -0.8660254037844368202 ) ) ;
#20 = ORIENTED_EDGE ( 'NONE', *, *, #345, .F. ) ;
#21 = EDGE_CURVE ( 'NONE', #174, #239, #270, .T. ) ;
#22 = CARTESIAN_POINT ( 'NONE',  ( 1.766423686986990336E-17, 0.0000000000000000000, 1.235394624898611404 ) ) ;
#23 = ORIENTED_EDGE ( 'NONE', *, *, #234, .F. ) ;
#24 = AXIS2_PLACEMENT_3D ( 'NONE', #5, #396, #60 ) ;
#25 = CIRCLE ( 'NONE', #309, 0.02460649999999999990 ) ;
#26 = AXIS2_PLACEMENT_3D ( 'NONE', #217, #178, #212 ) ;
#27 = DIRECTION ( 'NONE',  ( 1.239087977630706367E-16, 0.0000000000000000000, 1.000000000000000000 ) ) ;
#28 = EDGE_LOOP ( 'NONE', ( #311, #108, #30 ) ) ;
#29 = DIRECTION ( 'NONE',  ( -1.239087977630706367E-16, -0.0000000000000000000, -1.000000000000000000 ) ) ;
#30 = ORIENTED_EDGE ( 'NONE', *, *, #181, .F. ) ;
#31 = ORIENTED_EDGE ( 'NONE', *, *, #46, .T. ) ;
#32 = ADVANCED_FACE ( 'NONE', ( #89 ), #65, .T. ) ;
#33 = AXIS2_PLACEMENT_3D ( 'NONE', #229, #291, #114 ) ;
#34 = DIRECTION ( 'NONE',  ( -1.239087977630706367E-16, -0.0000000000000000000, -1.000000000000000000 ) ) ;
#35 = SHAPE_DEFINITION_REPRESENTATION ( #135, #152 ) ;
#36 = DIRECTION ( 'NONE',  ( 0.8571673007021137769, 0.0000000000000000000, 0.5150380749100517130 ) ) ;
#37 = DIRECTION ( 'NONE',  ( -0.0000000000000000000, -0.0000000000000000000, -1.000000000000000000 ) ) ;
#38 = CARTESIAN_POINT ( 'NONE',  ( 1.766423686986990336E-17, 0.0000000000000000000, 1.235394624898611404 ) ) ;
#39 = CIRCLE ( 'NONE', #272, 0.02460649999999999990 ) ;
#40 = ORIENTED_EDGE ( 'NONE', *, *, #234, .T. ) ;
#41 = DIRECTION ( 'NONE',  ( -1.000000000000000000, 0.0000000000000000000, 1.239087977630706367E-16 ) ) ;
#42 = EDGE_CURVE ( 'NONE', #116, #167, #125, .T. ) ;
#43 = CYLINDRICAL_SURFACE ( 'NONE', #120, 0.02460649999999999990 ) ;
#44 = MECHANICAL_DESIGN_GEOMETRIC_PRESENTATION_REPRESENTATION (  '', ( #233 ), #141 ) ;
#45 = DIRECTION ( 'NONE',  ( 1.000000000000000000, 0.0000000000000000000, 0.0000000000000000000 ) ) ;
#46 = EDGE_CURVE ( 'NONE', #239, #203, #93, .T. ) ;
#47 = LINE ( 'NONE', #190, #386 ) ;
#48 = DIRECTION ( 'NONE',  ( -1.000000000000000000, 0.0000000000000000000, 8.673546603743749283E-17 ) ) ;
#49 = FACE_OUTER_BOUND ( 'NONE', #109, .T. ) ;
#50 = ADVANCED_FACE ( 'NONE', ( #245 ), #360, .T. ) ;
#51 = DIRECTION ( 'NONE',  ( 1.239087977630706367E-16, 0.0000000000000000000, -1.000000000000000000 ) ) ;
#52 = EDGE_LOOP ( 'NONE', ( #79, #241, #143, #23 ) ) ;
#53 = APPLICATION_CONTEXT ( 'automotive_design' ) ;
#54 = SURFACE_SIDE_STYLE ('',( #383 ) ) ;
#55 = ORIENTED_EDGE ( 'NONE', *, *, #349, .T. ) ;
#56 = DIRECTION ( 'NONE',  ( -1.000000000000000000, 0.0000000000000000000, 0.0000000000000000000 ) ) ;
#57 = ORIENTED_EDGE ( 'NONE', *, *, #321, .T. ) ;
#58 = EDGE_LOOP ( 'NONE', ( #87, #216, #145 ) ) ;
#59 = PRESENTATION_STYLE_ASSIGNMENT (( #367 ) ) ;
#60 = DIRECTION ( 'NONE',  ( 1.000000000000000000, 0.0000000000000000000, 0.0000000000000000000 ) ) ;
#61 = AXIS2_PLACEMENT_3D ( 'NONE', #94, #37, #370 ) ;
#62 = MECHANICAL_DESIGN_GEOMETRIC_PRESENTATION_REPRESENTATION (  '', ( #289 ), #288 ) ;
#63 = LINE ( 'NONE', #366, #240 ) ;
#64 = CARTESIAN_POINT ( 'NONE',  ( 1.766423686986990336E-17, 0.0000000000000000000, 0.1425583751013884126 ) ) ;
#65 = CYLINDRICAL_SURFACE ( 'NONE', #61, 0.06200800000000002143 ) ;
#66 = AXIS2_PLACEMENT_3D ( 'NONE', #99, #15, #226 ) ;
#67 = DIRECTION ( 'NONE',  ( -1.000000000000000000, 0.0000000000000000000, 0.0000000000000000000 ) ) ;
#68 = DIRECTION ( 'NONE',  ( -1.239087977630706367E-16, -0.0000000000000000000, 1.000000000000000000 ) ) ;
#69 = EDGE_CURVE ( 'NONE', #182, #200, #337, .T. ) ;
#70 = DIRECTION ( 'NONE',  ( -1.000000000000000000, 0.0000000000000000000, 0.0000000000000000000 ) ) ;
#71 = CARTESIAN_POINT ( 'NONE',  ( 4.878299124530340388E-15, 0.0000000000000000000, -37.99212574015748345 ) ) ;
#72 = AXIS2_PLACEMENT_3D ( 'NONE', #151, #121, #252 ) ;
#73 = AXIS2_PLACEMENT_3D ( 'NONE', #71, #161, #86 ) ;
#74 = DIRECTION ( 'NONE',  ( -0.0000000000000000000, -0.0000000000000000000, -1.000000000000000000 ) ) ;
#75 = CARTESIAN_POINT ( 'NONE',  ( 0.02460649999999999990, 0.0000000000000000000, 0.01478507682210157027 ) ) ;
#76 = DIRECTION ( 'NONE',  ( -1.000000000000000000, 0.0000000000000000000, 0.0000000000000000000 ) ) ;
#77 = ORIENTED_EDGE ( 'NONE', *, *, #357, .F. ) ;
#78 = CARTESIAN_POINT ( 'NONE',  ( 0.0000000000000000000, 0.0000000000000000000, 1.377952999999999983 ) ) ;
#79 = ORIENTED_EDGE ( 'NONE', *, *, #371, .F. ) ;
#80 = CARTESIAN_POINT ( 'NONE',  ( 0.02460649999999999990, 3.013427146321934720E-18, -3.048961832156997787E-18 ) ) ;
#81 = ORIENTED_EDGE ( 'NONE', *, *, #159, .F. ) ;
#82 =( NAMED_UNIT ( * ) PLANE_ANGLE_UNIT ( ) SI_UNIT ( $, .RADIAN. ) );
#83 = ORIENTED_EDGE ( 'NONE', *, *, #165, .T. ) ;
#84 = VECTOR ( 'NONE', #224, 39.37007874015748143 ) ;
#85 = EDGE_CURVE ( 'NONE', #239, #174, #327, .T. ) ;
#86 = DIRECTION ( 'NONE',  ( 1.000000000000000000, 0.0000000000000000000, 1.334178587669835812E-16 ) ) ;
#87 = ORIENTED_EDGE ( 'NONE', *, *, #136, .F. ) ;
#88 = FILL_AREA_STYLE ('',( #1 ) ) ;
#89 = FACE_OUTER_BOUND ( 'NONE', #362, .T. ) ;
#90 = LINE ( 'NONE', #210, #254 ) ;
#91 = AXIS2_PLACEMENT_3D ( 'NONE', #305, #156, #276 ) ;
#92 = CARTESIAN_POINT ( 'NONE',  ( -0.06200799999999998674, 0.0000000000000000000, 0.1425583751013884126 ) ) ;
#93 = LINE ( 'NONE', #281, #250 ) ;
#94 = CARTESIAN_POINT ( 'NONE',  ( 0.0000000000000000000, 0.0000000000000000000, 1.377952999999999983 ) ) ;
#95 = VECTOR ( 'NONE', #97, 39.37007874015748854 ) ;
#96 = DIRECTION ( 'NONE',  ( 1.239087977630706367E-16, 0.0000000000000000000, -1.000000000000000000 ) ) ;
#97 = DIRECTION ( 'NONE',  ( -0.8571673007021136659, -1.049727191138620298E-16, -0.5150380749100519351 ) ) ;
#98 = CARTESIAN_POINT ( 'NONE',  ( -0.02460649999999999296, -3.013427146321934720E-18, 1.300175923177898429 ) ) ;
#99 = CARTESIAN_POINT ( 'NONE',  ( 9.637264082552590622E-18, 0.0000000000000000000, 0.07777707682210156792 ) ) ;
#100 = VECTOR ( 'NONE', #29, 39.37007874015748143 ) ;
#101 = DIRECTION ( 'NONE',  ( -1.000000000000000000, 0.0000000000000000000, 0.0000000000000000000 ) ) ;
#102 = EDGE_LOOP ( 'NONE', ( #389, #83, #300, #146 ) ) ;
#103 = EDGE_CURVE ( 'NONE', #294, #308, #295, .T. ) ;
#104 = LINE ( 'NONE', #319, #106 ) ;
#105 = ORIENTED_EDGE ( 'NONE', *, *, #227, .F. ) ;
#106 = VECTOR ( 'NONE', #355, 39.37007874015748143 ) ;
#107 = CARTESIAN_POINT ( 'NONE',  ( 1.832001093861246868E-18, 0.0000000000000000000, 1.363167923177898366 ) ) ;
#108 = ORIENTED_EDGE ( 'NONE', *, *, #207, .T. ) ;
#109 = EDGE_LOOP ( 'NONE', ( #263, #351, #158, #266 ) ) ;
#110 =( NAMED_UNIT ( * ) SI_UNIT ( $, .STERADIAN. ) SOLID_ANGLE_UNIT ( ) );
#111 = EDGE_LOOP ( 'NONE', ( #264, #271, #139, #320 ) ) ;
#112 = AXIS2_PLACEMENT_3D ( 'NONE', #377, #193, #343 ) ;
#113 = DIRECTION ( 'NONE',  ( 1.000000000000000000, 0.0000000000000000000, -1.334178587669835812E-16 ) ) ;
#114 = DIRECTION ( 'NONE',  ( -1.000000000000000000, 0.0000000000000000000, 1.239087977630706367E-16 ) ) ;
#115 = ADVANCED_FACE ( 'NONE', ( #188 ), #133, .T. ) ;
#116 = VERTEX_POINT ( 'NONE', #364 ) ;
#117 = UNCERTAINTY_MEASURE_WITH_UNIT (LENGTH_MEASURE( 1.000000000000000082E-05 ), #236, 'distance_accuracy_value', 'NONE');
#118 = EDGE_LOOP ( 'NONE', ( #105, #307, #31, #342 ) ) ;
#119 = AXIS2_PLACEMENT_3D ( 'NONE', #38, #336, #67 ) ;
#120 = AXIS2_PLACEMENT_3D ( 'NONE', #228, #253, #41 ) ;
#121 = DIRECTION ( 'NONE',  ( -1.239087977630706367E-16, -0.0000000000000000000, -1.000000000000000000 ) ) ;
#122 = FACE_OUTER_BOUND ( 'NONE', #102, .T. ) ;
#123 = EDGE_CURVE ( 'NONE', #2, #203, #242, .T. ) ;
#124 = FACE_OUTER_BOUND ( 'NONE', #118, .T. ) ;
#125 = CIRCLE ( 'NONE', #317, 0.02460649999999999990 ) ;
#126 =( GEOMETRIC_REPRESENTATION_CONTEXT ( 3 ) GLOBAL_UNCERTAINTY_ASSIGNED_CONTEXT ( ( #148 ) ) GLOBAL_UNIT_ASSIGNED_CONTEXT ( ( #154, #335, #304 ) ) REPRESENTATION_CONTEXT ( 'NONE', 'WORKASPACE' ) );
#127 = CARTESIAN_POINT ( 'NONE',  ( 0.06200800000000002143, 7.593789872152908283E-18, 0.1425583751013884126 ) ) ;
#128 = EDGE_CURVE ( 'NONE', #177, #200, #63, .T. ) ;
#129 = FACE_OUTER_BOUND ( 'NONE', #392, .T. ) ;
#130 = CARTESIAN_POINT ( 'NONE',  ( 9.637264082552590622E-18, 0.0000000000000000000, 1.300175923177898429 ) ) ;
#131 = PRODUCT ( 'Micro_DCM-013', 'Micro_DCM-013', '', ( #244 ) ) ;
#132 = CARTESIAN_POINT ( 'NONE',  ( 0.0000000000000000000, 0.0000000000000000000, 1.377952999999999983 ) ) ;
#133 = CONICAL_SURFACE ( 'NONE', #17, 65.52281426576882950, 1.029744258676657198 ) ;
#134 = CARTESIAN_POINT ( 'NONE',  ( 0.0000000000000000000, 0.0000000000000000000, 0.0000000000000000000 ) ) ;
#135 = PRODUCT_DEFINITION_SHAPE ( 'NONE', 'NONE',  #338 ) ;
#136 = EDGE_CURVE ( 'NONE', #354, #167, #90, .T. ) ;
#137 = ORIENTED_EDGE ( 'NONE', *, *, #171, .F. ) ;
#138 =( LENGTH_UNIT ( ) NAMED_UNIT ( * ) SI_UNIT ( $, .METRE. ) );
#139 = ORIENTED_EDGE ( 'NONE', *, *, #42, .F. ) ;
#140 = VECTOR ( 'NONE', #8, 39.37007874015748143 ) ;
#141 =( GEOMETRIC_REPRESENTATION_CONTEXT ( 3 ) GLOBAL_UNCERTAINTY_ASSIGNED_CONTEXT ( ( #397 ) ) GLOBAL_UNIT_ASSIGNED_CONTEXT ( ( #215, #280, #363 ) ) REPRESENTATION_CONTEXT ( 'NONE', 'WORKASPACE' ) );
#142 = ADVANCED_FACE ( 'NONE', ( #192 ), #11, .T. ) ;
#143 = ORIENTED_EDGE ( 'NONE', *, *, #303, .T. ) ;
#144 = CARTESIAN_POINT ( 'NONE',  ( 9.637264082552590622E-18, 0.0000000000000000000, 1.300175923177898429 ) ) ;
#145 = ORIENTED_EDGE ( 'NONE', *, *, #42, .T. ) ;
#146 = ORIENTED_EDGE ( 'NONE', *, *, #259, .F. ) ;
#147 = DIMENSIONAL_EXPONENTS ( 1.000000000000000000, 0.0000000000000000000, 0.0000000000000000000, 0.0000000000000000000, 0.0000000000000000000, 0.0000000000000000000, 0.0000000000000000000 ) ;
#148 = UNCERTAINTY_MEASURE_WITH_UNIT (LENGTH_MEASURE( 1.000000000000000082E-05 ), #154, 'distance_accuracy_value', 'NONE');
#149 = PRESENTATION_LAYER_ASSIGNMENT (  '', '', ( #289 ) ) ;
#150 = DIRECTION ( 'NONE',  ( -1.000000000000000000, 0.0000000000000000000, 0.0000000000000000000 ) ) ;
#151 = CARTESIAN_POINT ( 'NONE',  ( 1.766423686986990336E-17, 0.0000000000000000000, 0.1425583751013884126 ) ) ;
#152 = ADVANCED_BREP_SHAPE_REPRESENTATION ( 'Micro_DCM-013', ( #378, #26 ), #126 ) ;
#153 = PRODUCT_DEFINITION_CONTEXT ( 'detailed design', #170, 'design' ) ;
#154 =( CONVERSION_BASED_UNIT ( 'INCH', #395 ) LENGTH_UNIT ( ) NAMED_UNIT ( #184 ) );
#155 = VECTOR ( 'NONE', #19, 39.37007874015748143 ) ;
#156 = DIRECTION ( 'NONE',  ( -1.239087977630706367E-16, -0.0000000000000000000, -1.000000000000000000 ) ) ;
#157 = ADVANCED_FACE ( 'NONE', ( #124 ), #284, .T. ) ;
#158 = ORIENTED_EDGE ( 'NONE', *, *, #123, .T. ) ;
#159 = EDGE_CURVE ( 'NONE', #323, #179, #382, .T. ) ;
#160 = CARTESIAN_POINT ( 'NONE',  ( -0.02460649999999999990, 0.0000000000000000000, 1.377952999999999983 ) ) ;
#161 = DIRECTION ( 'NONE',  ( 1.239087977630706367E-16, 0.0000000000000000000, -1.000000000000000000 ) ) ;
#162 = DIRECTION ( 'NONE',  ( -0.5000000000000028866, 6.123233995736803014E-17, 0.8660254037844369313 ) ) ;
#163 = DIRECTION ( 'NONE',  ( 1.000000000000000000, 0.0000000000000000000, 0.0000000000000000000 ) ) ;
#164 = CIRCLE ( 'NONE', #297, 0.06200800000000000062 ) ;
#165 = EDGE_CURVE ( 'NONE', #323, #177, #39, .T. ) ;
#166 = CARTESIAN_POINT ( 'NONE',  ( 9.637264082552590622E-18, 0.0000000000000000000, 0.07777707682210156792 ) ) ;
#167 = VERTEX_POINT ( 'NONE', #75 ) ;
#168 = PRESENTATION_STYLE_ASSIGNMENT (( #172 ) ) ;
#169 = ORIENTED_EDGE ( 'NONE', *, *, #103, .F. ) ;
#170 = APPLICATION_CONTEXT ( 'automotive_design' ) ;
#171 = EDGE_CURVE ( 'NONE', #354, #116, #283, .T. ) ;
#172 = SURFACE_STYLE_USAGE ( .BOTH. , #54 ) ;
#173 = DIMENSIONAL_EXPONENTS ( 1.000000000000000000, 0.0000000000000000000, 0.0000000000000000000, 0.0000000000000000000, 0.0000000000000000000, 0.0000000000000000000, 0.0000000000000000000 ) ;
#174 = VERTEX_POINT ( 'NONE', #312 ) ;
#175 = AXIS2_PLACEMENT_3D ( 'NONE', #287, #348, #195 ) ;
#176 = DIRECTION ( 'NONE',  ( 1.239087977630706367E-16, 0.0000000000000000000, -1.000000000000000000 ) ) ;
#177 = VERTEX_POINT ( 'NONE', #223 ) ;
#178 = DIRECTION ( 'NONE',  ( 0.0000000000000000000, 0.0000000000000000000, 1.000000000000000000 ) ) ;
#179 = VERTEX_POINT ( 'NONE', #222 ) ;
#180 = ORIENTED_EDGE ( 'NONE', *, *, #357, .T. ) ;
#181 = EDGE_CURVE ( 'NONE', #200, #179, #329, .T. ) ;
#182 = VERTEX_POINT ( 'NONE', #14 ) ;
#183 = DIRECTION ( 'NONE',  ( -1.239087977630706367E-16, -0.0000000000000000000, -1.000000000000000000 ) ) ;
#184 = DIMENSIONAL_EXPONENTS ( 1.000000000000000000, 0.0000000000000000000, 0.0000000000000000000, 0.0000000000000000000, 0.0000000000000000000, 0.0000000000000000000, 0.0000000000000000000 ) ;
#185 = ADVANCED_FACE ( 'NONE', ( #380 ), #43, .T. ) ;
#186 = CARTESIAN_POINT ( 'NONE',  ( 1.832001093861246868E-18, 0.0000000000000000000, 0.01478507682210157374 ) ) ;
#187 = AXIS2_PLACEMENT_3D ( 'NONE', #78, #265, #76 ) ;
#188 = FACE_OUTER_BOUND ( 'NONE', #221, .T. ) ;
#189 = DIRECTION ( 'NONE',  ( 1.239087977630706367E-16, 0.0000000000000000000, -1.000000000000000000 ) ) ;
#190 = CARTESIAN_POINT ( 'NONE',  ( -0.02460649999999999296, 3.013427146321934720E-18, 0.07777707682210156792 ) ) ;
#191 = AXIS2_PLACEMENT_3D ( 'NONE', #166, #27, #163 ) ;
#192 = FACE_OUTER_BOUND ( 'NONE', #268, .T. ) ;
#193 = DIRECTION ( 'NONE',  ( 1.239087977630706367E-16, 0.0000000000000000000, -1.000000000000000000 ) ) ;
#194 = ADVANCED_FACE ( 'NONE', ( #10 ), #347, .T. ) ;
#195 = DIRECTION ( 'NONE',  ( -1.000000000000000000, 0.0000000000000000000, 0.0000000000000000000 ) ) ;
#196 = AXIS2_PLACEMENT_3D ( 'NONE', #64, #34, #150 ) ;
#197 = CARTESIAN_POINT ( 'NONE',  ( 0.06200800000000002143, 7.593789872152908283E-18, 1.235394624898611404 ) ) ;
#198 = ORIENTED_EDGE ( 'NONE', *, *, #249, .T. ) ;
#199 = LINE ( 'NONE', #296, #155 ) ;
#200 = VERTEX_POINT ( 'NONE', #374 ) ;
#201 = ADVANCED_FACE ( 'NONE', ( #129 ), #381, .T. ) ;
#202 = FILL_AREA_STYLE_COLOUR ( '', #352 ) ;
#203 = VERTEX_POINT ( 'NONE', #127 ) ;
#204 = EDGE_LOOP ( 'NONE', ( #77, #356, #373, #81 ) ) ;
#205 = VECTOR ( 'NONE', #379, 39.37007874015748854 ) ;
#206 = EDGE_LOOP ( 'NONE', ( #237, #359, #390, #230 ) ) ;
#207 = EDGE_CURVE ( 'NONE', #182, #179, #315, .T. ) ;
#208 = DIRECTION ( 'NONE',  ( -1.239087977630706367E-16, -0.0000000000000000000, -1.000000000000000000 ) ) ;
#209 = SURFACE_SIDE_STYLE ('',( #277 ) ) ;
#210 = CARTESIAN_POINT ( 'NONE',  ( 0.0000000000000000000, 0.0000000000000000000, 0.0000000000000000000 ) ) ;
#211 = PRESENTATION_LAYER_ASSIGNMENT (  '', '', ( #233 ) ) ;
#212 = DIRECTION ( 'NONE',  ( 1.000000000000000000, 0.0000000000000000000, 0.0000000000000000000 ) ) ;
#213 = DIRECTION ( 'NONE',  ( -1.000000000000000000, 0.0000000000000000000, 0.0000000000000000000 ) ) ;
#214 = ADVANCED_FACE ( 'NONE', ( #316 ), #344, .T. ) ;
#215 =( CONVERSION_BASED_UNIT ( 'INCH', #246 ) LENGTH_UNIT ( ) NAMED_UNIT ( #147 ) );
#216 = ORIENTED_EDGE ( 'NONE', *, *, #171, .T. ) ;
#217 = CARTESIAN_POINT ( 'NONE',  ( 0.0000000000000000000, 0.0000000000000000000, 0.0000000000000000000 ) ) ;
#218 = CARTESIAN_POINT ( 'NONE',  ( 0.0000000000000000000, 0.0000000000000000000, 1.377952999999999983 ) ) ;
#219 = CIRCLE ( 'NONE', #72, 0.06200800000000000062 ) ;
#220 = AXIS2_PLACEMENT_3D ( 'NONE', #13, #282, #48 ) ;
#221 = EDGE_LOOP ( 'NONE', ( #137, #278, #40 ) ) ;
#222 = CARTESIAN_POINT ( 'NONE',  ( -0.02460650000000004500, -3.013427146321940498E-18, 1.363167923177898366 ) ) ;
#223 = CARTESIAN_POINT ( 'NONE',  ( 0.02460650000000001031, -3.013427146321935491E-18, 1.300175923177898429 ) ) ;
#224 = DIRECTION ( 'NONE',  ( -0.5000000000000028866, -6.123233995736803014E-17, -0.8660254037844369313 ) ) ;
#225 = VECTOR ( 'NONE', #68, 39.37007874015748143 ) ;
#226 = DIRECTION ( 'NONE',  ( 1.000000000000000000, 0.0000000000000000000, 0.0000000000000000000 ) ) ;
#227 = EDGE_CURVE ( 'NONE', #174, #2, #47, .T. ) ;
#228 = CARTESIAN_POINT ( 'NONE',  ( 0.0000000000000000000, 0.0000000000000000000, 0.0000000000000000000 ) ) ;
#229 = CARTESIAN_POINT ( 'NONE',  ( 0.0000000000000000000, 0.0000000000000000000, 0.0000000000000000000 ) ) ;
#230 = ORIENTED_EDGE ( 'NONE', *, *, #275, .T. ) ;
#231 = AXIS2_PLACEMENT_3D ( 'NONE', #314, #96, #45 ) ;
#232 = CYLINDRICAL_SURFACE ( 'NONE', #187, 0.02460649999999999990 ) ;
#233 = STYLED_ITEM ( 'NONE', ( #59 ), #152 ) ;
#234 = EDGE_CURVE ( 'NONE', #167, #116, #6, .T. ) ;
#235 = ORIENTED_EDGE ( 'NONE', *, *, #349, .F. ) ;
#236 =( CONVERSION_BASED_UNIT ( 'INCH', #391 ) LENGTH_UNIT ( ) NAMED_UNIT ( #173 ) );
#237 = ORIENTED_EDGE ( 'NONE', *, *, #128, .F. ) ;
#238 = DIRECTION ( 'NONE',  ( 1.239087977630706367E-16, 0.0000000000000000000, -1.000000000000000000 ) ) ;
#239 = VERTEX_POINT ( 'NONE', #313 ) ;
#240 = VECTOR ( 'NONE', #274, 39.37007874015748143 ) ;
#241 = ORIENTED_EDGE ( 'NONE', *, *, #85, .T. ) ;
#242 = CIRCLE ( 'NONE', #196, 0.06200800000000000062 ) ;
#243 = CONICAL_SURFACE ( 'NONE', #191, 0.02460649999999999990, 0.5235987755983023684 ) ;
#244 = PRODUCT_CONTEXT ( 'NONE', #53, 'mechanical' ) ;
#245 = FACE_OUTER_BOUND ( 'NONE', #58, .T. ) ;
#246 = LENGTH_MEASURE_WITH_UNIT ( LENGTH_MEASURE( 0.02539999999999999897 ), #369 );
#247 = DIRECTION ( 'NONE',  ( 1.239087977630706367E-16, 0.0000000000000000000, 1.000000000000000000 ) ) ;
#248 = CARTESIAN_POINT ( 'NONE',  ( 4.878299124530340388E-15, 0.0000000000000000000, 39.37007874015748143 ) ) ;
#249 = EDGE_CURVE ( 'NONE', #323, #308, #257, .T. ) ;
#250 = VECTOR ( 'NONE', #334, 39.37007874015748143 ) ;
#251 = VECTOR ( 'NONE', #358, 39.37007874015748143 ) ;
#252 = DIRECTION ( 'NONE',  ( -1.000000000000000000, 0.0000000000000000000, 0.0000000000000000000 ) ) ;
#253 = DIRECTION ( 'NONE',  ( -1.239087977630706367E-16, -0.0000000000000000000, -1.000000000000000000 ) ) ;
#254 = VECTOR ( 'NONE', #36, 39.37007874015748143 ) ;
#255 = ADVANCED_FACE ( 'NONE', ( #346 ), #279, .T. ) ;
#256 = CARTESIAN_POINT ( 'NONE',  ( 0.0000000000000000000, 0.0000000000000000000, 1.377952999999999983 ) ) ;
#257 = LINE ( 'NONE', #98, #84 ) ;
#258 = DIRECTION ( 'NONE',  ( -1.000000000000000000, 0.0000000000000000000, 0.0000000000000000000 ) ) ;
#259 = EDGE_CURVE ( 'NONE', #308, #294, #164, .T. ) ;
#260 = DIRECTION ( 'NONE',  ( -1.000000000000000000, 0.0000000000000000000, 0.0000000000000000000 ) ) ;
#261 = DIRECTION ( 'NONE',  ( -1.000000000000000000, 0.0000000000000000000, 0.0000000000000000000 ) ) ;
#262 = FACE_OUTER_BOUND ( 'NONE', #204, .T. ) ;
#263 = ORIENTED_EDGE ( 'NONE', *, *, #21, .F. ) ;
#264 = ORIENTED_EDGE ( 'NONE', *, *, #21, .T. ) ;
#265 = DIRECTION ( 'NONE',  ( -1.239087977630706367E-16, -0.0000000000000000000, 1.000000000000000000 ) ) ;
#266 = ORIENTED_EDGE ( 'NONE', *, *, #46, .F. ) ;
#267 = FILL_AREA_STYLE ('',( #202 ) ) ;
#268 = EDGE_LOOP ( 'NONE', ( #180, #198, #169, #20 ) ) ;
#269 =( LENGTH_UNIT ( ) NAMED_UNIT ( * ) SI_UNIT ( $, .METRE. ) );
#270 = CIRCLE ( 'NONE', #91, 0.02460649999999999990 ) ;
#271 = ORIENTED_EDGE ( 'NONE', *, *, #371, .T. ) ;
#272 = AXIS2_PLACEMENT_3D ( 'NONE', #130, #189, #258 ) ;
#273 = PRODUCT_DEFINITION_FORMATION_WITH_SPECIFIED_SOURCE ( 'ANY', '', #131, .NOT_KNOWN. ) ;
#274 = DIRECTION ( 'NONE',  ( -1.239087977630706367E-16, -0.0000000000000000000, 1.000000000000000000 ) ) ;
#275 = EDGE_CURVE ( 'NONE', #179, #200, #25, .T. ) ;
#276 = DIRECTION ( 'NONE',  ( -1.000000000000000000, 0.0000000000000000000, 0.0000000000000000000 ) ) ;
#277 = SURFACE_STYLE_FILL_AREA ( #88 ) ;
#278 = ORIENTED_EDGE ( 'NONE', *, *, #136, .T. ) ;
#279 = CONICAL_SURFACE ( 'NONE', #73, 65.52281426576882950, 1.029744258676657198 ) ;
#280 =( NAMED_UNIT ( * ) PLANE_ANGLE_UNIT ( ) SI_UNIT ( $, .RADIAN. ) );
#281 = CARTESIAN_POINT ( 'NONE',  ( 0.02460650000000001031, 0.0000000000000000000, 0.07777707682210156792 ) ) ;
#282 = DIRECTION ( 'NONE',  ( -1.239087977630706367E-16, -0.0000000000000000000, -1.000000000000000000 ) ) ;
#283 = LINE ( 'NONE', #9, #205 ) ;
#284 = CONICAL_SURFACE ( 'NONE', #66, 0.02460649999999999990, 0.5235987755983023684 ) ;
#285 = CARTESIAN_POINT ( 'NONE',  ( 1.832001093861246868E-18, 0.0000000000000000000, 1.363167923177898366 ) ) ;
#286 = DIRECTION ( 'NONE',  ( 1.239087977630706367E-16, 0.0000000000000000000, -1.000000000000000000 ) ) ;
#287 = CARTESIAN_POINT ( 'NONE',  ( 0.0000000000000000000, 0.0000000000000000000, 1.377952999999999983 ) ) ;
#288 =( GEOMETRIC_REPRESENTATION_CONTEXT ( 3 ) GLOBAL_UNCERTAINTY_ASSIGNED_CONTEXT ( ( #117 ) ) GLOBAL_UNIT_ASSIGNED_CONTEXT ( ( #236, #82, #110 ) ) REPRESENTATION_CONTEXT ( 'NONE', 'WORKASPACE' ) );
#289 = STYLED_ITEM ( 'NONE', ( #168 ), #378 ) ;
#290 = FACE_OUTER_BOUND ( 'NONE', #52, .T. ) ;
#291 = DIRECTION ( 'NONE',  ( -1.239087977630706367E-16, -0.0000000000000000000, -1.000000000000000000 ) ) ;
#292 = ORIENTED_EDGE ( 'NONE', *, *, #103, .T. ) ;
#293 = CARTESIAN_POINT ( 'NONE',  ( 0.06200800000000002143, 7.593789872152908283E-18, 1.377952999999999983 ) ) ;
#294 = VERTEX_POINT ( 'NONE', #197 ) ;
#295 = CIRCLE ( 'NONE', #119, 0.06200800000000000062 ) ;
#296 = CARTESIAN_POINT ( 'NONE',  ( 0.02460650000000001031, 0.0000000000000000000, 1.300175923177898429 ) ) ;
#297 = AXIS2_PLACEMENT_3D ( 'NONE', #22, #176, #56 ) ;
#298 = ORIENTED_EDGE ( 'NONE', *, *, #123, .F. ) ;
#299 = CARTESIAN_POINT ( 'NONE',  ( -0.02460649999999999990, 0.0000000000000000000, 3.048961832156997787E-18 ) ) ;
#300 = ORIENTED_EDGE ( 'NONE', *, *, #345, .T. ) ;
#301 = ORIENTED_EDGE ( 'NONE', *, *, #207, .F. ) ;
#302 = DIRECTION ( 'NONE',  ( -1.000000000000000000, 0.0000000000000000000, 8.673546603743749283E-17 ) ) ;
#303 = EDGE_CURVE ( 'NONE', #174, #116, #350, .T. ) ;
#304 =( NAMED_UNIT ( * ) SI_UNIT ( $, .STERADIAN. ) SOLID_ANGLE_UNIT ( ) );
#305 = CARTESIAN_POINT ( 'NONE',  ( 9.637264082552590622E-18, 0.0000000000000000000, 0.07777707682210156792 ) ) ;
#306 = APPLICATION_PROTOCOL_DEFINITION ( 'draft international standard', 'automotive_design', 1998, #170 ) ;
#307 = ORIENTED_EDGE ( 'NONE', *, *, #85, .F. ) ;
#308 = VERTEX_POINT ( 'NONE', #328 ) ;
#309 = AXIS2_PLACEMENT_3D ( 'NONE', #107, #238, #101 ) ;
#310 = CARTESIAN_POINT ( 'NONE',  ( 4.878299124530340388E-15, 0.0000000000000000000, 39.37007874015748143 ) ) ;
#311 = ORIENTED_EDGE ( 'NONE', *, *, #69, .F. ) ;
#312 = CARTESIAN_POINT ( 'NONE',  ( -0.02460649999999999296, 0.0000000000000000000, 0.07777707682210156792 ) ) ;
#313 = CARTESIAN_POINT ( 'NONE',  ( 0.02460650000000001031, 3.013427146321935491E-18, 0.07777707682210156792 ) ) ;
#314 = CARTESIAN_POINT ( 'NONE',  ( 9.637264082552590622E-18, 0.0000000000000000000, 1.300175923177898429 ) ) ;
#315 = LINE ( 'NONE', #256, #95 ) ;
#316 = FACE_OUTER_BOUND ( 'NONE', #385, .T. ) ;
#317 = AXIS2_PLACEMENT_3D ( 'NONE', #186, #183, #302 ) ;
#318 = CIRCLE ( 'NONE', #361, 0.02460649999999999990 ) ;
#319 = CARTESIAN_POINT ( 'NONE',  ( -0.06200800000000002143, 0.0000000000000000000, 1.377952999999999983 ) ) ;
#320 = ORIENTED_EDGE ( 'NONE', *, *, #303, .F. ) ;
#321 = EDGE_CURVE ( 'NONE', #294, #203, #353, .T. ) ;
#322 = DIRECTION ( 'NONE',  ( -1.239087977630706367E-16, -0.0000000000000000000, -1.000000000000000000 ) ) ;
#323 = VERTEX_POINT ( 'NONE', #387 ) ;
#324 = LINE ( 'NONE', #80, #18 ) ;
#325 = ORIENTED_EDGE ( 'NONE', *, *, #321, .F. ) ;
#326 = ADVANCED_FACE ( 'NONE', ( #262 ), #232, .T. ) ;
#327 = CIRCLE ( 'NONE', #4, 0.02460649999999999990 ) ;
#328 = CARTESIAN_POINT ( 'NONE',  ( -0.06200799999999998674, 0.0000000000000000000, 1.235394624898611404 ) ) ;
#329 = CIRCLE ( 'NONE', #394, 0.02460649999999999990 ) ;
#330 = ORIENTED_EDGE ( 'NONE', *, *, #69, .T. ) ;
#331 = ORIENTED_EDGE ( 'NONE', *, *, #275, .F. ) ;
#332 = CARTESIAN_POINT ( 'NONE',  ( 9.637264082552590622E-18, 0.0000000000000000000, 0.07777707682210156792 ) ) ;
#333 = APPLICATION_PROTOCOL_DEFINITION ( 'draft international standard', 'automotive_design', 1998, #53 ) ;
#334 = DIRECTION ( 'NONE',  ( 0.5000000000000031086, 0.0000000000000000000, 0.8660254037844368202 ) ) ;
#335 =( NAMED_UNIT ( * ) PLANE_ANGLE_UNIT ( ) SI_UNIT ( $, .RADIAN. ) );
#336 = DIRECTION ( 'NONE',  ( 1.239087977630706367E-16, 0.0000000000000000000, -1.000000000000000000 ) ) ;
#337 = LINE ( 'NONE', #218, #140 ) ;
#338 = PRODUCT_DEFINITION ( 'UNKNOWN', '', #273, #153 ) ;
#339 = ORIENTED_EDGE ( 'NONE', *, *, #259, .T. ) ;
#340 = CLOSED_SHELL ( 'NONE', ( #142, #326, #255, #376, #185, #50, #32, #214, #115, #388, #157, #201, #194, #7 ) ) ;
#341 = AXIS2_PLACEMENT_3D ( 'NONE', #132, #74, #70 ) ;
#342 = ORIENTED_EDGE ( 'NONE', *, *, #16, .T. ) ;
#343 = DIRECTION ( 'NONE',  ( 1.000000000000000000, 0.0000000000000000000, 1.334178587669835812E-16 ) ) ;
#344 = CYLINDRICAL_SURFACE ( 'NONE', #341, 0.06200800000000002143 ) ;
#345 = EDGE_CURVE ( 'NONE', #177, #294, #199, .T. ) ;
#346 = FACE_OUTER_BOUND ( 'NONE', #28, .T. ) ;
#347 = CYLINDRICAL_SURFACE ( 'NONE', #175, 0.02460649999999999990 ) ;
#348 = DIRECTION ( 'NONE',  ( -1.239087977630706367E-16, -0.0000000000000000000, 1.000000000000000000 ) ) ;
#349 = EDGE_CURVE ( 'NONE', #308, #2, #104, .T. ) ;
#350 = LINE ( 'NONE', #299, #100 ) ;
#351 = ORIENTED_EDGE ( 'NONE', *, *, #227, .T. ) ;
#352 = COLOUR_RGB ( '',0.7921568627450980005, 0.8196078431372548767, 0.9333333333333333481 ) ;
#353 = LINE ( 'NONE', #293, #251 ) ;
#354 = VERTEX_POINT ( 'NONE', #134 ) ;
#355 = DIRECTION ( 'NONE',  ( -0.0000000000000000000, -0.0000000000000000000, -1.000000000000000000 ) ) ;
#356 = ORIENTED_EDGE ( 'NONE', *, *, #128, .T. ) ;
#357 = EDGE_CURVE ( 'NONE', #177, #323, #318, .T. ) ;
#358 = DIRECTION ( 'NONE',  ( -0.0000000000000000000, -0.0000000000000000000, -1.000000000000000000 ) ) ;
#359 = ORIENTED_EDGE ( 'NONE', *, *, #165, .F. ) ;
#360 = CONICAL_SURFACE ( 'NONE', #375, 65.52281426576882950, 1.029744258676657198 ) ;
#361 = AXIS2_PLACEMENT_3D ( 'NONE', #144, #51, #261 ) ;
#362 = EDGE_LOOP ( 'NONE', ( #339, #57, #298, #235 ) ) ;
#363 =( NAMED_UNIT ( * ) SI_UNIT ( $, .STERADIAN. ) SOLID_ANGLE_UNIT ( ) );
#364 = CARTESIAN_POINT ( 'NONE',  ( -0.02460649999999999643, 3.013427146321934720E-18, 0.01478507682210157548 ) ) ;
#365 = PRODUCT_RELATED_PRODUCT_CATEGORY ( 'part', '', ( #131 ) ) ;
#366 = CARTESIAN_POINT ( 'NONE',  ( 0.02460649999999999990, -3.013427146321934720E-18, 1.377952999999999983 ) ) ;
#367 = SURFACE_STYLE_USAGE ( .BOTH. , #209 ) ;
#368 = DIRECTION ( 'NONE',  ( 1.000000000000000000, 0.0000000000000000000, -1.334178587669835812E-16 ) ) ;
#369 =( LENGTH_UNIT ( ) NAMED_UNIT ( * ) SI_UNIT ( $, .METRE. ) );
#370 = DIRECTION ( 'NONE',  ( -1.000000000000000000, 0.0000000000000000000, 0.0000000000000000000 ) ) ;
#371 = EDGE_CURVE ( 'NONE', #239, #167, #324, .T. ) ;
#372 = ORIENTED_EDGE ( 'NONE', *, *, #16, .F. ) ;
#373 = ORIENTED_EDGE ( 'NONE', *, *, #181, .T. ) ;
#374 = CARTESIAN_POINT ( 'NONE',  ( 0.02460650000000005194, 0.0000000000000000000, 1.363167923177898366 ) ) ;
#375 = AXIS2_PLACEMENT_3D ( 'NONE', #248, #3, #368 ) ;
#376 = ADVANCED_FACE ( 'NONE', ( #49 ), #243, .T. ) ;
#377 = CARTESIAN_POINT ( 'NONE',  ( 4.878299124530340388E-15, 0.0000000000000000000, -37.99212574015748345 ) ) ;
#378 = MANIFOLD_SOLID_BREP ( 'Mirror1', #340 ) ;
#379 = DIRECTION ( 'NONE',  ( -0.8571673007021136659, 1.049727191138620298E-16, 0.5150380749100519351 ) ) ;
#380 = FACE_OUTER_BOUND ( 'NONE', #111, .T. ) ;
#381 = CONICAL_SURFACE ( 'NONE', #112, 65.52281426576882950, 1.029744258676657198 ) ;
#382 = LINE ( 'NONE', #160, #225 ) ;
#383 = SURFACE_STYLE_FILL_AREA ( #267 ) ;
#384 = CYLINDRICAL_SURFACE ( 'NONE', #33, 0.02460649999999999990 ) ;
#385 = EDGE_LOOP ( 'NONE', ( #325, #292, #55, #372 ) ) ;
#386 = VECTOR ( 'NONE', #162, 39.37007874015748143 ) ;
#387 = CARTESIAN_POINT ( 'NONE',  ( -0.02460649999999999296, 0.0000000000000000000, 1.300175923177898429 ) ) ;
#388 = ADVANCED_FACE ( 'NONE', ( #290 ), #384, .T. ) ;
#389 = ORIENTED_EDGE ( 'NONE', *, *, #249, .F. ) ;
#390 = ORIENTED_EDGE ( 'NONE', *, *, #159, .T. ) ;
#391 = LENGTH_MEASURE_WITH_UNIT ( LENGTH_MEASURE( 0.02539999999999999897 ), #138 );
#392 = EDGE_LOOP ( 'NONE', ( #301, #330, #331 ) ) ;
#393 = CONICAL_SURFACE ( 'NONE', #24, 0.02460649999999999990, 0.5235987755983023684 ) ;
#394 = AXIS2_PLACEMENT_3D ( 'NONE', #285, #286, #260 ) ;
#395 = LENGTH_MEASURE_WITH_UNIT ( LENGTH_MEASURE( 0.02539999999999999897 ), #269 );
#396 = DIRECTION ( 'NONE',  ( 1.239087977630706367E-16, 0.0000000000000000000, -1.000000000000000000 ) ) ;
#397 = UNCERTAINTY_MEASURE_WITH_UNIT (LENGTH_MEASURE( 1.000000000000000082E-05 ), #215, 'distance_accuracy_value', 'NONE');
ENDSEC;
END-ISO-10303-21;
