ISO-10303-21;
HEADER;
FILE_DESCRIPTION (( 'STEP AP214' ),
    '1' );
FILE_NAME ('05172.STEP',
    '2023-06-22T15:55:26',
    ( '' ),
    ( '' ),
    'SwSTEP 2.0',
    'SolidWorks 2023',
    '' );
FILE_SCHEMA (( 'AUTOMOTIVE_DESIGN' ));
ENDSEC;

DATA;
#1 = VERTEX_POINT ( 'NONE', #241 ) ;
#2 = PRESENTATION_STYLE_ASSIGNMENT (( #265 ) ) ;
#3 =( NAMED_UNIT ( * ) SI_UNIT ( $, .STERADIAN. ) SOLID_ANGLE_UNIT ( ) );
#4 = AXIS2_PLACEMENT_3D ( 'NONE', #221, #103, #9 ) ;
#5 = DIRECTION ( 'NONE',  ( -1.000000000000000000, -3.498990854706726443E-17, 0.000000000000000000 ) ) ;
#6 = DIRECTION ( 'NONE',  ( 0.000000000000000000, 0.000000000000000000, -1.000000000000000000 ) ) ;
#7 = DIRECTION ( 'NONE',  ( -3.498990854706726443E-17, 1.000000000000000000, -0.000000000000000000 ) ) ;
#8 = PRESENTATION_LAYER_ASSIGNMENT (  '', '', ( #292 ) ) ;
#9 = DIRECTION ( 'NONE',  ( 0.000000000000000000, 0.000000000000000000, -1.000000000000000000 ) ) ;
#10 = SURFACE_SIDE_STYLE ('',( #245 ) ) ;
#11 =( CONVERSION_BASED_UNIT ( 'INCH', #224 ) LENGTH_UNIT ( ) NAMED_UNIT ( #287 ) );
#12 = AXIS2_PLACEMENT_3D ( 'NONE', #270, #256, #268 ) ;
#13 = DIRECTION ( 'NONE',  ( 0.000000000000000000, 0.000000000000000000, -1.000000000000000000 ) ) ;
#14 = EDGE_LOOP ( 'NONE', ( #254, #29 ) ) ;
#15 = ORIENTED_EDGE ( 'NONE', *, *, #43, .T. ) ;
#16 = ORIENTED_EDGE ( 'NONE', *, *, #167, .F. ) ;
#17 =( NAMED_UNIT ( * ) SI_UNIT ( $, .STERADIAN. ) SOLID_ANGLE_UNIT ( ) );
#18 = DIRECTION ( 'NONE',  ( 0.000000000000000000, 0.000000000000000000, 1.000000000000000000 ) ) ;
#19 = ORIENTED_EDGE ( 'NONE', *, *, #167, .T. ) ;
#20 = DIRECTION ( 'NONE',  ( 1.000000000000000000, 0.000000000000000000, 0.000000000000000000 ) ) ;
#21 = COLOUR_RGB ( '',1.000000000000000000, 0.000000000000000000, 0.000000000000000000 ) ;
#22 = CARTESIAN_POINT ( 'NONE',  ( 7.651835625825819045E-35, 1.250000000000000000, 0.000000000000000000 ) ) ;
#23 = ADVANCED_FACE ( 'NONE', ( #212 ), #80, .T. ) ;
#24 = ORIENTED_EDGE ( 'NONE', *, *, #281, .T. ) ;
#25 = MECHANICAL_DESIGN_GEOMETRIC_PRESENTATION_REPRESENTATION (  '', ( #164 ), #153 ) ;
#26 = DIRECTION ( 'NONE',  ( 0.000000000000000000, -1.000000000000000000, -0.000000000000000000 ) ) ;
#27 = SHAPE_DEFINITION_REPRESENTATION ( #154, #146 ) ;
#28 = CARTESIAN_POINT ( 'NONE',  ( -6.123233995736772199E-17, 3.000000000000000444, 0.000000000000000000 ) ) ;
#29 = ORIENTED_EDGE ( 'NONE', *, *, #47, .F. ) ;
#30 =( NAMED_UNIT ( * ) SI_UNIT ( $, .STERADIAN. ) SOLID_ANGLE_UNIT ( ) );
#31 = CLOSED_SHELL ( 'NONE', ( #35, #197, #79, #298 ) ) ;
#32 =( GEOMETRIC_REPRESENTATION_CONTEXT ( 3 ) GLOBAL_UNCERTAINTY_ASSIGNED_CONTEXT ( ( #120 ) ) GLOBAL_UNIT_ASSIGNED_CONTEXT ( ( #274, #86, #128 ) ) REPRESENTATION_CONTEXT ( 'NONE', 'WORKASPACE' ) );
#33 =( GEOMETRIC_REPRESENTATION_CONTEXT ( 3 ) GLOBAL_UNCERTAINTY_ASSIGNED_CONTEXT ( ( #273 ) ) GLOBAL_UNIT_ASSIGNED_CONTEXT ( ( #173, #145, #30 ) ) REPRESENTATION_CONTEXT ( 'NONE', 'WORKASPACE' ) );
#34 = DIRECTION ( 'NONE',  ( -3.498990854706726443E-17, 1.000000000000000000, -0.000000000000000000 ) ) ;
#35 = ADVANCED_FACE ( 'NONE', ( #54 ), #233, .T. ) ;
#36 = SURFACE_STYLE_FILL_AREA ( #105 ) ;
#37 = LENGTH_MEASURE_WITH_UNIT ( LENGTH_MEASURE( 0.02539999999999999897 ), #198 );
#38 = FILL_AREA_STYLE_COLOUR ( '', #202 ) ;
#39 = PRESENTATION_LAYER_ASSIGNMENT (  '', '', ( #206 ) ) ;
#40 = PRODUCT_CONTEXT ( 'NONE', #149, 'mechanical' ) ;
#41 =( GEOMETRIC_REPRESENTATION_CONTEXT ( 3 ) GLOBAL_UNCERTAINTY_ASSIGNED_CONTEXT ( ( #53 ) ) GLOBAL_UNIT_ASSIGNED_CONTEXT ( ( #112, #151, #176 ) ) REPRESENTATION_CONTEXT ( 'NONE', 'WORKASPACE' ) );
#42 = CARTESIAN_POINT ( 'NONE',  ( 0.1249999999999999584, 3.000000000000000444, 1.530808498934191817E-17 ) ) ;
#43 = EDGE_CURVE ( 'NONE', #44, #308, #125, .T. ) ;
#44 = VERTEX_POINT ( 'NONE', #299 ) ;
#45 =( NAMED_UNIT ( * ) SI_UNIT ( $, .STERADIAN. ) SOLID_ANGLE_UNIT ( ) );
#46 = DIMENSIONAL_EXPONENTS ( 1.000000000000000000, 0.000000000000000000, 0.000000000000000000, 0.000000000000000000, 0.000000000000000000, 0.000000000000000000, 0.000000000000000000 ) ;
#47 = EDGE_CURVE ( 'NONE', #1, #174, #175, .T. ) ;
#48 =( CONVERSION_BASED_UNIT ( 'INCH', #210 ) LENGTH_UNIT ( ) NAMED_UNIT ( #284 ) );
#49 = ORIENTED_EDGE ( 'NONE', *, *, #43, .F. ) ;
#50 = SURFACE_STYLE_USAGE ( .BOTH. , #160 ) ;
#51 = PLANE ( 'NONE',  #195 ) ;
#52 = CIRCLE ( 'NONE', #251, 0.1250000000000000555 ) ;
#53 = UNCERTAINTY_MEASURE_WITH_UNIT (LENGTH_MEASURE( 1.000000000000000082E-05 ), #112, 'distance_accuracy_value', 'NONE');
#54 = FACE_OUTER_BOUND ( 'NONE', #88, .T. ) ;
#55 = PRESENTATION_STYLE_ASSIGNMENT (( #294 ) ) ;
#56 = EDGE_CURVE ( 'NONE', #174, #1, #161, .T. ) ;
#57 = FILL_AREA_STYLE ('',( #269 ) ) ;
#58 = CARTESIAN_POINT ( 'NONE',  ( 0.000000000000000000, 0.000000000000000000, 0.000000000000000000 ) ) ;
#59 = CLOSED_SHELL ( 'NONE', ( #23, #119, #229, #223 ) ) ;
#60 = AXIS2_PLACEMENT_3D ( 'NONE', #272, #87, #13 ) ;
#61 = SURFACE_SIDE_STYLE ('',( #36 ) ) ;
#62 =( LENGTH_UNIT ( ) NAMED_UNIT ( * ) SI_UNIT ( $, .METRE. ) );
#63 = ORIENTED_EDGE ( 'NONE', *, *, #182, .T. ) ;
#64 = VECTOR ( 'NONE', #271, 39.37007874015748143 ) ;
#65 = VERTEX_POINT ( 'NONE', #295 ) ;
#66 = DIRECTION ( 'NONE',  ( 0.000000000000000000, 1.000000000000000000, 0.000000000000000000 ) ) ;
#67 = CARTESIAN_POINT ( 'NONE',  ( -6.123233995736772199E-17, 3.000000000000000444, 0.000000000000000000 ) ) ;
#68 = COLOUR_RGB ( '',1.000000000000000000, 0.000000000000000000, 0.000000000000000000 ) ;
#69 = CIRCLE ( 'NONE', #4, 0.1250000000000000278 ) ;
#70 = MANIFOLD_SOLID_BREP ( 'Revolve - Cutting Edge', #59 ) ;
#71 = FILL_AREA_STYLE_COLOUR ( '', #68 ) ;
#72 = CARTESIAN_POINT ( 'NONE',  ( 0.000000000000000000, 0.000000000000000000, 0.000000000000000000 ) ) ;
#73 = PRESENTATION_STYLE_ASSIGNMENT (( #190 ) ) ;
#74 = SURFACE_STYLE_FILL_AREA ( #290 ) ;
#75 = CIRCLE ( 'NONE', #60, 0.1250000000000000278 ) ;
#76 = LINE ( 'NONE', #94, #300 ) ;
#77 = CARTESIAN_POINT ( 'NONE',  ( 0.000000000000000000, 0.000000000000000000, 0.000000000000000000 ) ) ;
#78 = AXIS2_PLACEMENT_3D ( 'NONE', #84, #7, #249 ) ;
#79 = ADVANCED_FACE ( 'NONE', ( #168 ), #218, .T. ) ;
#80 = CYLINDRICAL_SURFACE ( 'NONE', #12, 0.1250000000000000000 ) ;
#81 = DIRECTION ( 'NONE',  ( -0.000000000000000000, -1.000000000000000000, -0.000000000000000000 ) ) ;
#82 = DIRECTION ( 'NONE',  ( -1.000000000000000000, 0.000000000000000000, 0.000000000000000000 ) ) ;
#83 = CARTESIAN_POINT ( 'NONE',  ( -0.1250000000000001110, 3.000000000000000444, 0.000000000000000000 ) ) ;
#84 = CARTESIAN_POINT ( 'NONE',  ( -6.123233995736772199E-17, 3.000000000000000444, 0.000000000000000000 ) ) ;
#85 = CARTESIAN_POINT ( 'NONE',  ( 0.000000000000000000, 0.000000000000000000, 0.000000000000000000 ) ) ;
#86 =( NAMED_UNIT ( * ) PLANE_ANGLE_UNIT ( ) SI_UNIT ( $, .RADIAN. ) );
#87 = DIRECTION ( 'NONE',  ( -0.000000000000000000, -1.000000000000000000, -0.000000000000000000 ) ) ;
#88 = EDGE_LOOP ( 'NONE', ( #118, #158, #172, #257 ) ) ;
#89 = AXIS2_PLACEMENT_3D ( 'NONE', #72, #217, #261 ) ;
#90 = EDGE_CURVE ( 'NONE', #65, #260, #101, .T. ) ;
#91 = FILL_AREA_STYLE ('',( #71 ) ) ;
#92 = PRESENTATION_LAYER_ASSIGNMENT (  '', '', ( #133 ) ) ;
#93 =( CONVERSION_BASED_UNIT ( 'INCH', #219 ) LENGTH_UNIT ( ) NAMED_UNIT ( #46 ) );
#94 = CARTESIAN_POINT ( 'NONE',  ( -0.1250000000000001110, 3.000000000000000444, 0.000000000000000000 ) ) ;
#95 = APPLICATION_PROTOCOL_DEFINITION ( 'draft international standard', 'automotive_design', 1998, #156 ) ;
#96 = EDGE_CURVE ( 'NONE', #305, #134, #52, .T. ) ;
#97 = SURFACE_STYLE_FILL_AREA ( #211 ) ;
#98 = SURFACE_STYLE_USAGE ( .BOTH. , #264 ) ;
#99 = FACE_OUTER_BOUND ( 'NONE', #180, .T. ) ;
#100 = LENGTH_MEASURE_WITH_UNIT ( LENGTH_MEASURE( 0.02539999999999999897 ), #296 );
#101 = LINE ( 'NONE', #170, #64 ) ;
#102 = CARTESIAN_POINT ( 'NONE',  ( 0.1249999999999999861, 3.000000000000000444, 0.000000000000000000 ) ) ;
#103 = DIRECTION ( 'NONE',  ( -0.000000000000000000, -1.000000000000000000, -0.000000000000000000 ) ) ;
#104 = STYLED_ITEM ( 'NONE', ( #163 ), #223 ) ;
#105 = FILL_AREA_STYLE ('',( #38 ) ) ;
#106 = CARTESIAN_POINT ( 'NONE',  ( 1.530808498934191509E-17, 0.000000000000000000, 0.1250000000000000000 ) ) ;
#107 = ORIENTED_EDGE ( 'NONE', *, *, #96, .T. ) ;
#108 =( NAMED_UNIT ( * ) PLANE_ANGLE_UNIT ( ) SI_UNIT ( $, .RADIAN. ) );
#109 = PRESENTATION_LAYER_ASSIGNMENT (  '', '', ( #164 ) ) ;
#110 = EDGE_LOOP ( 'NONE', ( #207, #286, #136, #16 ) ) ;
#111 = PRESENTATION_LAYER_ASSIGNMENT (  '', '', ( #162 ) ) ;
#112 =( CONVERSION_BASED_UNIT ( 'INCH', #179 ) LENGTH_UNIT ( ) NAMED_UNIT ( #115 ) );
#113 = ORIENTED_EDGE ( 'NONE', *, *, #242, .F. ) ;
#114 = PLANE ( 'NONE',  #259 ) ;
#115 = DIMENSIONAL_EXPONENTS ( 1.000000000000000000, 0.000000000000000000, 0.000000000000000000, 0.000000000000000000, 0.000000000000000000, 0.000000000000000000, 0.000000000000000000 ) ;
#116 = FACE_OUTER_BOUND ( 'NONE', #200, .T. ) ;
#117 = PRODUCT_DEFINITION_CONTEXT ( 'detailed design', #156, 'design' ) ;
#118 = ORIENTED_EDGE ( 'NONE', *, *, #56, .T. ) ;
#119 = ADVANCED_FACE ( 'NONE', ( #248 ), #222, .T. ) ;
#120 = UNCERTAINTY_MEASURE_WITH_UNIT (LENGTH_MEASURE( 1.000000000000000082E-05 ), #274, 'distance_accuracy_value', 'NONE');
#121 = VECTOR ( 'NONE', #178, 39.37007874015748143 ) ;
#122 = COLOUR_RGB ( '',1.000000000000000000, 0.000000000000000000, 0.000000000000000000 ) ;
#123 = FILL_AREA_STYLE_COLOUR ( '', #21 ) ;
#124 = UNCERTAINTY_MEASURE_WITH_UNIT (LENGTH_MEASURE( 1.000000000000000082E-05 ), #11, 'distance_accuracy_value', 'NONE');
#125 = LINE ( 'NONE', #193, #306 ) ;
#126 = AXIS2_PLACEMENT_3D ( 'NONE', #28, #191, #280 ) ;
#127 = CARTESIAN_POINT ( 'NONE',  ( 0.000000000000000000, 1.250000000000000000, 0.000000000000000000 ) ) ;
#128 =( NAMED_UNIT ( * ) SI_UNIT ( $, .STERADIAN. ) SOLID_ANGLE_UNIT ( ) );
#129 = DIRECTION ( 'NONE',  ( -0.000000000000000000, -1.000000000000000000, -0.000000000000000000 ) ) ;
#130 = CYLINDRICAL_SURFACE ( 'NONE', #209, 0.1250000000000000000 ) ;
#131 = MECHANICAL_DESIGN_GEOMETRIC_PRESENTATION_REPRESENTATION (  '', ( #104 ), #138 ) ;
#132 = EDGE_CURVE ( 'NONE', #1, #134, #150, .T. ) ;
#133 = STYLED_ITEM ( 'NONE', ( #2 ), #165 ) ;
#134 = VERTEX_POINT ( 'NONE', #255 ) ;
#135 = PRODUCT_DEFINITION_FORMATION_WITH_SPECIFIED_SOURCE ( 'ANY', '', #230, .NOT_KNOWN. ) ;
#136 = ORIENTED_EDGE ( 'NONE', *, *, #216, .T. ) ;
#137 = ORIENTED_EDGE ( 'NONE', *, *, #182, .F. ) ;
#138 =( GEOMETRIC_REPRESENTATION_CONTEXT ( 3 ) GLOBAL_UNCERTAINTY_ASSIGNED_CONTEXT ( ( #244 ) ) GLOBAL_UNIT_ASSIGNED_CONTEXT ( ( #262, #213, #3 ) ) REPRESENTATION_CONTEXT ( 'NONE', 'WORKASPACE' ) );
#139 = EDGE_LOOP ( 'NONE', ( #282, #113 ) ) ;
#140 =( LENGTH_UNIT ( ) NAMED_UNIT ( * ) SI_UNIT ( $, .METRE. ) );
#141 =( NAMED_UNIT ( * ) PLANE_ANGLE_UNIT ( ) SI_UNIT ( $, .RADIAN. ) );
#142 = DIRECTION ( 'NONE',  ( -3.498990854706726443E-17, 1.000000000000000000, -0.000000000000000000 ) ) ;
#143 = CARTESIAN_POINT ( 'NONE',  ( -6.123233995736772199E-17, 3.000000000000000444, 0.000000000000000000 ) ) ;
#144 = SURFACE_SIDE_STYLE ('',( #188 ) ) ;
#145 =( NAMED_UNIT ( * ) PLANE_ANGLE_UNIT ( ) SI_UNIT ( $, .RADIAN. ) );
#146 = ADVANCED_BREP_SHAPE_REPRESENTATION ( '05172', ( #70, #165, #276 ), #41 ) ;
#147 = DIRECTION ( 'NONE',  ( 0.000000000000000000, 0.000000000000000000, -1.000000000000000000 ) ) ;
#148 = CARTESIAN_POINT ( 'NONE',  ( 0.000000000000000000, 1.250000000000000000, 0.000000000000000000 ) ) ;
#149 = APPLICATION_CONTEXT ( 'automotive_design' ) ;
#150 = LINE ( 'NONE', #42, #121 ) ;
#151 =( NAMED_UNIT ( * ) PLANE_ANGLE_UNIT ( ) SI_UNIT ( $, .RADIAN. ) );
#152 = DIRECTION ( 'NONE',  ( 0.000000000000000000, -0.000000000000000000, 1.000000000000000000 ) ) ;
#153 =( GEOMETRIC_REPRESENTATION_CONTEXT ( 3 ) GLOBAL_UNCERTAINTY_ASSIGNED_CONTEXT ( ( #185 ) ) GLOBAL_UNIT_ASSIGNED_CONTEXT ( ( #93, #177, #45 ) ) REPRESENTATION_CONTEXT ( 'NONE', 'WORKASPACE' ) );
#154 = PRODUCT_DEFINITION_SHAPE ( 'NONE', 'NONE',  #239 ) ;
#155 = PRODUCT_RELATED_PRODUCT_CATEGORY ( 'part', '', ( #230 ) ) ;
#156 = APPLICATION_CONTEXT ( 'automotive_design' ) ;
#157 = SURFACE_STYLE_FILL_AREA ( #199 ) ;
#158 = ORIENTED_EDGE ( 'NONE', *, *, #132, .T. ) ;
#159 = CARTESIAN_POINT ( 'NONE',  ( -0.1250000000000000278, 1.250000000000000000, 0.000000000000000000 ) ) ;
#160 = SURFACE_SIDE_STYLE ('',( #74 ) ) ;
#161 = CIRCLE ( 'NONE', #309, 0.1250000000000000278 ) ;
#162 = STYLED_ITEM ( 'NONE', ( #266 ), #229 ) ;
#163 = PRESENTATION_STYLE_ASSIGNMENT (( #50 ) ) ;
#164 = STYLED_ITEM ( 'NONE', ( #73 ), #23 ) ;
#165 = MANIFOLD_SOLID_BREP ( 'Revolve - Tool Body (Straight Shanked)', #31 ) ;
#166 = DIRECTION ( 'NONE',  ( 0.000000000000000000, 0.000000000000000000, -1.000000000000000000 ) ) ;
#167 = EDGE_CURVE ( 'NONE', #134, #305, #187, .T. ) ;
#168 = FACE_OUTER_BOUND ( 'NONE', #110, .T. ) ;
#169 = AXIS2_PLACEMENT_3D ( 'NONE', #67, #288, #208 ) ;
#170 = CARTESIAN_POINT ( 'NONE',  ( 1.530808498934191509E-17, 0.000000000000000000, 0.1250000000000000000 ) ) ;
#171 = DIRECTION ( 'NONE',  ( 1.000000000000000000, 3.498990854706726443E-17, 0.000000000000000000 ) ) ;
#172 = ORIENTED_EDGE ( 'NONE', *, *, #96, .F. ) ;
#173 =( CONVERSION_BASED_UNIT ( 'INCH', #37 ) LENGTH_UNIT ( ) NAMED_UNIT ( #252 ) );
#174 = VERTEX_POINT ( 'NONE', #159 ) ;
#175 = CIRCLE ( 'NONE', #291, 0.1250000000000000278 ) ;
#176 =( NAMED_UNIT ( * ) SI_UNIT ( $, .STERADIAN. ) SOLID_ANGLE_UNIT ( ) );
#177 =( NAMED_UNIT ( * ) PLANE_ANGLE_UNIT ( ) SI_UNIT ( $, .RADIAN. ) );
#178 = DIRECTION ( 'NONE',  ( -3.498990854706726443E-17, 1.000000000000000000, -0.000000000000000000 ) ) ;
#179 = LENGTH_MEASURE_WITH_UNIT ( LENGTH_MEASURE( 0.02539999999999999897 ), #307 );
#180 = EDGE_LOOP ( 'NONE', ( #279, #227, #15, #137 ) ) ;
#181 =( LENGTH_UNIT ( ) NAMED_UNIT ( * ) SI_UNIT ( $, .METRE. ) );
#182 = EDGE_CURVE ( 'NONE', #260, #308, #253, .T. ) ;
#183 = ORIENTED_EDGE ( 'NONE', *, *, #263, .F. ) ;
#184 = SURFACE_SIDE_STYLE ('',( #157 ) ) ;
#185 = UNCERTAINTY_MEASURE_WITH_UNIT (LENGTH_MEASURE( 1.000000000000000082E-05 ), #93, 'distance_accuracy_value', 'NONE');
#186 = DIRECTION ( 'NONE',  ( -3.498990854706726443E-17, 1.000000000000000000, 0.000000000000000000 ) ) ;
#187 = CIRCLE ( 'NONE', #169, 0.1250000000000000555 ) ;
#188 = SURFACE_STYLE_FILL_AREA ( #91 ) ;
#189 = PRESENTATION_STYLE_ASSIGNMENT (( #277 ) ) ;
#190 = SURFACE_STYLE_USAGE ( .BOTH. , #144 ) ;
#191 = DIRECTION ( 'NONE',  ( -3.498990854706726443E-17, 1.000000000000000000, -0.000000000000000000 ) ) ;
#192 = DIRECTION ( 'NONE',  ( -3.498990854706726443E-17, 1.000000000000000000, -0.000000000000000000 ) ) ;
#193 = CARTESIAN_POINT ( 'NONE',  ( 0.000000000000000000, 0.000000000000000000, -0.1250000000000000000 ) ) ;
#194 = FACE_OUTER_BOUND ( 'NONE', #205, .T. ) ;
#195 = AXIS2_PLACEMENT_3D ( 'NONE', #22, #186, #5 ) ;
#196 = CIRCLE ( 'NONE', #293, 0.1250000000000000000 ) ;
#197 = ADVANCED_FACE ( 'NONE', ( #236 ), #51, .F. ) ;
#198 =( LENGTH_UNIT ( ) NAMED_UNIT ( * ) SI_UNIT ( $, .METRE. ) );
#199 = FILL_AREA_STYLE ('',( #226 ) ) ;
#200 = EDGE_LOOP ( 'NONE', ( #304, #63 ) ) ;
#201 = MECHANICAL_DESIGN_GEOMETRIC_PRESENTATION_REPRESENTATION (  '', ( #206 ), #32 ) ;
#202 = COLOUR_RGB ( '',0.7921568627450980005, 0.8196078431372548767, 0.9333333333333333481 ) ;
#203 = AXIS2_PLACEMENT_3D ( 'NONE', #102, #297, #171 ) ;
#204 = CARTESIAN_POINT ( 'NONE',  ( 0.000000000000000000, 1.250000000000000000, 0.000000000000000000 ) ) ;
#205 = EDGE_LOOP ( 'NONE', ( #107, #19 ) ) ;
#206 = STYLED_ITEM ( 'NONE', ( #55 ), #70 ) ;
#207 = ORIENTED_EDGE ( 'NONE', *, *, #132, .F. ) ;
#208 = DIRECTION ( 'NONE',  ( -1.000000000000000000, 0.000000000000000000, 0.000000000000000000 ) ) ;
#209 = AXIS2_PLACEMENT_3D ( 'NONE', #85, #129, #166 ) ;
#210 = LENGTH_MEASURE_WITH_UNIT ( LENGTH_MEASURE( 0.02539999999999999897 ), #181 );
#211 = FILL_AREA_STYLE ('',( #232 ) ) ;
#212 = FACE_OUTER_BOUND ( 'NONE', #301, .T. ) ;
#213 =( NAMED_UNIT ( * ) PLANE_ANGLE_UNIT ( ) SI_UNIT ( $, .RADIAN. ) );
#214 = LENGTH_MEASURE_WITH_UNIT ( LENGTH_MEASURE( 0.02539999999999999897 ), #140 );
#215 = AXIS2_PLACEMENT_3D ( 'NONE', #204, #66, #152 ) ;
#216 = EDGE_CURVE ( 'NONE', #174, #305, #76, .T. ) ;
#217 = DIRECTION ( 'NONE',  ( -0.000000000000000000, -1.000000000000000000, -0.000000000000000000 ) ) ;
#218 = CYLINDRICAL_SURFACE ( 'NONE', #78, 0.1250000000000000278 ) ;
#219 = LENGTH_MEASURE_WITH_UNIT ( LENGTH_MEASURE( 0.02539999999999999897 ), #235 );
#220 =( GEOMETRIC_REPRESENTATION_CONTEXT ( 3 ) GLOBAL_UNCERTAINTY_ASSIGNED_CONTEXT ( ( #237 ) ) GLOBAL_UNIT_ASSIGNED_CONTEXT ( ( #48, #141, #238 ) ) REPRESENTATION_CONTEXT ( 'NONE', 'WORKASPACE' ) );
#221 = CARTESIAN_POINT ( 'NONE',  ( 0.000000000000000000, 1.250000000000000000, 0.000000000000000000 ) ) ;
#222 = PLANE ( 'NONE',  #215 ) ;
#223 = ADVANCED_FACE ( 'NONE', ( #116 ), #114, .T. ) ;
#224 = LENGTH_MEASURE_WITH_UNIT ( LENGTH_MEASURE( 0.02539999999999999897 ), #62 );
#225 = MECHANICAL_DESIGN_GEOMETRIC_PRESENTATION_REPRESENTATION (  '', ( #292 ), #234 ) ;
#226 = FILL_AREA_STYLE_COLOUR ( '', #246 ) ;
#227 = ORIENTED_EDGE ( 'NONE', *, *, #242, .T. ) ;
#228 = CARTESIAN_POINT ( 'NONE',  ( 0.000000000000000000, 0.000000000000000000, 0.000000000000000000 ) ) ;
#229 = ADVANCED_FACE ( 'NONE', ( #99 ), #130, .T. ) ;
#230 = PRODUCT ( '05172', '05172', '', ( #40 ) ) ;
#231 = ORIENTED_EDGE ( 'NONE', *, *, #90, .T. ) ;
#232 = FILL_AREA_STYLE_COLOUR ( '', #122 ) ;
#233 = CYLINDRICAL_SURFACE ( 'NONE', #126, 0.1250000000000000278 ) ;
#234 =( GEOMETRIC_REPRESENTATION_CONTEXT ( 3 ) GLOBAL_UNCERTAINTY_ASSIGNED_CONTEXT ( ( #124 ) ) GLOBAL_UNIT_ASSIGNED_CONTEXT ( ( #11, #108, #17 ) ) REPRESENTATION_CONTEXT ( 'NONE', 'WORKASPACE' ) );
#235 =( LENGTH_UNIT ( ) NAMED_UNIT ( * ) SI_UNIT ( $, .METRE. ) );
#236 = FACE_OUTER_BOUND ( 'NONE', #14, .T. ) ;
#237 = UNCERTAINTY_MEASURE_WITH_UNIT (LENGTH_MEASURE( 1.000000000000000082E-05 ), #48, 'distance_accuracy_value', 'NONE');
#238 =( NAMED_UNIT ( * ) SI_UNIT ( $, .STERADIAN. ) SOLID_ANGLE_UNIT ( ) );
#239 = PRODUCT_DEFINITION ( 'UNKNOWN', '', #135, #117 ) ;
#240 = DIRECTION ( 'NONE',  ( -3.498990854706726443E-17, 1.000000000000000000, -0.000000000000000000 ) ) ;
#241 = CARTESIAN_POINT ( 'NONE',  ( 0.1250000000000000278, 1.250000000000000000, 1.530808498934192125E-17 ) ) ;
#242 = EDGE_CURVE ( 'NONE', #65, #44, #75, .T. ) ;
#243 = DIRECTION ( 'NONE',  ( -1.000000000000000000, 0.000000000000000000, 0.000000000000000000 ) ) ;
#244 = UNCERTAINTY_MEASURE_WITH_UNIT (LENGTH_MEASURE( 1.000000000000000082E-05 ), #262, 'distance_accuracy_value', 'NONE');
#245 = SURFACE_STYLE_FILL_AREA ( #57 ) ;
#246 = COLOUR_RGB ( '',0.7921568627450980005, 0.8196078431372548767, 0.9333333333333333481 ) ;
#247 = MECHANICAL_DESIGN_GEOMETRIC_PRESENTATION_REPRESENTATION (  '', ( #162 ), #33 ) ;
#248 = FACE_OUTER_BOUND ( 'NONE', #139, .T. ) ;
#249 = DIRECTION ( 'NONE',  ( -1.000000000000000000, 0.000000000000000000, 0.000000000000000000 ) ) ;
#250 = PLANE ( 'NONE',  #203 ) ;
#251 = AXIS2_PLACEMENT_3D ( 'NONE', #143, #240, #302 ) ;
#252 = DIMENSIONAL_EXPONENTS ( 1.000000000000000000, 0.000000000000000000, 0.000000000000000000, 0.000000000000000000, 0.000000000000000000, 0.000000000000000000, 0.000000000000000000 ) ;
#253 = CIRCLE ( 'NONE', #89, 0.1250000000000000000 ) ;
#254 = ORIENTED_EDGE ( 'NONE', *, *, #56, .F. ) ;
#255 = CARTESIAN_POINT ( 'NONE',  ( 0.1250000000000000000, 3.000000000000000444, 1.530808498934192125E-17 ) ) ;
#256 = DIRECTION ( 'NONE',  ( -0.000000000000000000, -1.000000000000000000, -0.000000000000000000 ) ) ;
#257 = ORIENTED_EDGE ( 'NONE', *, *, #216, .F. ) ;
#258 = DIMENSIONAL_EXPONENTS ( 1.000000000000000000, 0.000000000000000000, 0.000000000000000000, 0.000000000000000000, 0.000000000000000000, 0.000000000000000000, 0.000000000000000000 ) ;
#259 = AXIS2_PLACEMENT_3D ( 'NONE', #77, #26, #6 ) ;
#260 = VERTEX_POINT ( 'NONE', #106 ) ;
#261 = DIRECTION ( 'NONE',  ( 0.000000000000000000, 0.000000000000000000, -1.000000000000000000 ) ) ;
#262 =( CONVERSION_BASED_UNIT ( 'INCH', #214 ) LENGTH_UNIT ( ) NAMED_UNIT ( #289 ) );
#263 = EDGE_CURVE ( 'NONE', #308, #260, #196, .T. ) ;
#264 = SURFACE_SIDE_STYLE ('',( #97 ) ) ;
#265 = SURFACE_STYLE_USAGE ( .BOTH. , #184 ) ;
#266 = PRESENTATION_STYLE_ASSIGNMENT (( #98 ) ) ;
#267 = MECHANICAL_DESIGN_GEOMETRIC_PRESENTATION_REPRESENTATION (  '', ( #133 ), #220 ) ;
#268 = DIRECTION ( 'NONE',  ( 0.000000000000000000, 0.000000000000000000, -1.000000000000000000 ) ) ;
#269 = FILL_AREA_STYLE_COLOUR ( '', #275 ) ;
#270 = CARTESIAN_POINT ( 'NONE',  ( 0.000000000000000000, 0.000000000000000000, 0.000000000000000000 ) ) ;
#271 = DIRECTION ( 'NONE',  ( -0.000000000000000000, -1.000000000000000000, -0.000000000000000000 ) ) ;
#272 = CARTESIAN_POINT ( 'NONE',  ( 0.000000000000000000, 1.250000000000000000, 0.000000000000000000 ) ) ;
#273 = UNCERTAINTY_MEASURE_WITH_UNIT (LENGTH_MEASURE( 1.000000000000000082E-05 ), #173, 'distance_accuracy_value', 'NONE');
#274 =( CONVERSION_BASED_UNIT ( 'INCH', #100 ) LENGTH_UNIT ( ) NAMED_UNIT ( #258 ) );
#275 = COLOUR_RGB ( '',1.000000000000000000, 0.000000000000000000, 0.000000000000000000 ) ;
#276 = AXIS2_PLACEMENT_3D ( 'NONE', #228, #18, #20 ) ;
#277 = SURFACE_STYLE_USAGE ( .BOTH. , #10 ) ;
#278 = CARTESIAN_POINT ( 'NONE',  ( 0.000000000000000000, 0.000000000000000000, -0.1250000000000000000 ) ) ;
#279 = ORIENTED_EDGE ( 'NONE', *, *, #90, .F. ) ;
#280 = DIRECTION ( 'NONE',  ( -1.000000000000000000, 0.000000000000000000, 0.000000000000000000 ) ) ;
#281 = EDGE_CURVE ( 'NONE', #44, #65, #69, .T. ) ;
#282 = ORIENTED_EDGE ( 'NONE', *, *, #281, .F. ) ;
#283 = APPLICATION_PROTOCOL_DEFINITION ( 'draft international standard', 'automotive_design', 1998, #149 ) ;
#284 = DIMENSIONAL_EXPONENTS ( 1.000000000000000000, 0.000000000000000000, 0.000000000000000000, 0.000000000000000000, 0.000000000000000000, 0.000000000000000000, 0.000000000000000000 ) ;
#285 = PRESENTATION_LAYER_ASSIGNMENT (  '', '', ( #104 ) ) ;
#286 = ORIENTED_EDGE ( 'NONE', *, *, #47, .T. ) ;
#287 = DIMENSIONAL_EXPONENTS ( 1.000000000000000000, 0.000000000000000000, 0.000000000000000000, 0.000000000000000000, 0.000000000000000000, 0.000000000000000000, 0.000000000000000000 ) ;
#288 = DIRECTION ( 'NONE',  ( -3.498990854706726443E-17, 1.000000000000000000, -0.000000000000000000 ) ) ;
#289 = DIMENSIONAL_EXPONENTS ( 1.000000000000000000, 0.000000000000000000, 0.000000000000000000, 0.000000000000000000, 0.000000000000000000, 0.000000000000000000, 0.000000000000000000 ) ;
#290 = FILL_AREA_STYLE ('',( #123 ) ) ;
#291 = AXIS2_PLACEMENT_3D ( 'NONE', #148, #34, #243 ) ;
#292 = STYLED_ITEM ( 'NONE', ( #189 ), #119 ) ;
#293 = AXIS2_PLACEMENT_3D ( 'NONE', #58, #303, #147 ) ;
#294 = SURFACE_STYLE_USAGE ( .BOTH. , #61 ) ;
#295 = CARTESIAN_POINT ( 'NONE',  ( 1.530808498934191817E-17, 1.250000000000000000, 0.1250000000000000278 ) ) ;
#296 =( LENGTH_UNIT ( ) NAMED_UNIT ( * ) SI_UNIT ( $, .METRE. ) );
#297 = DIRECTION ( 'NONE',  ( 3.498990854706726443E-17, -1.000000000000000000, 0.000000000000000000 ) ) ;
#298 = ADVANCED_FACE ( 'NONE', ( #194 ), #250, .F. ) ;
#299 = CARTESIAN_POINT ( 'NONE',  ( 0.000000000000000000, 1.250000000000000000, -0.1250000000000000278 ) ) ;
#300 = VECTOR ( 'NONE', #142, 39.37007874015748143 ) ;
#301 = EDGE_LOOP ( 'NONE', ( #24, #231, #183, #49 ) ) ;
#302 = DIRECTION ( 'NONE',  ( -1.000000000000000000, 0.000000000000000000, 0.000000000000000000 ) ) ;
#303 = DIRECTION ( 'NONE',  ( -0.000000000000000000, -1.000000000000000000, -0.000000000000000000 ) ) ;
#304 = ORIENTED_EDGE ( 'NONE', *, *, #263, .T. ) ;
#305 = VERTEX_POINT ( 'NONE', #83 ) ;
#306 = VECTOR ( 'NONE', #81, 39.37007874015748143 ) ;
#307 =( LENGTH_UNIT ( ) NAMED_UNIT ( * ) SI_UNIT ( $, .METRE. ) );
#308 = VERTEX_POINT ( 'NONE', #278 ) ;
#309 = AXIS2_PLACEMENT_3D ( 'NONE', #127, #192, #82 ) ;
ENDSEC;
END-ISO-10303-21;
