ISO-10303-21;
HEADER;
FILE_DESCRIPTION (( 'STEP AP214' ),
    '1' );
FILE_NAME ('Micro_GEMM-120-2.STEP',
    '2021-09-01T21:57:15',
    ( '' ),
    ( '' ),
    'SwSTEP 2.0',
    'SolidWorks 2020',
    '' );
FILE_SCHEMA (( 'AUTOMOTIVE_DESIGN' ));
ENDSEC;

DATA;
#1 = PRODUCT_RELATED_PRODUCT_CATEGORY ( 'part', '', ( #221 ) ) ;
#2 = FILL_AREA_STYLE_COLOUR ( '', #113 ) ;
#3 = ADVANCED_FACE ( 'NONE', ( #103 ), #83, .T. ) ;
#4 = AXIS2_PLACEMENT_3D ( 'NONE', #101, #267, #172 ) ;
#5 = PRODUCT_DEFINITION_SHAPE ( 'NONE', 'NONE',  #120 ) ;
#6 = APPLICATION_PROTOCOL_DEFINITION ( 'draft international standard', 'automotive_design', 1998, #198 ) ;
#7 = CARTESIAN_POINT ( 'NONE',  ( 0.2212205000000019295, 2.801018282243833685E-17, 3.267717000000000649 ) ) ;
#8 =( LENGTH_UNIT ( ) NAMED_UNIT ( * ) SI_UNIT ( $, .METRE. ) );
#9 = ORIENTED_EDGE ( 'NONE', *, *, #59, .F. ) ;
#10 = ORIENTED_EDGE ( 'NONE', *, *, #177, .F. ) ;
#11 = ORIENTED_EDGE ( 'NONE', *, *, #88, .T. ) ;
#12 = CIRCLE ( 'NONE', #210, 0.2362204999999999999 ) ;
#13 = FILL_AREA_STYLE_COLOUR ( '', #126 ) ;
#14 = ORIENTED_EDGE ( 'NONE', *, *, #278, .T. ) ;
#15 = DIRECTION ( 'NONE',  ( -0.1736481776669311639, 2.126576849575782392E-17, 0.9848077530122080203 ) ) ;
#16 = LENGTH_MEASURE_WITH_UNIT ( LENGTH_MEASURE( 0.02539999999999999897 ), #213 );
#17 = CARTESIAN_POINT ( 'NONE',  ( 0.0000000000000000000, 0.0000000000000000000, 3.252717000000002301 ) ) ;
#18 = DIRECTION ( 'NONE',  ( -1.224646799147353454E-16, -0.0000000000000000000, -1.000000000000000000 ) ) ;
#19 = CYLINDRICAL_SURFACE ( 'NONE', #23, 0.2359842795000000326 ) ;
#20 = DIRECTION ( 'NONE',  ( -1.000000000000000000, 0.0000000000000000000, 1.224646799147353454E-16 ) ) ;
#21 = DIRECTION ( 'NONE',  ( 0.0000000000000000000, 0.0000000000000000000, -1.000000000000000000 ) ) ;
#22 = STYLED_ITEM ( 'NONE', ( #46 ), #161 ) ;
#23 = AXIS2_PLACEMENT_3D ( 'NONE', #171, #187, #57 ) ;
#24 =( GEOMETRIC_REPRESENTATION_CONTEXT ( 3 ) GLOBAL_UNCERTAINTY_ASSIGNED_CONTEXT ( ( #134 ) ) GLOBAL_UNIT_ASSIGNED_CONTEXT ( ( #108, #131, #176 ) ) REPRESENTATION_CONTEXT ( 'NONE', 'WORKASPACE' ) );
#25 = PRODUCT_DEFINITION_FORMATION_WITH_SPECIFIED_SOURCE ( 'ANY', '', #221, .NOT_KNOWN. ) ;
#26 = CARTESIAN_POINT ( 'NONE',  ( 0.0000000000000000000, 0.0000000000000000000, 3.267717000000000649 ) ) ;
#27 = ORIENTED_EDGE ( 'NONE', *, *, #30, .T. ) ;
#28 = ORIENTED_EDGE ( 'NONE', *, *, #280, .F. ) ;
#29 =( NAMED_UNIT ( * ) SI_UNIT ( $, .STERADIAN. ) SOLID_ANGLE_UNIT ( ) );
#30 = EDGE_CURVE ( 'NONE', #98, #139, #38, .T. ) ;
#31 =( CONVERSION_BASED_UNIT ( 'INCH', #142 ) LENGTH_UNIT ( ) NAMED_UNIT ( #136 ) );
#32 = DIRECTION ( 'NONE',  ( 1.000000000000000000, 0.0000000000000000000, 0.0000000000000000000 ) ) ;
#33 = ADVANCED_FACE ( 'NONE', ( #125 ), #79, .T. ) ;
#34 = ORIENTED_EDGE ( 'NONE', *, *, #203, .F. ) ;
#35 = DIRECTION ( 'NONE',  ( -1.224646799147353454E-16, -0.0000000000000000000, -1.000000000000000000 ) ) ;
#36 = SURFACE_STYLE_USAGE ( .BOTH. , #230 ) ;
#37 = CLOSED_SHELL ( 'NONE', ( #112, #193, #47, #121, #3, #109, #160, #208, #33, #279 ) ) ;
#38 = LINE ( 'NONE', #242, #137 ) ;
#39 = SURFACE_SIDE_STYLE ('',( #67 ) ) ;
#40 = CARTESIAN_POINT ( 'NONE',  ( 0.0000000000000000000, 0.0000000000000000000, 3.267717000000000649 ) ) ;
#41 = AXIS2_PLACEMENT_3D ( 'NONE', #64, #145, #32 ) ;
#42 = CIRCLE ( 'NONE', #183, 0.2359842795000000049 ) ;
#43 = CARTESIAN_POINT ( 'NONE',  ( 0.2362205000000001109, 2.892866792179873879E-17, 0.8674816730270707987 ) ) ;
#44 = AXIS2_PLACEMENT_3D ( 'NONE', #199, #249, #52 ) ;
#45 = DIMENSIONAL_EXPONENTS ( 1.000000000000000000, 0.0000000000000000000, 0.0000000000000000000, 0.0000000000000000000, 0.0000000000000000000, 0.0000000000000000000, 0.0000000000000000000 ) ;
#46 = PRESENTATION_STYLE_ASSIGNMENT (( #244 ) ) ;
#47 = ADVANCED_FACE ( 'NONE', ( #76 ), #245, .T. ) ;
#48 = VECTOR ( 'NONE', #173, 39.37007874015748143 ) ;
#49 = EDGE_CURVE ( 'NONE', #75, #139, #73, .T. ) ;
#50 = EDGE_LOOP ( 'NONE', ( #11, #14 ) ) ;
#51 = AXIS2_PLACEMENT_3D ( 'NONE', #40, #297, #123 ) ;
#52 = DIRECTION ( 'NONE',  ( -1.000000000000000000, 0.0000000000000000000, 0.0000000000000000000 ) ) ;
#53 = EDGE_LOOP ( 'NONE', ( #115, #262, #231, #186 ) ) ;
#54 = CARTESIAN_POINT ( 'NONE',  ( -0.2359842795000000049, 0.0000000000000000000, 5.779947850775388659E-17 ) ) ;
#55 = ORIENTED_EDGE ( 'NONE', *, *, #159, .F. ) ;
#56 = AXIS2_PLACEMENT_3D ( 'NONE', #228, #252, #202 ) ;
#57 = DIRECTION ( 'NONE',  ( -1.000000000000000000, 0.0000000000000000000, 1.224646799147353454E-16 ) ) ;
#58 = DIRECTION ( 'NONE',  ( 1.000000000000000000, 0.0000000000000000000, -0.0000000000000000000 ) ) ;
#59 = EDGE_CURVE ( 'NONE', #285, #114, #165, .T. ) ;
#60 = DIRECTION ( 'NONE',  ( 1.000000000000000000, 0.0000000000000000000, 0.0000000000000000000 ) ) ;
#61 = CARTESIAN_POINT ( 'NONE',  ( -0.2212205000000019295, 0.0000000000000000000, 3.267717000000000649 ) ) ;
#62 = UNCERTAINTY_MEASURE_WITH_UNIT (LENGTH_MEASURE( 1.000000000000000082E-05 ), #97, 'distance_accuracy_value', 'NONE');
#63 = CIRCLE ( 'NONE', #215, 0.2362204999999999999 ) ;
#64 = CARTESIAN_POINT ( 'NONE',  ( 0.0000000000000000000, 0.0000000000000000000, 3.267717000000000649 ) ) ;
#65 = AXIS2_PLACEMENT_3D ( 'NONE', #232, #146, #214 ) ;
#66 = CIRCLE ( 'NONE', #106, 0.2359842795000000326 ) ;
#67 = SURFACE_STYLE_FILL_AREA ( #238 ) ;
#68 = ORIENTED_EDGE ( 'NONE', *, *, #197, .F. ) ;
#69 = ORIENTED_EDGE ( 'NONE', *, *, #132, .F. ) ;
#70 = ORIENTED_EDGE ( 'NONE', *, *, #278, .F. ) ;
#71 = DIRECTION ( 'NONE',  ( -0.7071067811865474617, 0.0000000000000000000, -0.7071067811865474617 ) ) ;
#72 = ORIENTED_EDGE ( 'NONE', *, *, #59, .T. ) ;
#73 = LINE ( 'NONE', #293, #189 ) ;
#74 = SURFACE_STYLE_FILL_AREA ( #140 ) ;
#75 = VERTEX_POINT ( 'NONE', #216 ) ;
#76 = FACE_OUTER_BOUND ( 'NONE', #116, .T. ) ;
#77 = VECTOR ( 'NONE', #71, 39.37007874015748854 ) ;
#78 = DIRECTION ( 'NONE',  ( 1.000000000000000000, 0.0000000000000000000, 0.0000000000000000000 ) ) ;
#79 = CYLINDRICAL_SURFACE ( 'NONE', #265, 0.2359842795000000326 ) ;
#80 = DIRECTION ( 'NONE',  ( 0.0000000000000000000, 0.0000000000000000000, 1.000000000000000000 ) ) ;
#81 = DIRECTION ( 'NONE',  ( -1.000000000000000000, 0.0000000000000000000, 1.224646799147353454E-16 ) ) ;
#82 = FACE_OUTER_BOUND ( 'NONE', #261, .T. ) ;
#83 = CYLINDRICAL_SURFACE ( 'NONE', #4, 0.2362204999999999999 ) ;
#84 = PRESENTATION_LAYER_ASSIGNMENT (  '', '', ( #178 ) ) ;
#85 = DIRECTION ( 'NONE',  ( -0.0000000000000000000, -0.0000000000000000000, -1.000000000000000000 ) ) ;
#86 = LENGTH_MEASURE_WITH_UNIT ( LENGTH_MEASURE( 0.02539999999999999897 ), #174 );
#87 = CIRCLE ( 'NONE', #44, 0.2359842795000000326 ) ;
#88 = EDGE_CURVE ( 'NONE', #92, #162, #286, .T. ) ;
#89 =( NAMED_UNIT ( * ) SI_UNIT ( $, .STERADIAN. ) SOLID_ANGLE_UNIT ( ) );
#90 = ORIENTED_EDGE ( 'NONE', *, *, #49, .F. ) ;
#91 = LINE ( 'NONE', #294, #77 ) ;
#92 = VERTEX_POINT ( 'NONE', #61 ) ;
#93 = AXIS2_PLACEMENT_3D ( 'NONE', #271, #251, #111 ) ;
#94 = CARTESIAN_POINT ( 'NONE',  ( 0.0000000000000000000, 0.0000000000000000000, 3.252717000000002301 ) ) ;
#95 = ORIENTED_EDGE ( 'NONE', *, *, #268, .T. ) ;
#96 = FACE_OUTER_BOUND ( 'NONE', #53, .T. ) ;
#97 =( CONVERSION_BASED_UNIT ( 'INCH', #16 ) LENGTH_UNIT ( ) NAMED_UNIT ( #45 ) );
#98 = VERTEX_POINT ( 'NONE', #117 ) ;
#99 = DIRECTION ( 'NONE',  ( 0.0000000000000000000, 0.0000000000000000000, 1.000000000000000000 ) ) ;
#100 = CARTESIAN_POINT ( 'NONE',  ( 1.062358654191593257E-16, 0.0000000000000000000, 0.8674816730270707987 ) ) ;
#101 = CARTESIAN_POINT ( 'NONE',  ( 0.0000000000000000000, 0.0000000000000000000, 3.267717000000000649 ) ) ;
#102 = CARTESIAN_POINT ( 'NONE',  ( 0.2359842795000001436, 0.0000000000000000000, 0.8661419999999999675 ) ) ;
#103 = FACE_OUTER_BOUND ( 'NONE', #290, .T. ) ;
#104 = LINE ( 'NONE', #299, #222 ) ;
#105 = CARTESIAN_POINT ( 'NONE',  ( -0.2359842795000000326, 0.0000000000000000000, 2.889973925387694330E-17 ) ) ;
#106 = AXIS2_PLACEMENT_3D ( 'NONE', #270, #35, #127 ) ;
#107 = LINE ( 'NONE', #102, #48 ) ;
#108 =( CONVERSION_BASED_UNIT ( 'INCH', #86 ) LENGTH_UNIT ( ) NAMED_UNIT ( #248 ) );
#109 = ADVANCED_FACE ( 'NONE', ( #237 ), #211, .T. ) ;
#110 = MECHANICAL_DESIGN_GEOMETRIC_PRESENTATION_REPRESENTATION (  '', ( #178 ), #164 ) ;
#111 = DIRECTION ( 'NONE',  ( 1.000000000000000000, 0.0000000000000000000, 0.0000000000000000000 ) ) ;
#112 = ADVANCED_FACE ( 'NONE', ( #235 ), #19, .T. ) ;
#113 = COLOUR_RGB ( '',0.7921568627450980005, 0.8196078431372548767, 0.9333333333333333481 ) ;
#114 = VERTEX_POINT ( 'NONE', #239 ) ;
#115 = ORIENTED_EDGE ( 'NONE', *, *, #224, .T. ) ;
#116 = EDGE_LOOP ( 'NONE', ( #70, #255, #207, #292 ) ) ;
#117 = CARTESIAN_POINT ( 'NONE',  ( -0.2362204999999999999, 0.0000000000000000000, 3.252717000000002301 ) ) ;
#118 = CARTESIAN_POINT ( 'NONE',  ( -0.2362204999999998889, 0.0000000000000000000, 0.8674816730270707987 ) ) ;
#119 = PRESENTATION_STYLE_ASSIGNMENT (( #36 ) ) ;
#120 = PRODUCT_DEFINITION ( 'UNKNOWN', '', #25, #150 ) ;
#121 = ADVANCED_FACE ( 'NONE', ( #96 ), #191, .T. ) ;
#122 = ORIENTED_EDGE ( 'NONE', *, *, #168, .F. ) ;
#123 = DIRECTION ( 'NONE',  ( -1.000000000000000000, 0.0000000000000000000, 0.0000000000000000000 ) ) ;
#124 = EDGE_LOOP ( 'NONE', ( #72, #179 ) ) ;
#125 = FACE_OUTER_BOUND ( 'NONE', #229, .T. ) ;
#126 = COLOUR_RGB ( '',0.7921568627450980005, 0.8196078431372548767, 0.9333333333333333481 ) ;
#127 = DIRECTION ( 'NONE',  ( -1.000000000000000000, 0.0000000000000000000, 0.0000000000000000000 ) ) ;
#128 = CARTESIAN_POINT ( 'NONE',  ( 0.0000000000000000000, 0.0000000000000000000, 0.0000000000000000000 ) ) ;
#129 = ORIENTED_EDGE ( 'NONE', *, *, #154, .T. ) ;
#130 = CONICAL_SURFACE ( 'NONE', #56, 0.2212205000000019295, 0.7853981633974482790 ) ;
#131 =( NAMED_UNIT ( * ) PLANE_ANGLE_UNIT ( ) SI_UNIT ( $, .RADIAN. ) );
#132 = EDGE_CURVE ( 'NONE', #114, #285, #42, .T. ) ;
#133 = VERTEX_POINT ( 'NONE', #43 ) ;
#134 = UNCERTAINTY_MEASURE_WITH_UNIT (LENGTH_MEASURE( 1.000000000000000082E-05 ), #108, 'distance_accuracy_value', 'NONE');
#135 = EDGE_CURVE ( 'NONE', #141, #75, #66, .T. ) ;
#136 = DIMENSIONAL_EXPONENTS ( 1.000000000000000000, 0.0000000000000000000, 0.0000000000000000000, 0.0000000000000000000, 0.0000000000000000000, 0.0000000000000000000, 0.0000000000000000000 ) ;
#137 = VECTOR ( 'NONE', #291, 39.37007874015748143 ) ;
#138 = AXIS2_PLACEMENT_3D ( 'NONE', #100, #233, #236 ) ;
#139 = VERTEX_POINT ( 'NONE', #118 ) ;
#140 = FILL_AREA_STYLE ('',( #13 ) ) ;
#141 = VERTEX_POINT ( 'NONE', #218 ) ;
#142 = LENGTH_MEASURE_WITH_UNIT ( LENGTH_MEASURE( 0.02539999999999999897 ), #8 );
#143 = ORIENTED_EDGE ( 'NONE', *, *, #154, .F. ) ;
#144 =( GEOMETRIC_REPRESENTATION_CONTEXT ( 3 ) GLOBAL_UNCERTAINTY_ASSIGNED_CONTEXT ( ( #62 ) ) GLOBAL_UNIT_ASSIGNED_CONTEXT ( ( #97, #166, #29 ) ) REPRESENTATION_CONTEXT ( 'NONE', 'WORKASPACE' ) );
#145 = DIRECTION ( 'NONE',  ( 0.0000000000000000000, 0.0000000000000000000, 1.000000000000000000 ) ) ;
#146 = DIRECTION ( 'NONE',  ( 0.0000000000000000000, 0.0000000000000000000, -1.000000000000000000 ) ) ;
#147 = ORIENTED_EDGE ( 'NONE', *, *, #220, .T. ) ;
#148 = CARTESIAN_POINT ( 'NONE',  ( 0.0000000000000000000, 0.0000000000000000000, 0.0000000000000000000 ) ) ;
#149 = AXIS2_PLACEMENT_3D ( 'NONE', #298, #99, #58 ) ;
#150 = PRODUCT_DEFINITION_CONTEXT ( 'detailed design', #170, 'design' ) ;
#151 = CARTESIAN_POINT ( 'NONE',  ( 1.060718027907087028E-16, 0.0000000000000000000, 0.8661419999999999675 ) ) ;
#152 = FACE_OUTER_BOUND ( 'NONE', #246, .T. ) ;
#153 = ORIENTED_EDGE ( 'NONE', *, *, #220, .F. ) ;
#154 = EDGE_CURVE ( 'NONE', #75, #285, #212, .T. ) ;
#155 = DIRECTION ( 'NONE',  ( 1.000000000000000000, 0.0000000000000000000, -0.0000000000000000000 ) ) ;
#156 = MECHANICAL_DESIGN_GEOMETRIC_PRESENTATION_REPRESENTATION (  '', ( #22 ), #24 ) ;
#157 = FACE_OUTER_BOUND ( 'NONE', #124, .T. ) ;
#158 = ORIENTED_EDGE ( 'NONE', *, *, #197, .T. ) ;
#159 = EDGE_CURVE ( 'NONE', #258, #98, #12, .T. ) ;
#160 = ADVANCED_FACE ( 'NONE', ( #152 ), #130, .T. ) ;
#161 = ADVANCED_BREP_SHAPE_REPRESENTATION ( 'Micro_GEMM-120-2', ( #282, #272 ), #144 ) ;
#162 = VERTEX_POINT ( 'NONE', #7 ) ;
#163 = CARTESIAN_POINT ( 'NONE',  ( 3.539197317345352573E-33, 0.0000000000000000000, 2.889973925387694330E-17 ) ) ;
#164 =( GEOMETRIC_REPRESENTATION_CONTEXT ( 3 ) GLOBAL_UNCERTAINTY_ASSIGNED_CONTEXT ( ( #274 ) ) GLOBAL_UNIT_ASSIGNED_CONTEXT ( ( #31, #283, #89 ) ) REPRESENTATION_CONTEXT ( 'NONE', 'WORKASPACE' ) );
#165 = CIRCLE ( 'NONE', #276, 0.2359842795000000049 ) ;
#166 =( NAMED_UNIT ( * ) PLANE_ANGLE_UNIT ( ) SI_UNIT ( $, .RADIAN. ) );
#167 = CARTESIAN_POINT ( 'NONE',  ( 3.539197317345352573E-33, 0.0000000000000000000, 2.889973925387694330E-17 ) ) ;
#168 = EDGE_CURVE ( 'NONE', #162, #258, #206, .T. ) ;
#169 = FACE_OUTER_BOUND ( 'NONE', #260, .T. ) ;
#170 = APPLICATION_CONTEXT ( 'automotive_design' ) ;
#171 = CARTESIAN_POINT ( 'NONE',  ( 0.0000000000000000000, 0.0000000000000000000, 0.0000000000000000000 ) ) ;
#172 = DIRECTION ( 'NONE',  ( -1.000000000000000000, 0.0000000000000000000, 0.0000000000000000000 ) ) ;
#173 = DIRECTION ( 'NONE',  ( 0.1736481776669313304, 0.0000000000000000000, 0.9848077530122077983 ) ) ;
#174 =( LENGTH_UNIT ( ) NAMED_UNIT ( * ) SI_UNIT ( $, .METRE. ) );
#175 = CIRCLE ( 'NONE', #241, 0.2212205000000019295 ) ;
#176 =( NAMED_UNIT ( * ) SI_UNIT ( $, .STERADIAN. ) SOLID_ANGLE_UNIT ( ) );
#177 = EDGE_CURVE ( 'NONE', #141, #133, #107, .T. ) ;
#178 = STYLED_ITEM ( 'NONE', ( #119 ), #282 ) ;
#179 = ORIENTED_EDGE ( 'NONE', *, *, #132, .T. ) ;
#180 = CARTESIAN_POINT ( 'NONE',  ( 0.2359842795000000326, 2.889973925387694330E-17, -2.889973925387694330E-17 ) ) ;
#181 = DIRECTION ( 'NONE',  ( 1.000000000000000000, 0.0000000000000000000, 0.0000000000000000000 ) ) ;
#182 = VECTOR ( 'NONE', #240, 39.37007874015748854 ) ;
#183 = AXIS2_PLACEMENT_3D ( 'NONE', #163, #18, #263 ) ;
#184 = ORIENTED_EDGE ( 'NONE', *, *, #88, .F. ) ;
#185 = DIRECTION ( 'NONE',  ( -1.224646799147353454E-16, -0.0000000000000000000, -1.000000000000000000 ) ) ;
#186 = ORIENTED_EDGE ( 'NONE', *, *, #30, .F. ) ;
#187 = DIRECTION ( 'NONE',  ( -1.224646799147353454E-16, -0.0000000000000000000, -1.000000000000000000 ) ) ;
#188 = CARTESIAN_POINT ( 'NONE',  ( 0.2362204999999999999, 2.892866792179872647E-17, 3.252717000000002301 ) ) ;
#189 = VECTOR ( 'NONE', #15, 39.37007874015747433 ) ;
#190 = ORIENTED_EDGE ( 'NONE', *, *, #159, .T. ) ;
#191 = CYLINDRICAL_SURFACE ( 'NONE', #51, 0.2362204999999999999 ) ;
#192 = DIRECTION ( 'NONE',  ( -1.224646799147353454E-16, -0.0000000000000000000, -1.000000000000000000 ) ) ;
#193 = ADVANCED_FACE ( 'NONE', ( #169 ), #194, .T. ) ;
#194 = CONICAL_SURFACE ( 'NONE', #266, 0.2359842795000000326, 0.1745329251994338360 ) ;
#195 = DIRECTION ( 'NONE',  ( -1.224646799147353454E-16, -0.0000000000000000000, -1.000000000000000000 ) ) ;
#196 = DIRECTION ( 'NONE',  ( 1.224646799147353454E-16, 0.0000000000000000000, 1.000000000000000000 ) ) ;
#197 = EDGE_CURVE ( 'NONE', #133, #139, #63, .T. ) ;
#198 = APPLICATION_CONTEXT ( 'automotive_design' ) ;
#199 = CARTESIAN_POINT ( 'NONE',  ( 1.060718027907087028E-16, 0.0000000000000000000, 0.8661419999999999675 ) ) ;
#200 = VECTOR ( 'NONE', #287, 39.37007874015748143 ) ;
#201 = DIRECTION ( 'NONE',  ( 1.000000000000000000, 0.0000000000000000000, 0.0000000000000000000 ) ) ;
#202 = DIRECTION ( 'NONE',  ( -1.000000000000000000, 0.0000000000000000000, 0.0000000000000000000 ) ) ;
#203 = EDGE_CURVE ( 'NONE', #258, #133, #104, .T. ) ;
#204 = CONICAL_SURFACE ( 'NONE', #93, 0.2359842795000000326, 0.1745329251994338360 ) ;
#205 = ORIENTED_EDGE ( 'NONE', *, *, #135, .F. ) ;
#206 = LINE ( 'NONE', #223, #182 ) ;
#207 = ORIENTED_EDGE ( 'NONE', *, *, #224, .F. ) ;
#208 = ADVANCED_FACE ( 'NONE', ( #82 ), #204, .T. ) ;
#209 = CARTESIAN_POINT ( 'NONE',  ( 0.0000000000000000000, 0.0000000000000000000, 0.0000000000000000000 ) ) ;
#210 = AXIS2_PLACEMENT_3D ( 'NONE', #17, #21, #257 ) ;
#211 = PLANE ( 'NONE',  #149 ) ;
#212 = LINE ( 'NONE', #105, #250 ) ;
#213 =( LENGTH_UNIT ( ) NAMED_UNIT ( * ) SI_UNIT ( $, .METRE. ) );
#214 = DIRECTION ( 'NONE',  ( -1.000000000000000000, 0.0000000000000000000, 0.0000000000000000000 ) ) ;
#215 = AXIS2_PLACEMENT_3D ( 'NONE', #243, #195, #217 ) ;
#216 = CARTESIAN_POINT ( 'NONE',  ( -0.2359842794999999493, 2.891420358783783796E-17, 0.8661419999999999675 ) ) ;
#217 = DIRECTION ( 'NONE',  ( 1.000000000000000000, 0.0000000000000000000, 0.0000000000000000000 ) ) ;
#218 = CARTESIAN_POINT ( 'NONE',  ( 0.2359842795000001436, 0.0000000000000000000, 0.8661419999999999675 ) ) ;
#219 = AXIS2_PLACEMENT_3D ( 'NONE', #209, #227, #155 ) ;
#220 = EDGE_CURVE ( 'NONE', #75, #141, #87, .T. ) ;
#221 = PRODUCT ( 'Micro_GEMM-120-2', 'Micro_GEMM-120-2', '', ( #295 ) ) ;
#222 = VECTOR ( 'NONE', #85, 39.37007874015748143 ) ;
#223 = CARTESIAN_POINT ( 'NONE',  ( 0.2212205000000019295, 2.709169772307794108E-17, 3.267717000000000649 ) ) ;
#224 = EDGE_CURVE ( 'NONE', #98, #258, #288, .T. ) ;
#225 = LINE ( 'NONE', #180, #200 ) ;
#226 = ORIENTED_EDGE ( 'NONE', *, *, #49, .T. ) ;
#227 = DIRECTION ( 'NONE',  ( 0.0000000000000000000, 0.0000000000000000000, 1.000000000000000000 ) ) ;
#228 = CARTESIAN_POINT ( 'NONE',  ( 0.0000000000000000000, 0.0000000000000000000, 3.267717000000000649 ) ) ;
#229 = EDGE_LOOP ( 'NONE', ( #28, #284, #129, #69 ) ) ;
#230 = SURFACE_SIDE_STYLE ('',( #74 ) ) ;
#231 = ORIENTED_EDGE ( 'NONE', *, *, #253, .F. ) ;
#232 = CARTESIAN_POINT ( 'NONE',  ( 0.0000000000000000000, 0.0000000000000000000, 3.267717000000000649 ) ) ;
#233 = DIRECTION ( 'NONE',  ( -1.224646799147353454E-16, -0.0000000000000000000, -1.000000000000000000 ) ) ;
#234 = ORIENTED_EDGE ( 'NONE', *, *, #280, .T. ) ;
#235 = FACE_OUTER_BOUND ( 'NONE', #296, .T. ) ;
#236 = DIRECTION ( 'NONE',  ( 1.000000000000000000, 0.0000000000000000000, 0.0000000000000000000 ) ) ;
#237 = FACE_OUTER_BOUND ( 'NONE', #50, .T. ) ;
#238 = FILL_AREA_STYLE ('',( #2 ) ) ;
#239 = CARTESIAN_POINT ( 'NONE',  ( 0.2359842795000000049, 2.889973925387693713E-17, -3.791200677927629740E-33 ) ) ;
#240 = DIRECTION ( 'NONE',  ( 0.7071067811865474617, 8.659560562354932858E-17, -0.7071067811865474617 ) ) ;
#241 = AXIS2_PLACEMENT_3D ( 'NONE', #26, #289, #181 ) ;
#242 = CARTESIAN_POINT ( 'NONE',  ( -0.2362204999999999999, 0.0000000000000000000, 3.267717000000000649 ) ) ;
#243 = CARTESIAN_POINT ( 'NONE',  ( 1.062358654191593257E-16, 0.0000000000000000000, 0.8674816730270707987 ) ) ;
#244 = SURFACE_STYLE_USAGE ( .BOTH. , #39 ) ;
#245 = CONICAL_SURFACE ( 'NONE', #65, 0.2212205000000019295, 0.7853981633974482790 ) ;
#246 = EDGE_LOOP ( 'NONE', ( #122, #184, #95, #55 ) ) ;
#247 = APPLICATION_PROTOCOL_DEFINITION ( 'draft international standard', 'automotive_design', 1998, #170 ) ;
#248 = DIMENSIONAL_EXPONENTS ( 1.000000000000000000, 0.0000000000000000000, 0.0000000000000000000, 0.0000000000000000000, 0.0000000000000000000, 0.0000000000000000000, 0.0000000000000000000 ) ;
#249 = DIRECTION ( 'NONE',  ( -1.224646799147353454E-16, -0.0000000000000000000, -1.000000000000000000 ) ) ;
#250 = VECTOR ( 'NONE', #192, 39.37007874015748143 ) ;
#251 = DIRECTION ( 'NONE',  ( 1.224646799147353454E-16, 0.0000000000000000000, 1.000000000000000000 ) ) ;
#252 = DIRECTION ( 'NONE',  ( 0.0000000000000000000, 0.0000000000000000000, -1.000000000000000000 ) ) ;
#253 = EDGE_CURVE ( 'NONE', #139, #133, #281, .T. ) ;
#254 = ORIENTED_EDGE ( 'NONE', *, *, #177, .T. ) ;
#255 = ORIENTED_EDGE ( 'NONE', *, *, #168, .T. ) ;
#256 = AXIS2_PLACEMENT_3D ( 'NONE', #94, #259, #78 ) ;
#257 = DIRECTION ( 'NONE',  ( 1.000000000000000000, 0.0000000000000000000, 0.0000000000000000000 ) ) ;
#258 = VERTEX_POINT ( 'NONE', #188 ) ;
#259 = DIRECTION ( 'NONE',  ( 0.0000000000000000000, 0.0000000000000000000, -1.000000000000000000 ) ) ;
#260 = EDGE_LOOP ( 'NONE', ( #153, #226, #273, #10 ) ) ;
#261 = EDGE_LOOP ( 'NONE', ( #90, #205, #254, #158 ) ) ;
#262 = ORIENTED_EDGE ( 'NONE', *, *, #203, .T. ) ;
#263 = DIRECTION ( 'NONE',  ( -1.000000000000000000, 0.0000000000000000000, 1.224646799147353454E-16 ) ) ;
#264 = PLANE ( 'NONE',  #219 ) ;
#265 = AXIS2_PLACEMENT_3D ( 'NONE', #148, #185, #20 ) ;
#266 = AXIS2_PLACEMENT_3D ( 'NONE', #151, #196, #60 ) ;
#267 = DIRECTION ( 'NONE',  ( -0.0000000000000000000, -0.0000000000000000000, -1.000000000000000000 ) ) ;
#268 = EDGE_CURVE ( 'NONE', #92, #98, #91, .T. ) ;
#269 = DIRECTION ( 'NONE',  ( -1.224646799147353454E-16, -0.0000000000000000000, -1.000000000000000000 ) ) ;
#270 = CARTESIAN_POINT ( 'NONE',  ( 1.060718027907087028E-16, 0.0000000000000000000, 0.8661419999999999675 ) ) ;
#271 = CARTESIAN_POINT ( 'NONE',  ( 1.060718027907087028E-16, 0.0000000000000000000, 0.8661419999999999675 ) ) ;
#272 = AXIS2_PLACEMENT_3D ( 'NONE', #128, #80, #201 ) ;
#273 = ORIENTED_EDGE ( 'NONE', *, *, #253, .T. ) ;
#274 = UNCERTAINTY_MEASURE_WITH_UNIT (LENGTH_MEASURE( 1.000000000000000082E-05 ), #31, 'distance_accuracy_value', 'NONE');
#275 = SHAPE_DEFINITION_REPRESENTATION ( #5, #161 ) ;
#276 = AXIS2_PLACEMENT_3D ( 'NONE', #167, #269, #81 ) ;
#277 = PRESENTATION_LAYER_ASSIGNMENT (  '', '', ( #22 ) ) ;
#278 = EDGE_CURVE ( 'NONE', #162, #92, #175, .T. ) ;
#279 = ADVANCED_FACE ( 'NONE', ( #157 ), #264, .F. ) ;
#280 = EDGE_CURVE ( 'NONE', #141, #114, #225, .T. ) ;
#281 = CIRCLE ( 'NONE', #138, 0.2362204999999999999 ) ;
#282 = MANIFOLD_SOLID_BREP ( 'Cut-Revolve1', #37 ) ;
#283 =( NAMED_UNIT ( * ) PLANE_ANGLE_UNIT ( ) SI_UNIT ( $, .RADIAN. ) );
#284 = ORIENTED_EDGE ( 'NONE', *, *, #135, .T. ) ;
#285 = VERTEX_POINT ( 'NONE', #54 ) ;
#286 = CIRCLE ( 'NONE', #41, 0.2212205000000019295 ) ;
#287 = DIRECTION ( 'NONE',  ( -1.224646799147353454E-16, -0.0000000000000000000, -1.000000000000000000 ) ) ;
#288 = CIRCLE ( 'NONE', #256, 0.2362204999999999999 ) ;
#289 = DIRECTION ( 'NONE',  ( 0.0000000000000000000, 0.0000000000000000000, 1.000000000000000000 ) ) ;
#290 = EDGE_LOOP ( 'NONE', ( #34, #190, #27, #68 ) ) ;
#291 = DIRECTION ( 'NONE',  ( -0.0000000000000000000, -0.0000000000000000000, -1.000000000000000000 ) ) ;
#292 = ORIENTED_EDGE ( 'NONE', *, *, #268, .F. ) ;
#293 = CARTESIAN_POINT ( 'NONE',  ( -0.2359842794999999493, 2.889973925387694330E-17, 0.8661419999999999675 ) ) ;
#294 = CARTESIAN_POINT ( 'NONE',  ( -0.2212205000000019295, 0.0000000000000000000, 3.267717000000000649 ) ) ;
#295 = PRODUCT_CONTEXT ( 'NONE', #198, 'mechanical' ) ;
#296 = EDGE_LOOP ( 'NONE', ( #147, #234, #9, #143 ) ) ;
#297 = DIRECTION ( 'NONE',  ( -0.0000000000000000000, -0.0000000000000000000, -1.000000000000000000 ) ) ;
#298 = CARTESIAN_POINT ( 'NONE',  ( 0.0000000000000000000, 0.0000000000000000000, 3.267717000000000649 ) ) ;
#299 = CARTESIAN_POINT ( 'NONE',  ( 0.2362204999999999999, 2.892866792179872647E-17, 3.267717000000000649 ) ) ;
ENDSEC;
END-ISO-10303-21;
