ISO-10303-21;
HEADER;
FILE_DESCRIPTION (( 'STEP AP214' ),
    '1' );
FILE_NAME ('Micro_BMS-020-2.STEP',
    '2021-09-03T14:57:08',
    ( '' ),
    ( '' ),
    'SwSTEP 2.0',
    'SolidWorks 2020',
    '' );
FILE_SCHEMA (( 'AUTOMOTIVE_DESIGN' ));
ENDSEC;

DATA;
#1 = CARTESIAN_POINT ( 'NONE',  ( 0.0000000000000000000, 0.0000000000000000000, 0.0000000000000000000 ) ) ;
#2 = ORIENTED_EDGE ( 'NONE', *, *, #253, .T. ) ;
#3 = FACE_OUTER_BOUND ( 'NONE', #96, .T. ) ;
#4 = LINE ( 'NONE', #272, #60 ) ;
#5 = DIRECTION ( 'NONE',  ( 1.224646799147353454E-16, 0.0000000000000000000, 1.000000000000000000 ) ) ;
#6 =( LENGTH_UNIT ( ) NAMED_UNIT ( * ) SI_UNIT ( $, .METRE. ) );
#7 = ADVANCED_FACE ( 'NONE', ( #120 ), #219, .T. ) ;
#8 = CIRCLE ( 'NONE', #106, 0.06250000000000000000 ) ;
#9 = CIRCLE ( 'NONE', #34, 0.009990000000000000616 ) ;
#10 = CARTESIAN_POINT ( 'NONE',  ( -0.009989999999999995411, 4.438732323509581454E-18, 0.02999999999999999889 ) ) ;
#11 =( NAMED_UNIT ( * ) PLANE_ANGLE_UNIT ( ) SI_UNIT ( $, .RADIAN. ) );
#12 = DIRECTION ( 'NONE',  ( 1.000000000000000000, 0.0000000000000000000, 0.0000000000000000000 ) ) ;
#13 = APPLICATION_PROTOCOL_DEFINITION ( 'draft international standard', 'automotive_design', 1998, #105 ) ;
#14 = EDGE_CURVE ( 'NONE', #41, #256, #202, .T. ) ;
#15 = CIRCLE ( 'NONE', #31, 0.009990000000000000616 ) ;
#16 = DIRECTION ( 'NONE',  ( -1.000000000000000000, 1.224646799147353207E-16, 0.0000000000000000000 ) ) ;
#17 = CARTESIAN_POINT ( 'NONE',  ( 0.04750000000000064587, 6.735557395310482421E-18, 1.500000000000000222 ) ) ;
#18 = ADVANCED_FACE ( 'NONE', ( #194 ), #119, .T. ) ;
#19 = CARTESIAN_POINT ( 'NONE',  ( 0.0000000000000000000, 0.0000000000000000000, 0.0000000000000000000 ) ) ;
#20 = AXIS2_PLACEMENT_3D ( 'NONE', #224, #276, #126 ) ;
#21 = AXIS2_PLACEMENT_3D ( 'NONE', #189, #132, #214 ) ;
#22 = UNCERTAINTY_MEASURE_WITH_UNIT (LENGTH_MEASURE( 1.000000000000000082E-05 ), #277, 'distance_accuracy_value', 'NONE');
#23 = DIRECTION ( 'NONE',  ( 0.0000000000000000000, 1.000000000000000000, 0.0000000000000000000 ) ) ;
#24 = CARTESIAN_POINT ( 'NONE',  ( -0.009989999999999995411, 1.223422152348205941E-18, 0.02999999999999999889 ) ) ;
#25 = ORIENTED_EDGE ( 'NONE', *, *, #312, .T. ) ;
#26 = DIRECTION ( 'NONE',  ( -0.0000000000000000000, -0.0000000000000000000, -1.000000000000000000 ) ) ;
#27 = SURFACE_STYLE_USAGE ( .BOTH. , #199 ) ;
#28 = CARTESIAN_POINT ( 'NONE',  ( 3.673940397442060731E-18, 0.0000000000000000000, 0.02999999999999999889 ) ) ;
#29 = EDGE_CURVE ( 'NONE', #98, #57, #218, .T. ) ;
#30 = PLANE ( 'NONE',  #21 ) ;
#31 = AXIS2_PLACEMENT_3D ( 'NONE', #28, #284, #134 ) ;
#32 =( CONVERSION_BASED_UNIT ( 'INCH', #262 ) LENGTH_UNIT ( ) NAMED_UNIT ( #142 ) );
#33 = CARTESIAN_POINT ( 'NONE',  ( 0.0000000000000000000, 0.0000000000000000000, 1.485000000000000764 ) ) ;
#34 = AXIS2_PLACEMENT_3D ( 'NONE', #118, #65, #90 ) ;
#35 = CIRCLE ( 'NONE', #222, 0.06250000000000000000 ) ;
#36 = CIRCLE ( 'NONE', #155, 0.04750000000000064587 ) ;
#37 = ADVANCED_BREP_SHAPE_REPRESENTATION ( 'Micro_BMS-020-2', ( #112, #89 ), #175 ) ;
#38 = DIRECTION ( 'NONE',  ( 1.224646799147353207E-16, 1.000000000000000000, -0.0000000000000000000 ) ) ;
#39 = CARTESIAN_POINT ( 'NONE',  ( 3.673940397442060731E-18, 0.0000000000000000000, 0.02999999999999999889 ) ) ;
#40 = FILL_AREA_STYLE_COLOUR ( '', #323 ) ;
#41 = VERTEX_POINT ( 'NONE', #291 ) ;
#42 = AXIS2_PLACEMENT_3D ( 'NONE', #229, #185, #102 ) ;
#43 = CARTESIAN_POINT ( 'NONE',  ( 0.009990000000000004085, 0.0000000000000000000, 0.02999999999999999889 ) ) ;
#44 = VECTOR ( 'NONE', #286, 39.37007874015748143 ) ;
#45 = ORIENTED_EDGE ( 'NONE', *, *, #177, .T. ) ;
#46 = DIRECTION ( 'NONE',  ( 0.0000000000000000000, 1.000000000000000000, 0.0000000000000000000 ) ) ;
#47 = CARTESIAN_POINT ( 'NONE',  ( 1.223422152348206134E-18, 0.0000000000000000000, 0.009990000000000000616 ) ) ;
#48 = SPHERICAL_SURFACE ( 'NONE', #307, 0.009990000000000000616 ) ;
#49 = EDGE_LOOP ( 'NONE', ( #280, #110, #239, #2 ) ) ;
#50 = FILL_AREA_STYLE ('',( #40 ) ) ;
#51 = DIRECTION ( 'NONE',  ( -1.000000000000000000, 0.0000000000000000000, 0.0000000000000000000 ) ) ;
#52 = DIRECTION ( 'NONE',  ( 0.0000000000000000000, 0.0000000000000000000, -1.000000000000000000 ) ) ;
#53 = ORIENTED_EDGE ( 'NONE', *, *, #29, .F. ) ;
#54 = EDGE_CURVE ( 'NONE', #287, #136, #320, .T. ) ;
#55 = COLOUR_RGB ( '',0.7921568627450980005, 0.8196078431372548767, 0.9333333333333333481 ) ;
#56 = FILL_AREA_STYLE_COLOUR ( '', #55 ) ;
#57 = VERTEX_POINT ( 'NONE', #87 ) ;
#58 = SURFACE_STYLE_FILL_AREA ( #140 ) ;
#59 = AXIS2_PLACEMENT_3D ( 'NONE', #278, #23, #152 ) ;
#60 = VECTOR ( 'NONE', #93, 39.37007874015748143 ) ;
#61 = ORIENTED_EDGE ( 'NONE', *, *, #322, .F. ) ;
#62 = EDGE_CURVE ( 'NONE', #256, #41, #9, .T. ) ;
#63 =( NAMED_UNIT ( * ) PLANE_ANGLE_UNIT ( ) SI_UNIT ( $, .RADIAN. ) );
#64 = CARTESIAN_POINT ( 'NONE',  ( -0.04750000000000064587, 0.0000000000000000000, 1.500000000000000222 ) ) ;
#65 = DIRECTION ( 'NONE',  ( 1.224646799147353454E-16, 0.0000000000000000000, 1.000000000000000000 ) ) ;
#66 = DIRECTION ( 'NONE',  ( 0.7071067811865456854, 8.659560562354911904E-17, -0.7071067811865493491 ) ) ;
#67 = VECTOR ( 'NONE', #207, 39.37007874015748143 ) ;
#68 = CARTESIAN_POINT ( 'NONE',  ( 0.009990000000000004085, 0.0000000000000000000, 0.02999999999999999889 ) ) ;
#69 = CARTESIAN_POINT ( 'NONE',  ( 0.0000000000000000000, 0.0000000000000000000, 1.500000000000000222 ) ) ;
#70 = STYLED_ITEM ( 'NONE', ( #117 ), #37 ) ;
#71 = LINE ( 'NONE', #183, #67 ) ;
#72 = DIRECTION ( 'NONE',  ( 0.1736481776669313581, 0.0000000000000000000, 0.9848077530122077983 ) ) ;
#73 = EDGE_CURVE ( 'NONE', #296, #41, #246, .T. ) ;
#74 = ORIENTED_EDGE ( 'NONE', *, *, #203, .T. ) ;
#75 = CARTESIAN_POINT ( 'NONE',  ( -0.06250000000000000000, 0.0000000000000000000, 1.485000000000000764 ) ) ;
#76 = AXIS2_PLACEMENT_3D ( 'NONE', #195, #293, #268 ) ;
#77 = ORIENTED_EDGE ( 'NONE', *, *, #29, .T. ) ;
#78 = CARTESIAN_POINT ( 'NONE',  ( 0.0000000000000000000, 0.0000000000000000000, 1.485000000000000764 ) ) ;
#79 = ORIENTED_EDGE ( 'NONE', *, *, #14, .F. ) ;
#80 = DIRECTION ( 'NONE',  ( 0.0000000000000000000, 0.0000000000000000000, -1.000000000000000000 ) ) ;
#81 = DIRECTION ( 'NONE',  ( 0.0000000000000000000, 0.0000000000000000000, -1.000000000000000000 ) ) ;
#82 = AXIS2_PLACEMENT_3D ( 'NONE', #108, #235, #80 ) ;
#83 = APPLICATION_PROTOCOL_DEFINITION ( 'draft international standard', 'automotive_design', 1998, #309 ) ;
#84 = ORIENTED_EDGE ( 'NONE', *, *, #62, .F. ) ;
#85 = ADVANCED_FACE ( 'NONE', ( #318 ), #315, .T. ) ;
#86 = SHAPE_DEFINITION_REPRESENTATION ( #91, #37 ) ;
#87 = CARTESIAN_POINT ( 'NONE',  ( 0.06250000000000000000, 7.654042494670956004E-18, 1.485000000000000764 ) ) ;
#88 = DIRECTION ( 'NONE',  ( -1.000000000000000000, 0.0000000000000000000, 2.136392637687893513E-16 ) ) ;
#89 = AXIS2_PLACEMENT_3D ( 'NONE', #174, #263, #314 ) ;
#90 = DIRECTION ( 'NONE',  ( -1.000000000000000000, 0.0000000000000000000, 2.136392637687893513E-16 ) ) ;
#91 = PRODUCT_DEFINITION_SHAPE ( 'NONE', 'NONE',  #241 ) ;
#92 = EDGE_LOOP ( 'NONE', ( #303, #77, #306, #129 ) ) ;
#93 = DIRECTION ( 'NONE',  ( -1.224646799147353454E-16, -0.0000000000000000000, -1.000000000000000000 ) ) ;
#94 = PRODUCT_DEFINITION_CONTEXT ( 'detailed design', #105, 'design' ) ;
#95 = ADVANCED_FACE ( 'NONE', ( #144 ), #123, .T. ) ;
#96 = EDGE_LOOP ( 'NONE', ( #61, #265, #84 ) ) ;
#97 = ORIENTED_EDGE ( 'NONE', *, *, #164, .F. ) ;
#98 = VERTEX_POINT ( 'NONE', #17 ) ;
#99 = CARTESIAN_POINT ( 'NONE',  ( 0.0000000000000000000, 0.0000000000000000000, 1.500000000000000222 ) ) ;
#100 = ORIENTED_EDGE ( 'NONE', *, *, #62, .T. ) ;
#101 = CARTESIAN_POINT ( 'NONE',  ( 1.223422152348206134E-18, 0.0000000000000000000, 0.009990000000000000616 ) ) ;
#102 = DIRECTION ( 'NONE',  ( 1.000000000000000000, 0.0000000000000000000, 0.0000000000000000000 ) ) ;
#103 = UNCERTAINTY_MEASURE_WITH_UNIT (LENGTH_MEASURE( 1.000000000000000082E-05 ), #264, 'distance_accuracy_value', 'NONE');
#104 =( NAMED_UNIT ( * ) SI_UNIT ( $, .STERADIAN. ) SOLID_ANGLE_UNIT ( ) );
#105 = APPLICATION_CONTEXT ( 'automotive_design' ) ;
#106 = AXIS2_PLACEMENT_3D ( 'NONE', #216, #111, #311 ) ;
#107 = MECHANICAL_DESIGN_GEOMETRIC_PRESENTATION_REPRESENTATION (  '', ( #157 ), #168 ) ;
#108 = CARTESIAN_POINT ( 'NONE',  ( 1.223422152348206134E-18, 0.0000000000000000000, 0.009990000000000000616 ) ) ;
#109 = ADVANCED_FACE ( 'NONE', ( #295 ), #146, .T. ) ;
#110 = ORIENTED_EDGE ( 'NONE', *, *, #124, .F. ) ;
#111 = DIRECTION ( 'NONE',  ( -1.224646799147353454E-16, -0.0000000000000000000, -1.000000000000000000 ) ) ;
#112 = MANIFOLD_SOLID_BREP ( 'Fillet1', #304 ) ;
#113 = AXIS2_PLACEMENT_3D ( 'NONE', #19, #220, #266 ) ;
#114 = SURFACE_STYLE_USAGE ( .BOTH. , #238 ) ;
#115 = ADVANCED_FACE ( 'NONE', ( #275 ), #270, .T. ) ;
#116 = ORIENTED_EDGE ( 'NONE', *, *, #294, .T. ) ;
#117 = PRESENTATION_STYLE_ASSIGNMENT (( #114 ) ) ;
#118 = CARTESIAN_POINT ( 'NONE',  ( 1.223422152348206134E-18, 0.0000000000000000000, 0.009990000000000000616 ) ) ;
#119 = CYLINDRICAL_SURFACE ( 'NONE', #113, 0.009990000000000000616 ) ;
#120 = FACE_OUTER_BOUND ( 'NONE', #244, .T. ) ;
#121 = VECTOR ( 'NONE', #66, 39.37007874015748143 ) ;
#122 = DIRECTION ( 'NONE',  ( -1.000000000000000000, 0.0000000000000000000, 1.224646799147353454E-16 ) ) ;
#123 = CONICAL_SURFACE ( 'NONE', #150, 0.009990000000000000616, 0.1745329251994338637 ) ;
#124 = EDGE_CURVE ( 'NONE', #228, #290, #192, .T. ) ;
#125 = DIRECTION ( 'NONE',  ( 0.0000000000000000000, 0.0000000000000000000, -1.000000000000000000 ) ) ;
#126 = DIRECTION ( 'NONE',  ( -1.000000000000000000, 0.0000000000000000000, 0.0000000000000000000 ) ) ;
#127 = ORIENTED_EDGE ( 'NONE', *, *, #54, .T. ) ;
#128 = AXIS2_PLACEMENT_3D ( 'NONE', #288, #163, #283 ) ;
#129 = ORIENTED_EDGE ( 'NONE', *, *, #54, .F. ) ;
#130 = DIRECTION ( 'NONE',  ( -1.000000000000000000, 0.0000000000000000000, 0.0000000000000000000 ) ) ;
#131 = EDGE_LOOP ( 'NONE', ( #184, #200, #179, #97 ) ) ;
#132 = DIRECTION ( 'NONE',  ( 0.0000000000000000000, 0.0000000000000000000, 1.000000000000000000 ) ) ;
#133 = EDGE_LOOP ( 'NONE', ( #53, #167, #127, #271 ) ) ;
#134 = DIRECTION ( 'NONE',  ( -1.000000000000000000, 0.0000000000000000000, 0.0000000000000000000 ) ) ;
#135 = AXIS2_PLACEMENT_3D ( 'NONE', #267, #38, #16 ) ;
#136 = VERTEX_POINT ( 'NONE', #75 ) ;
#137 = CIRCLE ( 'NONE', #128, 0.04750000000000064587 ) ;
#138 = DIRECTION ( 'NONE',  ( 1.000000000000000000, 0.0000000000000000000, 0.0000000000000000000 ) ) ;
#139 = FACE_OUTER_BOUND ( 'NONE', #181, .T. ) ;
#140 = FILL_AREA_STYLE ('',( #56 ) ) ;
#141 = AXIS2_PLACEMENT_3D ( 'NONE', #156, #125, #51 ) ;
#142 = DIMENSIONAL_EXPONENTS ( 1.000000000000000000, 0.0000000000000000000, 0.0000000000000000000, 0.0000000000000000000, 0.0000000000000000000, 0.0000000000000000000, 0.0000000000000000000 ) ;
#143 =( LENGTH_UNIT ( ) NAMED_UNIT ( * ) SI_UNIT ( $, .METRE. ) );
#144 = FACE_OUTER_BOUND ( 'NONE', #131, .T. ) ;
#145 = ORIENTED_EDGE ( 'NONE', *, *, #203, .F. ) ;
#146 = CYLINDRICAL_SURFACE ( 'NONE', #148, 0.06250000000000000000 ) ;
#147 = CARTESIAN_POINT ( 'NONE',  ( 0.04750000000000064587, 5.817072295950006528E-18, 1.500000000000000222 ) ) ;
#148 = AXIS2_PLACEMENT_3D ( 'NONE', #198, #245, #297 ) ;
#149 = FACE_OUTER_BOUND ( 'NONE', #92, .T. ) ;
#150 = AXIS2_PLACEMENT_3D ( 'NONE', #39, #176, #243 ) ;
#151 =( LENGTH_UNIT ( ) NAMED_UNIT ( * ) SI_UNIT ( $, .METRE. ) );
#152 = DIRECTION ( 'NONE',  ( 1.000000000000000000, 0.0000000000000000000, 0.0000000000000000000 ) ) ;
#153 = DIRECTION ( 'NONE',  ( -1.000000000000000000, 0.0000000000000000000, 0.0000000000000000000 ) ) ;
#154 = EDGE_LOOP ( 'NONE', ( #201, #308, #45, #205 ) ) ;
#155 = AXIS2_PLACEMENT_3D ( 'NONE', #211, #210, #213 ) ;
#156 = CARTESIAN_POINT ( 'NONE',  ( 0.0000000000000000000, 0.0000000000000000000, 1.500000000000000222 ) ) ;
#157 = STYLED_ITEM ( 'NONE', ( #305 ), #112 ) ;
#158 = FACE_OUTER_BOUND ( 'NONE', #300, .T. ) ;
#159 = ORIENTED_EDGE ( 'NONE', *, *, #177, .F. ) ;
#160 = CARTESIAN_POINT ( 'NONE',  ( -0.04750000000000064587, 0.0000000000000000000, 1.500000000000000222 ) ) ;
#161 = UNCERTAINTY_MEASURE_WITH_UNIT (LENGTH_MEASURE( 1.000000000000000082E-05 ), #32, 'distance_accuracy_value', 'NONE');
#162 = CARTESIAN_POINT ( 'NONE',  ( 0.06250000000000000000, 7.654042494670956004E-18, 1.500000000000000222 ) ) ;
#163 = DIRECTION ( 'NONE',  ( 0.0000000000000000000, 0.0000000000000000000, 1.000000000000000000 ) ) ;
#164 = EDGE_CURVE ( 'NONE', #228, #299, #282, .T. ) ;
#165 = CARTESIAN_POINT ( 'NONE',  ( 0.009990000000000002350, 1.223422152348205941E-18, 0.009989999999999998881 ) ) ;
#166 = LINE ( 'NONE', #310, #215 ) ;
#167 = ORIENTED_EDGE ( 'NONE', *, *, #316, .F. ) ;
#168 =( GEOMETRIC_REPRESENTATION_CONTEXT ( 3 ) GLOBAL_UNCERTAINTY_ASSIGNED_CONTEXT ( ( #22 ) ) GLOBAL_UNIT_ASSIGNED_CONTEXT ( ( #277, #232, #301 ) ) REPRESENTATION_CONTEXT ( 'NONE', 'WORKASPACE' ) );
#169 = AXIS2_PLACEMENT_3D ( 'NONE', #69, #204, #153 ) ;
#170 = DIMENSIONAL_EXPONENTS ( 1.000000000000000000, 0.0000000000000000000, 0.0000000000000000000, 0.0000000000000000000, 0.0000000000000000000, 0.0000000000000000000, 0.0000000000000000000 ) ;
#171 = ORIENTED_EDGE ( 'NONE', *, *, #73, .F. ) ;
#172 = DIRECTION ( 'NONE',  ( -0.7071067811865456854, 0.0000000000000000000, -0.7071067811865493491 ) ) ;
#173 =( NAMED_UNIT ( * ) SI_UNIT ( $, .STERADIAN. ) SOLID_ANGLE_UNIT ( ) );
#174 = CARTESIAN_POINT ( 'NONE',  ( 0.0000000000000000000, 0.0000000000000000000, 0.0000000000000000000 ) ) ;
#175 =( GEOMETRIC_REPRESENTATION_CONTEXT ( 3 ) GLOBAL_UNCERTAINTY_ASSIGNED_CONTEXT ( ( #161 ) ) GLOBAL_UNIT_ASSIGNED_CONTEXT ( ( #32, #11, #104 ) ) REPRESENTATION_CONTEXT ( 'NONE', 'WORKASPACE' ) );
#176 = DIRECTION ( 'NONE',  ( 1.224646799147353454E-16, 0.0000000000000000000, 1.000000000000000000 ) ) ;
#177 = EDGE_CURVE ( 'NONE', #136, #234, #71, .T. ) ;
#178 = ORIENTED_EDGE ( 'NONE', *, *, #289, .T. ) ;
#179 = ORIENTED_EDGE ( 'NONE', *, *, #208, .T. ) ;
#180 = FACE_OUTER_BOUND ( 'NONE', #133, .T. ) ;
#181 = EDGE_LOOP ( 'NONE', ( #231, #324 ) ) ;
#182 = DIRECTION ( 'NONE',  ( 1.000000000000000000, 0.0000000000000000000, 0.0000000000000000000 ) ) ;
#183 = CARTESIAN_POINT ( 'NONE',  ( -0.06250000000000000000, 0.0000000000000000000, 1.500000000000000222 ) ) ;
#184 = ORIENTED_EDGE ( 'NONE', *, *, #294, .F. ) ;
#185 = DIRECTION ( 'NONE',  ( -1.224646799147353454E-16, -0.0000000000000000000, -1.000000000000000000 ) ) ;
#186 = AXIS2_PLACEMENT_3D ( 'NONE', #1, #248, #122 ) ;
#187 = CARTESIAN_POINT ( 'NONE',  ( 1.835133228522309201E-18, 0.0000000000000000000, 0.0000000000000000000 ) ) ;
#188 = CARTESIAN_POINT ( 'NONE',  ( 0.06250000000000004163, 7.654042494670960626E-18, 0.3277990083481243100 ) ) ;
#189 = CARTESIAN_POINT ( 'NONE',  ( 0.0000000000000000000, 0.0000000000000000000, 1.500000000000000222 ) ) ;
#190 = CIRCLE ( 'NONE', #42, 0.06250000000000000000 ) ;
#191 = CIRCLE ( 'NONE', #252, 0.06250000000000000000 ) ;
#192 = CIRCLE ( 'NONE', #20, 0.009990000000000000616 ) ;
#193 = EDGE_CURVE ( 'NONE', #290, #234, #325, .T. ) ;
#194 = FACE_OUTER_BOUND ( 'NONE', #247, .T. ) ;
#195 = CARTESIAN_POINT ( 'NONE',  ( 3.673940397442060731E-18, 0.0000000000000000000, 0.02999999999999999889 ) ) ;
#196 = ADVANCED_FACE ( 'NONE', ( #149 ), #281, .T. ) ;
#197 = PRESENTATION_LAYER_ASSIGNMENT (  '', '', ( #157 ) ) ;
#198 = CARTESIAN_POINT ( 'NONE',  ( 0.0000000000000000000, 0.0000000000000000000, 1.500000000000000222 ) ) ;
#199 = SURFACE_SIDE_STYLE ('',( #255 ) ) ;
#200 = ORIENTED_EDGE ( 'NONE', *, *, #193, .T. ) ;
#201 = ORIENTED_EDGE ( 'NONE', *, *, #312, .F. ) ;
#202 = CIRCLE ( 'NONE', #279, 0.009990000000000000616 ) ;
#203 = EDGE_CURVE ( 'NONE', #228, #256, #4, .T. ) ;
#204 = DIRECTION ( 'NONE',  ( 0.0000000000000000000, 0.0000000000000000000, -1.000000000000000000 ) ) ;
#205 = ORIENTED_EDGE ( 'NONE', *, *, #253, .F. ) ;
#206 = ORIENTED_EDGE ( 'NONE', *, *, #14, .T. ) ;
#207 = DIRECTION ( 'NONE',  ( -0.0000000000000000000, -0.0000000000000000000, -1.000000000000000000 ) ) ;
#208 = EDGE_CURVE ( 'NONE', #234, #299, #190, .T. ) ;
#209 = VECTOR ( 'NONE', #72, 39.37007874015748143 ) ;
#210 = DIRECTION ( 'NONE',  ( 0.0000000000000000000, 0.0000000000000000000, 1.000000000000000000 ) ) ;
#211 = CARTESIAN_POINT ( 'NONE',  ( 0.0000000000000000000, 0.0000000000000000000, 1.500000000000000222 ) ) ;
#212 = ADVANCED_FACE ( 'NONE', ( #158 ), #251, .T. ) ;
#213 = DIRECTION ( 'NONE',  ( 1.000000000000000000, 0.0000000000000000000, 0.0000000000000000000 ) ) ;
#214 = DIRECTION ( 'NONE',  ( 1.000000000000000000, 0.0000000000000000000, -0.0000000000000000000 ) ) ;
#215 = VECTOR ( 'NONE', #259, 39.37007874015748143 ) ;
#216 = CARTESIAN_POINT ( 'NONE',  ( 4.014380063372070055E-17, 0.0000000000000000000, 0.3277990083481243100 ) ) ;
#217 = CIRCLE ( 'NONE', #82, 0.009990000000000000616 ) ;
#218 = LINE ( 'NONE', #147, #121 ) ;
#219 = SPHERICAL_SURFACE ( 'NONE', #59, 0.009990000000000000616 ) ;
#220 = DIRECTION ( 'NONE',  ( -1.224646799147353454E-16, -0.0000000000000000000, -1.000000000000000000 ) ) ;
#221 = AXIS2_PLACEMENT_3D ( 'NONE', #99, #26, #130 ) ;
#222 = AXIS2_PLACEMENT_3D ( 'NONE', #33, #81, #138 ) ;
#223 = CONICAL_SURFACE ( 'NONE', #169, 0.04750000000000064587, 0.7853981633974457255 ) ;
#224 = CARTESIAN_POINT ( 'NONE',  ( 3.673940397442060731E-18, 0.0000000000000000000, 0.02999999999999999889 ) ) ;
#225 = ADVANCED_FACE ( 'NONE', ( #3 ), #48, .T. ) ;
#226 = ORIENTED_EDGE ( 'NONE', *, *, #289, .F. ) ;
#227 = LENGTH_MEASURE_WITH_UNIT ( LENGTH_MEASURE( 0.02539999999999999897 ), #151 );
#228 = VERTEX_POINT ( 'NONE', #43 ) ;
#229 = CARTESIAN_POINT ( 'NONE',  ( 4.014380063372070055E-17, 0.0000000000000000000, 0.3277990083481243100 ) ) ;
#230 = PRODUCT ( 'Micro_BMS-020-2', 'Micro_BMS-020-2', '', ( #317 ) ) ;
#231 = ORIENTED_EDGE ( 'NONE', *, *, #316, .T. ) ;
#232 =( NAMED_UNIT ( * ) PLANE_ANGLE_UNIT ( ) SI_UNIT ( $, .RADIAN. ) );
#233 = ADVANCED_FACE ( 'NONE', ( #180 ), #223, .T. ) ;
#234 = VERTEX_POINT ( 'NONE', #260 ) ;
#235 = DIRECTION ( 'NONE',  ( 0.0000000000000000000, -1.000000000000000000, 0.0000000000000000000 ) ) ;
#236 = MECHANICAL_DESIGN_GEOMETRIC_PRESENTATION_REPRESENTATION (  '', ( #70 ), #321 ) ;
#237 = PRODUCT_RELATED_PRODUCT_CATEGORY ( 'part', '', ( #230 ) ) ;
#238 = SURFACE_SIDE_STYLE ('',( #58 ) ) ;
#239 = ORIENTED_EDGE ( 'NONE', *, *, #164, .T. ) ;
#240 = EDGE_CURVE ( 'NONE', #98, #287, #36, .T. ) ;
#241 = PRODUCT_DEFINITION ( 'UNKNOWN', '', #269, #94 ) ;
#242 = PRESENTATION_LAYER_ASSIGNMENT (  '', '', ( #70 ) ) ;
#243 = DIRECTION ( 'NONE',  ( 1.000000000000000000, 0.0000000000000000000, 0.0000000000000000000 ) ) ;
#244 = EDGE_LOOP ( 'NONE', ( #171, #261, #79 ) ) ;
#245 = DIRECTION ( 'NONE',  ( -0.0000000000000000000, -0.0000000000000000000, -1.000000000000000000 ) ) ;
#246 = CIRCLE ( 'NONE', #135, 0.009990000000000000616 ) ;
#247 = EDGE_LOOP ( 'NONE', ( #145, #274, #178, #206 ) ) ;
#248 = DIRECTION ( 'NONE',  ( -1.224646799147353454E-16, -0.0000000000000000000, -1.000000000000000000 ) ) ;
#249 = EDGE_CURVE ( 'NONE', #57, #136, #191, .T. ) ;
#250 = ORIENTED_EDGE ( 'NONE', *, *, #285, .T. ) ;
#251 = CYLINDRICAL_SURFACE ( 'NONE', #186, 0.009990000000000000616 ) ;
#252 = AXIS2_PLACEMENT_3D ( 'NONE', #78, #52, #12 ) ;
#253 = EDGE_CURVE ( 'NONE', #299, #234, #8, .T. ) ;
#254 = VECTOR ( 'NONE', #257, 39.37007874015747433 ) ;
#255 = SURFACE_STYLE_FILL_AREA ( #50 ) ;
#256 = VERTEX_POINT ( 'NONE', #165 ) ;
#257 = DIRECTION ( 'NONE',  ( -0.1736481776669311639, 2.126576849575783008E-17, 0.9848077530122080203 ) ) ;
#258 = ORIENTED_EDGE ( 'NONE', *, *, #208, .F. ) ;
#259 = DIRECTION ( 'NONE',  ( -1.224646799147353454E-16, -0.0000000000000000000, -1.000000000000000000 ) ) ;
#260 = CARTESIAN_POINT ( 'NONE',  ( -0.06249999999999995837, 0.0000000000000000000, 0.3277990083481243100 ) ) ;
#261 = ORIENTED_EDGE ( 'NONE', *, *, #322, .T. ) ;
#262 = LENGTH_MEASURE_WITH_UNIT ( LENGTH_MEASURE( 0.02539999999999999897 ), #6 );
#263 = DIRECTION ( 'NONE',  ( 0.0000000000000000000, 0.0000000000000000000, 1.000000000000000000 ) ) ;
#264 =( CONVERSION_BASED_UNIT ( 'INCH', #319 ) LENGTH_UNIT ( ) NAMED_UNIT ( #170 ) );
#265 = ORIENTED_EDGE ( 'NONE', *, *, #73, .T. ) ;
#266 = DIRECTION ( 'NONE',  ( -1.000000000000000000, 0.0000000000000000000, 1.224646799147353454E-16 ) ) ;
#267 = CARTESIAN_POINT ( 'NONE',  ( 1.223422152348206134E-18, 0.0000000000000000000, 0.009990000000000000616 ) ) ;
#268 = DIRECTION ( 'NONE',  ( 1.000000000000000000, 0.0000000000000000000, 0.0000000000000000000 ) ) ;
#269 = PRODUCT_DEFINITION_FORMATION_WITH_SPECIFIED_SOURCE ( 'ANY', '', #230, .NOT_KNOWN. ) ;
#270 = CYLINDRICAL_SURFACE ( 'NONE', #221, 0.06250000000000000000 ) ;
#271 = ORIENTED_EDGE ( 'NONE', *, *, #249, .F. ) ;
#272 = CARTESIAN_POINT ( 'NONE',  ( 0.009990000000000000616, 1.223422152348205941E-18, -1.223422152348206134E-18 ) ) ;
#273 = VECTOR ( 'NONE', #172, 39.37007874015748143 ) ;
#274 = ORIENTED_EDGE ( 'NONE', *, *, #124, .T. ) ;
#275 = FACE_OUTER_BOUND ( 'NONE', #302, .T. ) ;
#276 = DIRECTION ( 'NONE',  ( -1.224646799147353454E-16, -0.0000000000000000000, -1.000000000000000000 ) ) ;
#277 =( CONVERSION_BASED_UNIT ( 'INCH', #227 ) LENGTH_UNIT ( ) NAMED_UNIT ( #292 ) );
#278 = CARTESIAN_POINT ( 'NONE',  ( 1.223422152348206134E-18, 0.0000000000000000000, 0.009990000000000000616 ) ) ;
#279 = AXIS2_PLACEMENT_3D ( 'NONE', #47, #5, #88 ) ;
#280 = ORIENTED_EDGE ( 'NONE', *, *, #193, .F. ) ;
#281 = CONICAL_SURFACE ( 'NONE', #141, 0.04750000000000064587, 0.7853981633974457255 ) ;
#282 = LINE ( 'NONE', #68, #209 ) ;
#283 = DIRECTION ( 'NONE',  ( 1.000000000000000000, 0.0000000000000000000, 0.0000000000000000000 ) ) ;
#284 = DIRECTION ( 'NONE',  ( -1.224646799147353454E-16, -0.0000000000000000000, -1.000000000000000000 ) ) ;
#285 = EDGE_CURVE ( 'NONE', #136, #57, #35, .T. ) ;
#286 = DIRECTION ( 'NONE',  ( -0.0000000000000000000, -0.0000000000000000000, -1.000000000000000000 ) ) ;
#287 = VERTEX_POINT ( 'NONE', #160 ) ;
#288 = CARTESIAN_POINT ( 'NONE',  ( 0.0000000000000000000, 0.0000000000000000000, 1.500000000000000222 ) ) ;
#289 = EDGE_CURVE ( 'NONE', #290, #41, #166, .T. ) ;
#290 = VERTEX_POINT ( 'NONE', #10 ) ;
#291 = CARTESIAN_POINT ( 'NONE',  ( -0.009989999999999998881, 0.0000000000000000000, 0.009990000000000002350 ) ) ;
#292 = DIMENSIONAL_EXPONENTS ( 1.000000000000000000, 0.0000000000000000000, 0.0000000000000000000, 0.0000000000000000000, 0.0000000000000000000, 0.0000000000000000000, 0.0000000000000000000 ) ;
#293 = DIRECTION ( 'NONE',  ( 1.224646799147353454E-16, 0.0000000000000000000, 1.000000000000000000 ) ) ;
#294 = EDGE_CURVE ( 'NONE', #290, #228, #15, .T. ) ;
#295 = FACE_OUTER_BOUND ( 'NONE', #154, .T. ) ;
#296 = VERTEX_POINT ( 'NONE', #187 ) ;
#297 = DIRECTION ( 'NONE',  ( -1.000000000000000000, 0.0000000000000000000, 0.0000000000000000000 ) ) ;
#298 = ADVANCED_FACE ( 'NONE', ( #139 ), #30, .T. ) ;
#299 = VERTEX_POINT ( 'NONE', #188 ) ;
#300 = EDGE_LOOP ( 'NONE', ( #116, #74, #100, #226 ) ) ;
#301 =( NAMED_UNIT ( * ) SI_UNIT ( $, .STERADIAN. ) SOLID_ANGLE_UNIT ( ) );
#302 = EDGE_LOOP ( 'NONE', ( #250, #25, #258, #159 ) ) ;
#303 = ORIENTED_EDGE ( 'NONE', *, *, #240, .F. ) ;
#304 = CLOSED_SHELL ( 'NONE', ( #225, #212, #95, #196, #115, #109, #298, #233, #85, #18, #7 ) ) ;
#305 = PRESENTATION_STYLE_ASSIGNMENT (( #27 ) ) ;
#306 = ORIENTED_EDGE ( 'NONE', *, *, #285, .F. ) ;
#307 = AXIS2_PLACEMENT_3D ( 'NONE', #101, #46, #182 ) ;
#308 = ORIENTED_EDGE ( 'NONE', *, *, #249, .T. ) ;
#309 = APPLICATION_CONTEXT ( 'automotive_design' ) ;
#310 = CARTESIAN_POINT ( 'NONE',  ( -0.009990000000000000616, 0.0000000000000000000, 1.223422152348206134E-18 ) ) ;
#311 = DIRECTION ( 'NONE',  ( 1.000000000000000000, 0.0000000000000000000, 0.0000000000000000000 ) ) ;
#312 = EDGE_CURVE ( 'NONE', #57, #299, #313, .T. ) ;
#313 = LINE ( 'NONE', #162, #44 ) ;
#314 = DIRECTION ( 'NONE',  ( 1.000000000000000000, 0.0000000000000000000, 0.0000000000000000000 ) ) ;
#315 = CONICAL_SURFACE ( 'NONE', #76, 0.009990000000000000616, 0.1745329251994338637 ) ;
#316 = EDGE_CURVE ( 'NONE', #287, #98, #137, .T. ) ;
#317 = PRODUCT_CONTEXT ( 'NONE', #309, 'mechanical' ) ;
#318 = FACE_OUTER_BOUND ( 'NONE', #49, .T. ) ;
#319 = LENGTH_MEASURE_WITH_UNIT ( LENGTH_MEASURE( 0.02539999999999999897 ), #143 );
#320 = LINE ( 'NONE', #64, #273 ) ;
#321 =( GEOMETRIC_REPRESENTATION_CONTEXT ( 3 ) GLOBAL_UNCERTAINTY_ASSIGNED_CONTEXT ( ( #103 ) ) GLOBAL_UNIT_ASSIGNED_CONTEXT ( ( #264, #63, #173 ) ) REPRESENTATION_CONTEXT ( 'NONE', 'WORKASPACE' ) );
#322 = EDGE_CURVE ( 'NONE', #296, #256, #217, .T. ) ;
#323 = COLOUR_RGB ( '',0.7921568627450980005, 0.8196078431372548767, 0.9333333333333333481 ) ;
#324 = ORIENTED_EDGE ( 'NONE', *, *, #240, .T. ) ;
#325 = LINE ( 'NONE', #24, #254 ) ;
ENDSEC;
END-ISO-10303-21;
