ISO-10303-21;
HEADER;
FILE_DESCRIPTION (( 'STEP AP214' ),
    '1' );
FILE_NAME ('Micro_EMS-093-4.STEP',
    '2021-09-01T17:38:45',
    ( '' ),
    ( '' ),
    'SwSTEP 2.0',
    'SolidWorks 2020',
    '' );
FILE_SCHEMA (( 'AUTOMOTIVE_DESIGN' ));
ENDSEC;

DATA;
#1 = ORIENTED_EDGE ( 'NONE', *, *, #144, .T. ) ;
#2 = ORIENTED_EDGE ( 'NONE', *, *, #81, .F. ) ;
#3 = EDGE_LOOP ( 'NONE', ( #296, #132, #278, #227 ) ) ;
#4 = DIRECTION ( 'NONE',  ( -1.224646799147353700E-16, -0.0000000000000000000, -1.000000000000000000 ) ) ;
#5 = CIRCLE ( 'NONE', #177, 0.04685310000000000863 ) ;
#6 = DIRECTION ( 'NONE',  ( 0.0000000000000000000, 0.0000000000000000000, 1.000000000000000000 ) ) ;
#7 = CYLINDRICAL_SURFACE ( 'NONE', #197, 0.04685310000000000169 ) ;
#8 = ADVANCED_FACE ( 'NONE', ( #212 ), #145, .T. ) ;
#9 = DIRECTION ( 'NONE',  ( -1.224646799147353700E-16, -0.0000000000000000000, -1.000000000000000000 ) ) ;
#10 = FACE_OUTER_BOUND ( 'NONE', #3, .T. ) ;
#11 = PRESENTATION_STYLE_ASSIGNMENT (( #143 ) ) ;
#12 = AXIS2_PLACEMENT_3D ( 'NONE', #139, #166, #286 ) ;
#13 = DIRECTION ( 'NONE',  ( 1.000000000000000000, 0.0000000000000000000, 0.0000000000000000000 ) ) ;
#14 = VERTEX_POINT ( 'NONE', #136 ) ;
#15 = AXIS2_PLACEMENT_3D ( 'NONE', #288, #173, #121 ) ;
#16 = EDGE_CURVE ( 'NONE', #215, #86, #57, .T. ) ;
#17 = CARTESIAN_POINT ( 'NONE',  ( 5.679152322418704750E-17, 0.0000000000000000000, 0.4637379795033760299 ) ) ;
#18 = AXIS2_PLACEMENT_3D ( 'NONE', #140, #4, #25 ) ;
#19 = ADVANCED_BREP_SHAPE_REPRESENTATION ( 'Micro_EMS-093-4', ( #180, #291 ), #158 ) ;
#20 = VERTEX_POINT ( 'NONE', #190 ) ;
#21 = EDGE_CURVE ( 'NONE', #160, #211, #105, .T. ) ;
#22 = CARTESIAN_POINT ( 'NONE',  ( 0.0000000000000000000, 0.0000000000000000000, 1.485000000000000764 ) ) ;
#23 = FILL_AREA_STYLE ('',( #232 ) ) ;
#24 = FACE_OUTER_BOUND ( 'NONE', #260, .T. ) ;
#25 = DIRECTION ( 'NONE',  ( -1.000000000000000000, 0.0000000000000000000, 0.0000000000000000000 ) ) ;
#26 = ORIENTED_EDGE ( 'NONE', *, *, #59, .F. ) ;
#27 = CONICAL_SURFACE ( 'NONE', #38, 0.04685310000000000863, 0.1745329251994338637 ) ;
#28 = DIRECTION ( 'NONE',  ( -1.000000000000000000, 0.0000000000000000000, 0.0000000000000000000 ) ) ;
#29 = DIRECTION ( 'NONE',  ( 1.000000000000000000, 0.0000000000000000000, -0.0000000000000000000 ) ) ;
#30 = CARTESIAN_POINT ( 'NONE',  ( 0.0000000000000000000, 0.0000000000000000000, 0.0000000000000000000 ) ) ;
#31 = CIRCLE ( 'NONE', #72, 0.04750000000000064587 ) ;
#32 = EDGE_CURVE ( 'NONE', #211, #141, #163, .T. ) ;
#33 = LENGTH_MEASURE_WITH_UNIT ( LENGTH_MEASURE( 0.02539999999999999897 ), #217 );
#34 = PRODUCT_RELATED_PRODUCT_CATEGORY ( 'part', '', ( #156 ) ) ;
#35 =( CONVERSION_BASED_UNIT ( 'INCH', #272 ) LENGTH_UNIT ( ) NAMED_UNIT ( #133 ) );
#36 = ORIENTED_EDGE ( 'NONE', *, *, #255, .F. ) ;
#37 =( CONVERSION_BASED_UNIT ( 'INCH', #131 ) LENGTH_UNIT ( ) NAMED_UNIT ( #87 ) );
#38 = AXIS2_PLACEMENT_3D ( 'NONE', #125, #239, #13 ) ;
#39 = UNCERTAINTY_MEASURE_WITH_UNIT (LENGTH_MEASURE( 1.000000000000000082E-05 ), #37, 'distance_accuracy_value', 'NONE');
#40 = ORIENTED_EDGE ( 'NONE', *, *, #91, .F. ) ;
#41 = DIRECTION ( 'NONE',  ( -1.000000000000000000, 0.0000000000000000000, 1.224646799147353700E-16 ) ) ;
#42 = VERTEX_POINT ( 'NONE', #92 ) ;
#43 = DIRECTION ( 'NONE',  ( -0.7071067811865462405, 0.0000000000000000000, -0.7071067811865486830 ) ) ;
#44 = EDGE_LOOP ( 'NONE', ( #237, #97, #224, #113 ) ) ;
#45 = ORIENTED_EDGE ( 'NONE', *, *, #65, .F. ) ;
#46 = CARTESIAN_POINT ( 'NONE',  ( 0.04685310000000000169, 5.737849894513085128E-18, 0.0000000000000000000 ) ) ;
#47 = CARTESIAN_POINT ( 'NONE',  ( -0.06249999999999996531, 0.0000000000000000000, 0.4637379795033760299 ) ) ;
#48 = DIRECTION ( 'NONE',  ( -1.224646799147353700E-16, -0.0000000000000000000, -1.000000000000000000 ) ) ;
#49 = DIRECTION ( 'NONE',  ( 0.0000000000000000000, 0.0000000000000000000, 1.000000000000000000 ) ) ;
#50 = CONICAL_SURFACE ( 'NONE', #15, 0.04685310000000000863, 0.1745329251994338637 ) ;
#51 = CARTESIAN_POINT ( 'NONE',  ( 0.0000000000000000000, 0.0000000000000000000, 1.500000000000000222 ) ) ;
#52 = DIRECTION ( 'NONE',  ( 0.0000000000000000000, 0.0000000000000000000, 1.000000000000000000 ) ) ;
#53 = EDGE_CURVE ( 'NONE', #14, #42, #253, .T. ) ;
#54 = LINE ( 'NONE', #100, #207 ) ;
#55 = EDGE_CURVE ( 'NONE', #211, #160, #5, .T. ) ;
#56 =( NAMED_UNIT ( * ) PLANE_ANGLE_UNIT ( ) SI_UNIT ( $, .RADIAN. ) );
#57 = CIRCLE ( 'NONE', #247, 0.04685310000000000169 ) ;
#58 = EDGE_LOOP ( 'NONE', ( #2, #172, #256, #193 ) ) ;
#59 = EDGE_CURVE ( 'NONE', #14, #141, #283, .T. ) ;
#60 = SURFACE_STYLE_USAGE ( .BOTH. , #179 ) ;
#61 = PRODUCT_DEFINITION_SHAPE ( 'NONE', 'NONE',  #123 ) ;
#62 = CONICAL_SURFACE ( 'NONE', #89, 0.04750000000000064587, 0.7853981633974466137 ) ;
#63 =( GEOMETRIC_REPRESENTATION_CONTEXT ( 3 ) GLOBAL_UNCERTAINTY_ASSIGNED_CONTEXT ( ( #204 ) ) GLOBAL_UNIT_ASSIGNED_CONTEXT ( ( #35, #159, #85 ) ) REPRESENTATION_CONTEXT ( 'NONE', 'WORKASPACE' ) );
#64 = DIRECTION ( 'NONE',  ( 1.000000000000000000, 0.0000000000000000000, 0.0000000000000000000 ) ) ;
#65 = EDGE_CURVE ( 'NONE', #160, #215, #165, .T. ) ;
#66 = ADVANCED_FACE ( 'NONE', ( #10 ), #62, .T. ) ;
#67 = COLOUR_RGB ( '',0.7921568627450980005, 0.8196078431372548767, 0.9333333333333333481 ) ;
#68 = DIRECTION ( 'NONE',  ( 0.0000000000000000000, 0.0000000000000000000, -1.000000000000000000 ) ) ;
#69 = ORIENTED_EDGE ( 'NONE', *, *, #32, .T. ) ;
#70 = DIRECTION ( 'NONE',  ( -0.0000000000000000000, -0.0000000000000000000, -1.000000000000000000 ) ) ;
#71 = DIRECTION ( 'NONE',  ( -1.000000000000000000, 0.0000000000000000000, 0.0000000000000000000 ) ) ;
#72 = AXIS2_PLACEMENT_3D ( 'NONE', #148, #6, #96 ) ;
#73 = DIRECTION ( 'NONE',  ( -1.000000000000000000, 0.0000000000000000000, 0.0000000000000000000 ) ) ;
#74 = CARTESIAN_POINT ( 'NONE',  ( 0.0000000000000000000, 0.0000000000000000000, 1.500000000000000222 ) ) ;
#75 = DIRECTION ( 'NONE',  ( -1.224646799147353700E-16, -0.0000000000000000000, -1.000000000000000000 ) ) ;
#76 = DIRECTION ( 'NONE',  ( -1.224646799147353700E-16, -0.0000000000000000000, -1.000000000000000000 ) ) ;
#77 = AXIS2_PLACEMENT_3D ( 'NONE', #268, #282, #270 ) ;
#78 = CARTESIAN_POINT ( 'NONE',  ( -0.04750000000000064587, 0.0000000000000000000, 1.500000000000000222 ) ) ;
#79 = CARTESIAN_POINT ( 'NONE',  ( 5.679152322418704750E-17, 0.0000000000000000000, 0.4637379795033760299 ) ) ;
#80 = EDGE_LOOP ( 'NONE', ( #114, #181 ) ) ;
#81 = EDGE_CURVE ( 'NONE', #42, #84, #235, .T. ) ;
#82 = CIRCLE ( 'NONE', #220, 0.06250000000000002776 ) ;
#83 = PRODUCT_DEFINITION_FORMATION_WITH_SPECIFIED_SOURCE ( 'ANY', '', #156, .NOT_KNOWN. ) ;
#84 = VERTEX_POINT ( 'NONE', #118 ) ;
#85 =( NAMED_UNIT ( * ) SI_UNIT ( $, .STERADIAN. ) SOLID_ANGLE_UNIT ( ) );
#86 = VERTEX_POINT ( 'NONE', #262 ) ;
#87 = DIMENSIONAL_EXPONENTS ( 1.000000000000000000, 0.0000000000000000000, 0.0000000000000000000, 0.0000000000000000000, 0.0000000000000000000, 0.0000000000000000000, 0.0000000000000000000 ) ;
#88 = ADVANCED_FACE ( 'NONE', ( #24 ), #95, .T. ) ;
#89 = AXIS2_PLACEMENT_3D ( 'NONE', #240, #68, #299 ) ;
#90 = AXIS2_PLACEMENT_3D ( 'NONE', #242, #76, #219 ) ;
#91 = EDGE_CURVE ( 'NONE', #206, #20, #201, .T. ) ;
#92 = CARTESIAN_POINT ( 'NONE',  ( 0.06250000000000002776, 7.654042494670959086E-18, 1.485000000000000764 ) ) ;
#93 = ORIENTED_EDGE ( 'NONE', *, *, #208, .F. ) ;
#94 = AXIS2_PLACEMENT_3D ( 'NONE', #214, #192, #28 ) ;
#95 = CYLINDRICAL_SURFACE ( 'NONE', #94, 0.06250000000000002776 ) ;
#96 = DIRECTION ( 'NONE',  ( 1.000000000000000000, 0.0000000000000000000, 0.0000000000000000000 ) ) ;
#97 = ORIENTED_EDGE ( 'NONE', *, *, #21, .F. ) ;
#98 = CARTESIAN_POINT ( 'NONE',  ( -0.04685309999999996700, 6.695946194592023262E-18, 0.3750000000000000555 ) ) ;
#99 = ORIENTED_EDGE ( 'NONE', *, *, #187, .F. ) ;
#100 = CARTESIAN_POINT ( 'NONE',  ( 0.04750000000000064587, 5.817072295950006528E-18, 1.500000000000000222 ) ) ;
#101 = ORIENTED_EDGE ( 'NONE', *, *, #183, .T. ) ;
#102 = DIRECTION ( 'NONE',  ( 0.0000000000000000000, 0.0000000000000000000, -1.000000000000000000 ) ) ;
#103 = VECTOR ( 'NONE', #194, 39.37007874015747433 ) ;
#104 = CARTESIAN_POINT ( 'NONE',  ( 0.04685310000000005026, 0.0000000000000000000, 0.3750000000000000555 ) ) ;
#105 = CIRCLE ( 'NONE', #18, 0.04685310000000000863 ) ;
#106 = DIRECTION ( 'NONE',  ( -1.224646799147353700E-16, -0.0000000000000000000, -1.000000000000000000 ) ) ;
#107 = ADVANCED_FACE ( 'NONE', ( #261 ), #7, .T. ) ;
#108 = ORIENTED_EDGE ( 'NONE', *, *, #208, .T. ) ;
#109 = MECHANICAL_DESIGN_GEOMETRIC_PRESENTATION_REPRESENTATION (  '', ( #279 ), #63 ) ;
#110 = APPLICATION_CONTEXT ( 'automotive_design' ) ;
#111 = VECTOR ( 'NONE', #75, 39.37007874015748143 ) ;
#112 = DIRECTION ( 'NONE',  ( -1.224646799147353700E-16, -0.0000000000000000000, -1.000000000000000000 ) ) ;
#113 = ORIENTED_EDGE ( 'NONE', *, *, #188, .T. ) ;
#114 = ORIENTED_EDGE ( 'NONE', *, *, #91, .T. ) ;
#115 = DIRECTION ( 'NONE',  ( -1.000000000000000000, 0.0000000000000000000, 1.224646799147353700E-16 ) ) ;
#116 = COLOUR_RGB ( '',0.7921568627450980005, 0.8196078431372548767, 0.9333333333333333481 ) ;
#117 = CARTESIAN_POINT ( 'NONE',  ( -0.04685309999999996700, 5.737849894513086668E-18, 0.3750000000000000555 ) ) ;
#118 = CARTESIAN_POINT ( 'NONE',  ( 0.06250000000000008327, 7.654042494670966789E-18, 0.4637379795033760299 ) ) ;
#119 = ADVANCED_FACE ( 'NONE', ( #245 ), #27, .T. ) ;
#120 = SURFACE_SIDE_STYLE ('',( #209 ) ) ;
#121 = DIRECTION ( 'NONE',  ( 1.000000000000000000, 0.0000000000000000000, 0.0000000000000000000 ) ) ;
#122 = AXIS2_PLACEMENT_3D ( 'NONE', #79, #287, #146 ) ;
#123 = PRODUCT_DEFINITION ( 'UNKNOWN', '', #83, #205 ) ;
#124 = FACE_OUTER_BOUND ( 'NONE', #58, .T. ) ;
#125 = CARTESIAN_POINT ( 'NONE',  ( 4.592425496802576684E-17, 0.0000000000000000000, 0.3750000000000000555 ) ) ;
#126 = FILL_AREA_STYLE_COLOUR ( '', #67 ) ;
#127 = AXIS2_PLACEMENT_3D ( 'NONE', #51, #263, #29 ) ;
#128 = SHAPE_DEFINITION_REPRESENTATION ( #61, #19 ) ;
#129 = PRESENTATION_LAYER_ASSIGNMENT (  '', '', ( #279 ) ) ;
#130 = EDGE_LOOP ( 'NONE', ( #236, #250, #275, #93 ) ) ;
#131 = LENGTH_MEASURE_WITH_UNIT ( LENGTH_MEASURE( 0.02539999999999999897 ), #169 );
#132 = ORIENTED_EDGE ( 'NONE', *, *, #255, .T. ) ;
#133 = DIMENSIONAL_EXPONENTS ( 1.000000000000000000, 0.0000000000000000000, 0.0000000000000000000, 0.0000000000000000000, 0.0000000000000000000, 0.0000000000000000000, 0.0000000000000000000 ) ;
#134 = VECTOR ( 'NONE', #43, 39.37007874015748854 ) ;
#135 = ADVANCED_FACE ( 'NONE', ( #147 ), #295, .T. ) ;
#136 = CARTESIAN_POINT ( 'NONE',  ( -0.06250000000000002776, 0.0000000000000000000, 1.485000000000000764 ) ) ;
#137 = CIRCLE ( 'NONE', #12, 0.06250000000000002776 ) ;
#138 = DIRECTION ( 'NONE',  ( 0.0000000000000000000, 0.0000000000000000000, -1.000000000000000000 ) ) ;
#139 = CARTESIAN_POINT ( 'NONE',  ( 0.0000000000000000000, 0.0000000000000000000, 1.485000000000000764 ) ) ;
#140 = CARTESIAN_POINT ( 'NONE',  ( 4.592425496802576684E-17, 0.0000000000000000000, 0.3750000000000000555 ) ) ;
#141 = VERTEX_POINT ( 'NONE', #47 ) ;
#142 = ORIENTED_EDGE ( 'NONE', *, *, #144, .F. ) ;
#143 = SURFACE_STYLE_USAGE ( .BOTH. , #120 ) ;
#144 = EDGE_CURVE ( 'NONE', #141, #84, #82, .T. ) ;
#145 = CYLINDRICAL_SURFACE ( 'NONE', #228, 0.04685310000000000169 ) ;
#146 = DIRECTION ( 'NONE',  ( 1.000000000000000000, 0.0000000000000000000, 0.0000000000000000000 ) ) ;
#147 = FACE_OUTER_BOUND ( 'NONE', #162, .T. ) ;
#148 = CARTESIAN_POINT ( 'NONE',  ( 0.0000000000000000000, 0.0000000000000000000, 1.500000000000000222 ) ) ;
#149 = ORIENTED_EDGE ( 'NONE', *, *, #16, .T. ) ;
#150 = DIRECTION ( 'NONE',  ( 0.7071067811865462405, 8.659560562354916834E-17, -0.7071067811865486830 ) ) ;
#151 = AXIS2_PLACEMENT_3D ( 'NONE', #22, #138, #216 ) ;
#152 = DIRECTION ( 'NONE',  ( 1.000000000000000000, 0.0000000000000000000, -0.0000000000000000000 ) ) ;
#153 = APPLICATION_PROTOCOL_DEFINITION ( 'draft international standard', 'automotive_design', 1998, #110 ) ;
#154 = DIMENSIONAL_EXPONENTS ( 1.000000000000000000, 0.0000000000000000000, 0.0000000000000000000, 0.0000000000000000000, 0.0000000000000000000, 0.0000000000000000000, 0.0000000000000000000 ) ;
#155 = EDGE_CURVE ( 'NONE', #206, #14, #298, .T. ) ;
#156 = PRODUCT ( 'Micro_EMS-093-4', 'Micro_EMS-093-4', '', ( #292 ) ) ;
#157 = CLOSED_SHELL ( 'NONE', ( #8, #119, #66, #88, #246, #234, #135, #185, #107, #273 ) ) ;
#158 =( GEOMETRIC_REPRESENTATION_CONTEXT ( 3 ) GLOBAL_UNCERTAINTY_ASSIGNED_CONTEXT ( ( #39 ) ) GLOBAL_UNIT_ASSIGNED_CONTEXT ( ( #37, #222, #289 ) ) REPRESENTATION_CONTEXT ( 'NONE', 'WORKASPACE' ) );
#159 =( NAMED_UNIT ( * ) PLANE_ANGLE_UNIT ( ) SI_UNIT ( $, .RADIAN. ) );
#160 = VERTEX_POINT ( 'NONE', #167 ) ;
#161 = VECTOR ( 'NONE', #171, 39.37007874015748143 ) ;
#162 = EDGE_LOOP ( 'NONE', ( #36, #40, #202, #203 ) ) ;
#163 = LINE ( 'NONE', #117, #103 ) ;
#164 = AXIS2_PLACEMENT_3D ( 'NONE', #30, #52, #152 ) ;
#165 = LINE ( 'NONE', #210, #111 ) ;
#166 = DIRECTION ( 'NONE',  ( 0.0000000000000000000, 0.0000000000000000000, -1.000000000000000000 ) ) ;
#167 = CARTESIAN_POINT ( 'NONE',  ( 0.04685310000000005026, 0.0000000000000000000, 0.3750000000000000555 ) ) ;
#168 = DIRECTION ( 'NONE',  ( 1.000000000000000000, 0.0000000000000000000, 0.0000000000000000000 ) ) ;
#169 =( LENGTH_UNIT ( ) NAMED_UNIT ( * ) SI_UNIT ( $, .METRE. ) );
#170 = DIRECTION ( 'NONE',  ( -1.224646799147353700E-16, -0.0000000000000000000, -1.000000000000000000 ) ) ;
#171 = DIRECTION ( 'NONE',  ( 0.1736481776669313581, 0.0000000000000000000, 0.9848077530122077983 ) ) ;
#172 = ORIENTED_EDGE ( 'NONE', *, *, #176, .T. ) ;
#173 = DIRECTION ( 'NONE',  ( 1.224646799147353700E-16, 0.0000000000000000000, 1.000000000000000000 ) ) ;
#174 = CYLINDRICAL_SURFACE ( 'NONE', #77, 0.06250000000000002776 ) ;
#175 = FACE_OUTER_BOUND ( 'NONE', #80, .T. ) ;
#176 = EDGE_CURVE ( 'NONE', #42, #14, #137, .T. ) ;
#177 = AXIS2_PLACEMENT_3D ( 'NONE', #233, #170, #73 ) ;
#178 = SURFACE_STYLE_FILL_AREA ( #200 ) ;
#179 = SURFACE_SIDE_STYLE ('',( #178 ) ) ;
#180 = MANIFOLD_SOLID_BREP ( 'Cut-Revolve1', #157 ) ;
#181 = ORIENTED_EDGE ( 'NONE', *, *, #293, .T. ) ;
#182 = STYLED_ITEM ( 'NONE', ( #11 ), #180 ) ;
#183 = EDGE_CURVE ( 'NONE', #86, #215, #258, .T. ) ;
#184 = UNCERTAINTY_MEASURE_WITH_UNIT (LENGTH_MEASURE( 1.000000000000000082E-05 ), #284, 'distance_accuracy_value', 'NONE');
#185 = ADVANCED_FACE ( 'NONE', ( #196 ), #50, .T. ) ;
#186 = CIRCLE ( 'NONE', #122, 0.06250000000000002776 ) ;
#187 = EDGE_CURVE ( 'NONE', #160, #84, #198, .T. ) ;
#188 = EDGE_CURVE ( 'NONE', #84, #141, #186, .T. ) ;
#189 = CARTESIAN_POINT ( 'NONE',  ( 0.06250000000000002776, 7.654042494670959086E-18, 1.500000000000000222 ) ) ;
#190 = CARTESIAN_POINT ( 'NONE',  ( 0.04750000000000064587, 6.735557395310483192E-18, 1.500000000000000222 ) ) ;
#191 = VECTOR ( 'NONE', #277, 39.37007874015748143 ) ;
#192 = DIRECTION ( 'NONE',  ( -0.0000000000000000000, -0.0000000000000000000, -1.000000000000000000 ) ) ;
#193 = ORIENTED_EDGE ( 'NONE', *, *, #188, .F. ) ;
#194 = DIRECTION ( 'NONE',  ( -0.1736481776669311639, 2.126576849575783008E-17, 0.9848077530122080203 ) ) ;
#195 = CARTESIAN_POINT ( 'NONE',  ( -0.04685310000000000169, 0.0000000000000000000, 5.737849894513087439E-18 ) ) ;
#196 = FACE_OUTER_BOUND ( 'NONE', #44, .T. ) ;
#197 = AXIS2_PLACEMENT_3D ( 'NONE', #243, #48, #267 ) ;
#198 = LINE ( 'NONE', #104, #161 ) ;
#199 = PLANE ( 'NONE',  #164 ) ;
#200 = FILL_AREA_STYLE ('',( #126 ) ) ;
#201 = CIRCLE ( 'NONE', #271, 0.04750000000000064587 ) ;
#202 = ORIENTED_EDGE ( 'NONE', *, *, #155, .T. ) ;
#203 = ORIENTED_EDGE ( 'NONE', *, *, #176, .F. ) ;
#204 = UNCERTAINTY_MEASURE_WITH_UNIT (LENGTH_MEASURE( 1.000000000000000082E-05 ), #35, 'distance_accuracy_value', 'NONE');
#205 = PRODUCT_DEFINITION_CONTEXT ( 'detailed design', #223, 'design' ) ;
#206 = VERTEX_POINT ( 'NONE', #78 ) ;
#207 = VECTOR ( 'NONE', #150, 39.37007874015748854 ) ;
#208 = EDGE_CURVE ( 'NONE', #211, #86, #241, .T. ) ;
#209 = SURFACE_STYLE_FILL_AREA ( #23 ) ;
#210 = CARTESIAN_POINT ( 'NONE',  ( 0.04685310000000000169, 5.737849894513085128E-18, -5.737849894513087439E-18 ) ) ;
#211 = VERTEX_POINT ( 'NONE', #98 ) ;
#212 = FACE_OUTER_BOUND ( 'NONE', #130, .T. ) ;
#213 = CARTESIAN_POINT ( 'NONE',  ( -0.06250000000000002776, 0.0000000000000000000, 1.500000000000000222 ) ) ;
#214 = CARTESIAN_POINT ( 'NONE',  ( 0.0000000000000000000, 0.0000000000000000000, 1.500000000000000222 ) ) ;
#215 = VERTEX_POINT ( 'NONE', #46 ) ;
#216 = DIRECTION ( 'NONE',  ( 1.000000000000000000, 0.0000000000000000000, 0.0000000000000000000 ) ) ;
#217 =( LENGTH_UNIT ( ) NAMED_UNIT ( * ) SI_UNIT ( $, .METRE. ) );
#218 = CARTESIAN_POINT ( 'NONE',  ( 0.0000000000000000000, 0.0000000000000000000, 1.500000000000000222 ) ) ;
#219 = DIRECTION ( 'NONE',  ( -1.000000000000000000, 0.0000000000000000000, 1.224646799147353700E-16 ) ) ;
#220 = AXIS2_PLACEMENT_3D ( 'NONE', #17, #106, #230 ) ;
#221 = ORIENTED_EDGE ( 'NONE', *, *, #55, .F. ) ;
#222 =( NAMED_UNIT ( * ) PLANE_ANGLE_UNIT ( ) SI_UNIT ( $, .RADIAN. ) );
#223 = APPLICATION_CONTEXT ( 'automotive_design' ) ;
#224 = ORIENTED_EDGE ( 'NONE', *, *, #187, .T. ) ;
#225 =( GEOMETRIC_REPRESENTATION_CONTEXT ( 3 ) GLOBAL_UNCERTAINTY_ASSIGNED_CONTEXT ( ( #184 ) ) GLOBAL_UNIT_ASSIGNED_CONTEXT ( ( #284, #56, #244 ) ) REPRESENTATION_CONTEXT ( 'NONE', 'WORKASPACE' ) );
#226 = CARTESIAN_POINT ( 'NONE',  ( 0.0000000000000000000, 0.0000000000000000000, 0.0000000000000000000 ) ) ;
#227 = ORIENTED_EDGE ( 'NONE', *, *, #155, .F. ) ;
#228 = AXIS2_PLACEMENT_3D ( 'NONE', #276, #112, #115 ) ;
#229 = EDGE_LOOP ( 'NONE', ( #45, #257, #108, #294 ) ) ;
#230 = DIRECTION ( 'NONE',  ( 1.000000000000000000, 0.0000000000000000000, 0.0000000000000000000 ) ) ;
#231 = DIRECTION ( 'NONE',  ( -1.224646799147353700E-16, -0.0000000000000000000, -1.000000000000000000 ) ) ;
#232 = FILL_AREA_STYLE_COLOUR ( '', #116 ) ;
#233 = CARTESIAN_POINT ( 'NONE',  ( 4.592425496802576684E-17, 0.0000000000000000000, 0.3750000000000000555 ) ) ;
#234 = ADVANCED_FACE ( 'NONE', ( #175 ), #238, .T. ) ;
#235 = LINE ( 'NONE', #189, #191 ) ;
#236 = ORIENTED_EDGE ( 'NONE', *, *, #55, .T. ) ;
#237 = ORIENTED_EDGE ( 'NONE', *, *, #32, .F. ) ;
#238 = PLANE ( 'NONE',  #127 ) ;
#239 = DIRECTION ( 'NONE',  ( 1.224646799147353700E-16, 0.0000000000000000000, 1.000000000000000000 ) ) ;
#240 = CARTESIAN_POINT ( 'NONE',  ( 0.0000000000000000000, 0.0000000000000000000, 1.500000000000000222 ) ) ;
#241 = LINE ( 'NONE', #195, #265 ) ;
#242 = CARTESIAN_POINT ( 'NONE',  ( 7.026839507303433011E-34, 0.0000000000000000000, 5.737849894513087439E-18 ) ) ;
#243 = CARTESIAN_POINT ( 'NONE',  ( 0.0000000000000000000, 0.0000000000000000000, 0.0000000000000000000 ) ) ;
#244 =( NAMED_UNIT ( * ) SI_UNIT ( $, .STERADIAN. ) SOLID_ANGLE_UNIT ( ) );
#245 = FACE_OUTER_BOUND ( 'NONE', #254, .T. ) ;
#246 = ADVANCED_FACE ( 'NONE', ( #124 ), #174, .T. ) ;
#247 = AXIS2_PLACEMENT_3D ( 'NONE', #280, #231, #41 ) ;
#248 =( LENGTH_UNIT ( ) NAMED_UNIT ( * ) SI_UNIT ( $, .METRE. ) );
#249 = APPLICATION_PROTOCOL_DEFINITION ( 'draft international standard', 'automotive_design', 1998, #223 ) ;
#250 = ORIENTED_EDGE ( 'NONE', *, *, #65, .T. ) ;
#251 = PRESENTATION_STYLE_ASSIGNMENT (( #60 ) ) ;
#252 = ORIENTED_EDGE ( 'NONE', *, *, #53, .T. ) ;
#253 = CIRCLE ( 'NONE', #151, 0.06250000000000002776 ) ;
#254 = EDGE_LOOP ( 'NONE', ( #221, #69, #1, #99 ) ) ;
#255 = EDGE_CURVE ( 'NONE', #20, #42, #54, .T. ) ;
#256 = ORIENTED_EDGE ( 'NONE', *, *, #59, .T. ) ;
#257 = ORIENTED_EDGE ( 'NONE', *, *, #21, .T. ) ;
#258 = CIRCLE ( 'NONE', #90, 0.04685310000000000169 ) ;
#259 = CARTESIAN_POINT ( 'NONE',  ( -0.04750000000000064587, 0.0000000000000000000, 1.500000000000000222 ) ) ;
#260 = EDGE_LOOP ( 'NONE', ( #252, #269, #142, #26 ) ) ;
#261 = FACE_OUTER_BOUND ( 'NONE', #229, .T. ) ;
#262 = CARTESIAN_POINT ( 'NONE',  ( -0.04685310000000000169, 0.0000000000000000000, 1.147569978902617488E-17 ) ) ;
#263 = DIRECTION ( 'NONE',  ( 0.0000000000000000000, 0.0000000000000000000, 1.000000000000000000 ) ) ;
#264 = VECTOR ( 'NONE', #70, 39.37007874015748143 ) ;
#265 = VECTOR ( 'NONE', #9, 39.37007874015748143 ) ;
#266 = FACE_OUTER_BOUND ( 'NONE', #281, .T. ) ;
#267 = DIRECTION ( 'NONE',  ( -1.000000000000000000, 0.0000000000000000000, 1.224646799147353700E-16 ) ) ;
#268 = CARTESIAN_POINT ( 'NONE',  ( 0.0000000000000000000, 0.0000000000000000000, 1.500000000000000222 ) ) ;
#269 = ORIENTED_EDGE ( 'NONE', *, *, #81, .T. ) ;
#270 = DIRECTION ( 'NONE',  ( -1.000000000000000000, 0.0000000000000000000, 0.0000000000000000000 ) ) ;
#271 = AXIS2_PLACEMENT_3D ( 'NONE', #74, #49, #168 ) ;
#272 = LENGTH_MEASURE_WITH_UNIT ( LENGTH_MEASURE( 0.02539999999999999897 ), #248 );
#273 = ADVANCED_FACE ( 'NONE', ( #266 ), #199, .F. ) ;
#274 = DIRECTION ( 'NONE',  ( 0.0000000000000000000, 0.0000000000000000000, 1.000000000000000000 ) ) ;
#275 = ORIENTED_EDGE ( 'NONE', *, *, #183, .F. ) ;
#276 = CARTESIAN_POINT ( 'NONE',  ( 0.0000000000000000000, 0.0000000000000000000, 0.0000000000000000000 ) ) ;
#277 = DIRECTION ( 'NONE',  ( -0.0000000000000000000, -0.0000000000000000000, -1.000000000000000000 ) ) ;
#278 = ORIENTED_EDGE ( 'NONE', *, *, #53, .F. ) ;
#279 = STYLED_ITEM ( 'NONE', ( #251 ), #19 ) ;
#280 = CARTESIAN_POINT ( 'NONE',  ( 7.026839507303433011E-34, 0.0000000000000000000, 5.737849894513087439E-18 ) ) ;
#281 = EDGE_LOOP ( 'NONE', ( #101, #149 ) ) ;
#282 = DIRECTION ( 'NONE',  ( -0.0000000000000000000, -0.0000000000000000000, -1.000000000000000000 ) ) ;
#283 = LINE ( 'NONE', #213, #264 ) ;
#284 =( CONVERSION_BASED_UNIT ( 'INCH', #33 ) LENGTH_UNIT ( ) NAMED_UNIT ( #154 ) );
#285 = AXIS2_PLACEMENT_3D ( 'NONE', #218, #102, #71 ) ;
#286 = DIRECTION ( 'NONE',  ( 1.000000000000000000, 0.0000000000000000000, 0.0000000000000000000 ) ) ;
#287 = DIRECTION ( 'NONE',  ( -1.224646799147353700E-16, -0.0000000000000000000, -1.000000000000000000 ) ) ;
#288 = CARTESIAN_POINT ( 'NONE',  ( 4.592425496802576684E-17, 0.0000000000000000000, 0.3750000000000000555 ) ) ;
#289 =( NAMED_UNIT ( * ) SI_UNIT ( $, .STERADIAN. ) SOLID_ANGLE_UNIT ( ) );
#290 = MECHANICAL_DESIGN_GEOMETRIC_PRESENTATION_REPRESENTATION (  '', ( #182 ), #225 ) ;
#291 = AXIS2_PLACEMENT_3D ( 'NONE', #226, #274, #64 ) ;
#292 = PRODUCT_CONTEXT ( 'NONE', #110, 'mechanical' ) ;
#293 = EDGE_CURVE ( 'NONE', #20, #206, #31, .T. ) ;
#294 = ORIENTED_EDGE ( 'NONE', *, *, #16, .F. ) ;
#295 = CONICAL_SURFACE ( 'NONE', #285, 0.04750000000000064587, 0.7853981633974466137 ) ;
#296 = ORIENTED_EDGE ( 'NONE', *, *, #293, .F. ) ;
#297 = PRESENTATION_LAYER_ASSIGNMENT (  '', '', ( #182 ) ) ;
#298 = LINE ( 'NONE', #259, #134 ) ;
#299 = DIRECTION ( 'NONE',  ( -1.000000000000000000, 0.0000000000000000000, 0.0000000000000000000 ) ) ;
ENDSEC;
END-ISO-10303-21;
