ISO-10303-21;
HEADER;
FILE_DESCRIPTION (( 'STEP AP214' ),
    '1' );
FILE_NAME ('Micro_RSC-187-1X.STEP',
    '2021-09-03T17:45:35',
    ( '' ),
    ( '' ),
    'SwSTEP 2.0',
    'SolidWorks 2020',
    '' );
FILE_SCHEMA (( 'AUTOMOTIVE_DESIGN' ));
ENDSEC;

DATA;
#1 = FACE_OUTER_BOUND ( 'NONE', #185, .T. ) ;
#2 = DIRECTION ( 'NONE',  ( 1.000000000000000000, 0.0000000000000000000, -0.0000000000000000000 ) ) ;
#3 = CONICAL_SURFACE ( 'NONE', #143, 0.003999999999999999216, 0.5235987755983003700 ) ;
#4 = MECHANICAL_DESIGN_GEOMETRIC_PRESENTATION_REPRESENTATION (  '', ( #208 ), #95 ) ;
#5 = DIRECTION ( 'NONE',  ( 0.0000000000000000000, 0.0000000000000000000, -1.000000000000000000 ) ) ;
#6 = ADVANCED_FACE ( 'NONE', ( #199 ), #134, .T. ) ;
#7 = ORIENTED_EDGE ( 'NONE', *, *, #106, .F. ) ;
#8 = PRODUCT_DEFINITION_FORMATION_WITH_SPECIFIED_SOURCE ( 'ANY', '', #213, .NOT_KNOWN. ) ;
#9 = ORIENTED_EDGE ( 'NONE', *, *, #139, .F. ) ;
#10 = CARTESIAN_POINT ( 'NONE',  ( 0.0000000000000000000, 0.0000000000000000000, 2.000000000000000000 ) ) ;
#11 = ORIENTED_EDGE ( 'NONE', *, *, #98, .T. ) ;
#12 = AXIS2_PLACEMENT_3D ( 'NONE', #205, #74, #249 ) ;
#13 = VERTEX_POINT ( 'NONE', #104 ) ;
#14 = DIRECTION ( 'NONE',  ( 0.0000000000000000000, 0.0000000000000000000, 1.000000000000000000 ) ) ;
#15 = DIRECTION ( 'NONE',  ( 0.7071067811865463515, 8.659560562354916834E-17, -0.7071067811865486830 ) ) ;
#16 = AXIS2_PLACEMENT_3D ( 'NONE', #10, #87, #69 ) ;
#17 = UNCERTAINTY_MEASURE_WITH_UNIT (LENGTH_MEASURE( 1.000000000000000082E-05 ), #129, 'distance_accuracy_value', 'NONE');
#18 = DIRECTION ( 'NONE',  ( 0.0000000000000000000, 0.0000000000000000000, -1.000000000000000000 ) ) ;
#19 = CARTESIAN_POINT ( 'NONE',  ( 0.0000000000000000000, 0.0000000000000000000, 0.1554515599793062086 ) ) ;
#20 = CARTESIAN_POINT ( 'NONE',  ( 0.0000000000000000000, 0.0000000000000000000, 2.000000000000000000 ) ) ;
#21 = PRODUCT_DEFINITION_SHAPE ( 'NONE', 'NONE',  #119 ) ;
#22 = AXIS2_PLACEMENT_3D ( 'NONE', #248, #76, #133 ) ;
#23 = SURFACE_STYLE_FILL_AREA ( #231 ) ;
#24 = STYLED_ITEM ( 'NONE', ( #116 ), #234 ) ;
#25 = EDGE_CURVE ( 'NONE', #164, #218, #122, .T. ) ;
#26 = CARTESIAN_POINT ( 'NONE',  ( 0.0000000000000000000, 0.0000000000000000000, 0.0000000000000000000 ) ) ;
#27 = VERTEX_POINT ( 'NONE', #168 ) ;
#28 = AXIS2_PLACEMENT_3D ( 'NONE', #29, #142, #238 ) ;
#29 = CARTESIAN_POINT ( 'NONE',  ( 0.0000000000000000000, 0.0000000000000000000, 2.000000000000000000 ) ) ;
#30 = AXIS2_PLACEMENT_3D ( 'NONE', #136, #60, #215 ) ;
#31 = DIRECTION ( 'NONE',  ( 0.5000000000000012212, 0.0000000000000000000, 0.8660254037844377084 ) ) ;
#32 = SHAPE_DEFINITION_REPRESENTATION ( #21, #234 ) ;
#33 = CARTESIAN_POINT ( 'NONE',  ( 0.0000000000000000000, 0.0000000000000000000, 2.000000000000000000 ) ) ;
#34 = ORIENTED_EDGE ( 'NONE', *, *, #25, .T. ) ;
#35 = PRESENTATION_LAYER_ASSIGNMENT (  '', '', ( #24 ) ) ;
#36 = ADVANCED_FACE ( 'NONE', ( #187 ), #242, .T. ) ;
#37 = SURFACE_SIDE_STYLE ('',( #127 ) ) ;
#38 = LINE ( 'NONE', #225, #58 ) ;
#39 = FACE_OUTER_BOUND ( 'NONE', #120, .T. ) ;
#40 = CLOSED_SHELL ( 'NONE', ( #161, #6, #186, #36, #45, #85, #56, #245 ) ) ;
#41 = DIRECTION ( 'NONE',  ( -1.000000000000000000, 0.0000000000000000000, 0.0000000000000000000 ) ) ;
#42 = DIRECTION ( 'NONE',  ( -1.000000000000000000, 0.0000000000000000000, 0.0000000000000000000 ) ) ;
#43 =( NAMED_UNIT ( * ) PLANE_ANGLE_UNIT ( ) SI_UNIT ( $, .RADIAN. ) );
#44 = CARTESIAN_POINT ( 'NONE',  ( -0.09375000000000001388, 0.0000000000000000000, 0.1554515599793062086 ) ) ;
#45 = ADVANCED_FACE ( 'NONE', ( #219 ), #52, .T. ) ;
#46 = CARTESIAN_POINT ( 'NONE',  ( 0.003999999999999999216, 0.0000000000000000000, 0.0000000000000000000 ) ) ;
#47 = AXIS2_PLACEMENT_3D ( 'NONE', #19, #75, #42 ) ;
#48 = ORIENTED_EDGE ( 'NONE', *, *, #148, .T. ) ;
#49 = EDGE_CURVE ( 'NONE', #164, #124, #62, .T. ) ;
#50 = EDGE_LOOP ( 'NONE', ( #236, #11, #217, #51 ) ) ;
#51 = ORIENTED_EDGE ( 'NONE', *, *, #123, .F. ) ;
#52 = PLANE ( 'NONE',  #184 ) ;
#53 = EDGE_LOOP ( 'NONE', ( #86, #183, #221, #243 ) ) ;
#54 = CIRCLE ( 'NONE', #30, 0.09375000000000001388 ) ;
#55 = DIRECTION ( 'NONE',  ( 1.000000000000000000, 0.0000000000000000000, 0.0000000000000000000 ) ) ;
#56 = ADVANCED_FACE ( 'NONE', ( #1 ), #3, .T. ) ;
#57 = DIRECTION ( 'NONE',  ( 0.0000000000000000000, 0.0000000000000000000, 1.000000000000000000 ) ) ;
#58 = VECTOR ( 'NONE', #246, 39.37007874015748854 ) ;
#59 = DIRECTION ( 'NONE',  ( 1.000000000000000000, 0.0000000000000000000, 0.0000000000000000000 ) ) ;
#60 = DIRECTION ( 'NONE',  ( -0.0000000000000000000, -0.0000000000000000000, -1.000000000000000000 ) ) ;
#61 = DIRECTION ( 'NONE',  ( 1.000000000000000000, 0.0000000000000000000, 0.0000000000000000000 ) ) ;
#62 = CIRCLE ( 'NONE', #159, 0.003999999999999999216 ) ;
#63 = DIRECTION ( 'NONE',  ( 0.0000000000000000000, 0.0000000000000000000, 1.000000000000000000 ) ) ;
#64 = CARTESIAN_POINT ( 'NONE',  ( 0.09375000000000001388, 1.148106374200643863E-17, 0.1554515599793062086 ) ) ;
#65 =( NAMED_UNIT ( * ) PLANE_ANGLE_UNIT ( ) SI_UNIT ( $, .RADIAN. ) );
#66 = EDGE_LOOP ( 'NONE', ( #90, #108, #141, #165 ) ) ;
#67 = EDGE_LOOP ( 'NONE', ( #72, #169 ) ) ;
#68 = VECTOR ( 'NONE', #31, 39.37007874015748854 ) ;
#69 = DIRECTION ( 'NONE',  ( -1.000000000000000000, 0.0000000000000000000, 0.0000000000000000000 ) ) ;
#70 = PRESENTATION_LAYER_ASSIGNMENT (  '', '', ( #208 ) ) ;
#71 = UNCERTAINTY_MEASURE_WITH_UNIT (LENGTH_MEASURE( 1.000000000000000082E-05 ), #180, 'distance_accuracy_value', 'NONE');
#72 = ORIENTED_EDGE ( 'NONE', *, *, #49, .T. ) ;
#73 = VERTEX_POINT ( 'NONE', #91 ) ;
#74 = DIRECTION ( 'NONE',  ( 0.0000000000000000000, 0.0000000000000000000, 1.000000000000000000 ) ) ;
#75 = DIRECTION ( 'NONE',  ( -0.0000000000000000000, -0.0000000000000000000, -1.000000000000000000 ) ) ;
#76 = DIRECTION ( 'NONE',  ( 0.0000000000000000000, 0.0000000000000000000, 1.000000000000000000 ) ) ;
#77 = CIRCLE ( 'NONE', #137, 0.07874999999999980627 ) ;
#78 = CARTESIAN_POINT ( 'NONE',  ( -0.09375000000000001388, 0.0000000000000000000, 2.000000000000000000 ) ) ;
#79 = EDGE_CURVE ( 'NONE', #27, #203, #206, .T. ) ;
#80 =( LENGTH_UNIT ( ) NAMED_UNIT ( * ) SI_UNIT ( $, .METRE. ) );
#81 = PLANE ( 'NONE',  #240 ) ;
#82 = APPLICATION_CONTEXT ( 'automotive_design' ) ;
#83 = CIRCLE ( 'NONE', #103, 0.09375000000000001388 ) ;
#84 = ORIENTED_EDGE ( 'NONE', *, *, #200, .T. ) ;
#85 = ADVANCED_FACE ( 'NONE', ( #209 ), #239, .T. ) ;
#86 = ORIENTED_EDGE ( 'NONE', *, *, #163, .F. ) ;
#87 = DIRECTION ( 'NONE',  ( -0.0000000000000000000, -0.0000000000000000000, -1.000000000000000000 ) ) ;
#88 = CARTESIAN_POINT ( 'NONE',  ( 0.0000000000000000000, 0.0000000000000000000, 0.0000000000000000000 ) ) ;
#89 = ORIENTED_EDGE ( 'NONE', *, *, #229, .F. ) ;
#90 = ORIENTED_EDGE ( 'NONE', *, *, #98, .F. ) ;
#91 = CARTESIAN_POINT ( 'NONE',  ( 0.09375000000000001388, 1.148106374200643863E-17, 1.984999999999999654 ) ) ;
#92 = DIRECTION ( 'NONE',  ( -0.0000000000000000000, -0.0000000000000000000, -1.000000000000000000 ) ) ;
#93 = DIRECTION ( 'NONE',  ( 0.0000000000000000000, 0.0000000000000000000, -1.000000000000000000 ) ) ;
#94 =( NAMED_UNIT ( * ) PLANE_ANGLE_UNIT ( ) SI_UNIT ( $, .RADIAN. ) );
#95 =( GEOMETRIC_REPRESENTATION_CONTEXT ( 3 ) GLOBAL_UNCERTAINTY_ASSIGNED_CONTEXT ( ( #17 ) ) GLOBAL_UNIT_ASSIGNED_CONTEXT ( ( #129, #94, #112 ) ) REPRESENTATION_CONTEXT ( 'NONE', 'WORKASPACE' ) );
#96 = APPLICATION_PROTOCOL_DEFINITION ( 'draft international standard', 'automotive_design', 1998, #191 ) ;
#97 = SURFACE_SIDE_STYLE ('',( #23 ) ) ;
#98 = EDGE_CURVE ( 'NONE', #13, #73, #173, .T. ) ;
#99 = CARTESIAN_POINT ( 'NONE',  ( 0.0000000000000000000, 0.0000000000000000000, 1.984999999999999654 ) ) ;
#100 = AXIS2_PLACEMENT_3D ( 'NONE', #211, #233, #115 ) ;
#101 = ORIENTED_EDGE ( 'NONE', *, *, #79, .F. ) ;
#102 = DIRECTION ( 'NONE',  ( 0.0000000000000000000, 0.0000000000000000000, 1.000000000000000000 ) ) ;
#103 = AXIS2_PLACEMENT_3D ( 'NONE', #99, #5, #61 ) ;
#104 = CARTESIAN_POINT ( 'NONE',  ( 0.07874999999999980627, 1.056257864264590573E-17, 2.000000000000000000 ) ) ;
#105 = ORIENTED_EDGE ( 'NONE', *, *, #139, .T. ) ;
#106 = EDGE_CURVE ( 'NONE', #124, #203, #38, .T. ) ;
#107 = DIRECTION ( 'NONE',  ( 0.0000000000000000000, 0.0000000000000000000, 1.000000000000000000 ) ) ;
#108 = ORIENTED_EDGE ( 'NONE', *, *, #157, .F. ) ;
#109 = MECHANICAL_DESIGN_GEOMETRIC_PRESENTATION_REPRESENTATION (  '', ( #24 ), #167 ) ;
#110 = DIRECTION ( 'NONE',  ( 1.000000000000000000, 0.0000000000000000000, 0.0000000000000000000 ) ) ;
#111 = VECTOR ( 'NONE', #149, 39.37007874015748143 ) ;
#112 =( NAMED_UNIT ( * ) SI_UNIT ( $, .STERADIAN. ) SOLID_ANGLE_UNIT ( ) );
#113 = CARTESIAN_POINT ( 'NONE',  ( 0.0000000000000000000, 0.0000000000000000000, 0.0000000000000000000 ) ) ;
#114 = DIRECTION ( 'NONE',  ( -1.000000000000000000, 0.0000000000000000000, 0.0000000000000000000 ) ) ;
#115 = DIRECTION ( 'NONE',  ( -1.000000000000000000, 0.0000000000000000000, 0.0000000000000000000 ) ) ;
#116 = PRESENTATION_STYLE_ASSIGNMENT (( #179 ) ) ;
#117 = CIRCLE ( 'NONE', #12, 0.07874999999999980627 ) ;
#118 = CARTESIAN_POINT ( 'NONE',  ( -0.07874999999999980627, 0.0000000000000000000, 2.000000000000000000 ) ) ;
#119 = PRODUCT_DEFINITION ( 'UNKNOWN', '', #8, #174 ) ;
#120 = EDGE_LOOP ( 'NONE', ( #89, #121, #105, #126 ) ) ;
#121 = ORIENTED_EDGE ( 'NONE', *, *, #106, .T. ) ;
#122 = LINE ( 'NONE', #201, #68 ) ;
#123 = EDGE_CURVE ( 'NONE', #237, #27, #170, .T. ) ;
#124 = VERTEX_POINT ( 'NONE', #244 ) ;
#125 = UNCERTAINTY_MEASURE_WITH_UNIT (LENGTH_MEASURE( 1.000000000000000082E-05 ), #195, 'distance_accuracy_value', 'NONE');
#126 = ORIENTED_EDGE ( 'NONE', *, *, #25, .F. ) ;
#127 = SURFACE_STYLE_FILL_AREA ( #130 ) ;
#128 =( LENGTH_UNIT ( ) NAMED_UNIT ( * ) SI_UNIT ( $, .METRE. ) );
#129 =( CONVERSION_BASED_UNIT ( 'INCH', #192 ) LENGTH_UNIT ( ) NAMED_UNIT ( #247 ) );
#130 = FILL_AREA_STYLE ('',( #176 ) ) ;
#131 = AXIS2_PLACEMENT_3D ( 'NONE', #20, #93, #41 ) ;
#132 = FACE_OUTER_BOUND ( 'NONE', #67, .T. ) ;
#133 = DIRECTION ( 'NONE',  ( 1.000000000000000000, 0.0000000000000000000, 0.0000000000000000000 ) ) ;
#134 = CONICAL_SURFACE ( 'NONE', #28, 0.07874999999999980627, 0.7853981633974466137 ) ;
#135 = LENGTH_MEASURE_WITH_UNIT ( LENGTH_MEASURE( 0.02539999999999999897 ), #80 );
#136 = CARTESIAN_POINT ( 'NONE',  ( 0.0000000000000000000, 0.0000000000000000000, 0.1554515599793062086 ) ) ;
#137 = AXIS2_PLACEMENT_3D ( 'NONE', #193, #57, #59 ) ;
#138 = PRODUCT_RELATED_PRODUCT_CATEGORY ( 'part', '', ( #213 ) ) ;
#139 = EDGE_CURVE ( 'NONE', #203, #218, #226, .T. ) ;
#140 = APPLICATION_PROTOCOL_DEFINITION ( 'draft international standard', 'automotive_design', 1998, #82 ) ;
#141 = ORIENTED_EDGE ( 'NONE', *, *, #123, .T. ) ;
#142 = DIRECTION ( 'NONE',  ( 0.0000000000000000000, 0.0000000000000000000, -1.000000000000000000 ) ) ;
#143 = AXIS2_PLACEMENT_3D ( 'NONE', #113, #14, #110 ) ;
#144 = CONICAL_SURFACE ( 'NONE', #22, 0.003999999999999999216, 0.5235987755983003700 ) ;
#145 = ORIENTED_EDGE ( 'NONE', *, *, #163, .T. ) ;
#146 = EDGE_LOOP ( 'NONE', ( #162, #145, #9, #101 ) ) ;
#147 = SURFACE_STYLE_USAGE ( .BOTH. , #37 ) ;
#148 = EDGE_CURVE ( 'NONE', #13, #237, #117, .T. ) ;
#149 = DIRECTION ( 'NONE',  ( -0.0000000000000000000, -0.0000000000000000000, -1.000000000000000000 ) ) ;
#150 = DIRECTION ( 'NONE',  ( -0.7071067811865463515, 0.0000000000000000000, -0.7071067811865486830 ) ) ;
#151 = EDGE_CURVE ( 'NONE', #27, #73, #153, .T. ) ;
#152 = CARTESIAN_POINT ( 'NONE',  ( -0.07874999999999980627, 0.0000000000000000000, 2.000000000000000000 ) ) ;
#153 = CIRCLE ( 'NONE', #194, 0.09375000000000001388 ) ;
#154 =( NAMED_UNIT ( * ) SI_UNIT ( $, .STERADIAN. ) SOLID_ANGLE_UNIT ( ) );
#155 = MANIFOLD_SOLID_BREP ( 'Cut-Revolve1', #40 ) ;
#156 = CARTESIAN_POINT ( 'NONE',  ( 0.0000000000000000000, 0.0000000000000000000, 0.0000000000000000000 ) ) ;
#157 = EDGE_CURVE ( 'NONE', #237, #13, #77, .T. ) ;
#158 =( LENGTH_UNIT ( ) NAMED_UNIT ( * ) SI_UNIT ( $, .METRE. ) );
#159 = AXIS2_PLACEMENT_3D ( 'NONE', #224, #92, #175 ) ;
#160 = DIRECTION ( 'NONE',  ( -0.0000000000000000000, -0.0000000000000000000, -1.000000000000000000 ) ) ;
#161 = ADVANCED_FACE ( 'NONE', ( #39 ), #144, .T. ) ;
#162 = ORIENTED_EDGE ( 'NONE', *, *, #151, .T. ) ;
#163 = EDGE_CURVE ( 'NONE', #73, #218, #182, .T. ) ;
#164 = VERTEX_POINT ( 'NONE', #46 ) ;
#165 = ORIENTED_EDGE ( 'NONE', *, *, #210, .F. ) ;
#166 = DIRECTION ( 'NONE',  ( 1.000000000000000000, 0.0000000000000000000, 0.0000000000000000000 ) ) ;
#167 =( GEOMETRIC_REPRESENTATION_CONTEXT ( 3 ) GLOBAL_UNCERTAINTY_ASSIGNED_CONTEXT ( ( #125 ) ) GLOBAL_UNIT_ASSIGNED_CONTEXT ( ( #195, #65, #220 ) ) REPRESENTATION_CONTEXT ( 'NONE', 'WORKASPACE' ) );
#168 = CARTESIAN_POINT ( 'NONE',  ( -0.09375000000000001388, 0.0000000000000000000, 1.984999999999999654 ) ) ;
#169 = ORIENTED_EDGE ( 'NONE', *, *, #229, .T. ) ;
#170 = LINE ( 'NONE', #152, #197 ) ;
#171 = DIMENSIONAL_EXPONENTS ( 1.000000000000000000, 0.0000000000000000000, 0.0000000000000000000, 0.0000000000000000000, 0.0000000000000000000, 0.0000000000000000000, 0.0000000000000000000 ) ;
#172 = COLOUR_RGB ( '',0.7921568627450980005, 0.8196078431372548767, 0.9333333333333333481 ) ;
#173 = LINE ( 'NONE', #177, #207 ) ;
#174 = PRODUCT_DEFINITION_CONTEXT ( 'detailed design', #82, 'design' ) ;
#175 = DIRECTION ( 'NONE',  ( -1.000000000000000000, 0.0000000000000000000, 0.0000000000000000000 ) ) ;
#176 = FILL_AREA_STYLE_COLOUR ( '', #235 ) ;
#177 = CARTESIAN_POINT ( 'NONE',  ( 0.07874999999999980627, 9.644093543285380530E-18, 2.000000000000000000 ) ) ;
#178 = DIRECTION ( 'NONE',  ( -0.0000000000000000000, -0.0000000000000000000, -1.000000000000000000 ) ) ;
#179 = SURFACE_STYLE_USAGE ( .BOTH. , #97 ) ;
#180 =( CONVERSION_BASED_UNIT ( 'INCH', #135 ) LENGTH_UNIT ( ) NAMED_UNIT ( #171 ) );
#181 = VECTOR ( 'NONE', #160, 39.37007874015748143 ) ;
#182 = LINE ( 'NONE', #232, #181 ) ;
#183 = ORIENTED_EDGE ( 'NONE', *, *, #210, .T. ) ;
#184 = AXIS2_PLACEMENT_3D ( 'NONE', #33, #107, #190 ) ;
#185 = EDGE_LOOP ( 'NONE', ( #7, #202, #34, #84 ) ) ;
#186 = ADVANCED_FACE ( 'NONE', ( #196 ), #230, .T. ) ;
#187 = FACE_OUTER_BOUND ( 'NONE', #53, .T. ) ;
#188 = DIMENSIONAL_EXPONENTS ( 1.000000000000000000, 0.0000000000000000000, 0.0000000000000000000, 0.0000000000000000000, 0.0000000000000000000, 0.0000000000000000000, 0.0000000000000000000 ) ;
#189 = EDGE_LOOP ( 'NONE', ( #198, #48 ) ) ;
#190 = DIRECTION ( 'NONE',  ( 1.000000000000000000, 0.0000000000000000000, -0.0000000000000000000 ) ) ;
#191 = APPLICATION_CONTEXT ( 'automotive_design' ) ;
#192 = LENGTH_MEASURE_WITH_UNIT ( LENGTH_MEASURE( 0.02539999999999999897 ), #128 );
#193 = CARTESIAN_POINT ( 'NONE',  ( 0.0000000000000000000, 0.0000000000000000000, 2.000000000000000000 ) ) ;
#194 = AXIS2_PLACEMENT_3D ( 'NONE', #222, #18, #55 ) ;
#195 =( CONVERSION_BASED_UNIT ( 'INCH', #212 ) LENGTH_UNIT ( ) NAMED_UNIT ( #188 ) );
#196 = FACE_OUTER_BOUND ( 'NONE', #146, .T. ) ;
#197 = VECTOR ( 'NONE', #150, 39.37007874015748143 ) ;
#198 = ORIENTED_EDGE ( 'NONE', *, *, #157, .T. ) ;
#199 = FACE_OUTER_BOUND ( 'NONE', #50, .T. ) ;
#200 = EDGE_CURVE ( 'NONE', #218, #203, #54, .T. ) ;
#201 = CARTESIAN_POINT ( 'NONE',  ( 0.003999999999999999216, 0.0000000000000000000, 0.0000000000000000000 ) ) ;
#202 = ORIENTED_EDGE ( 'NONE', *, *, #49, .F. ) ;
#203 = VERTEX_POINT ( 'NONE', #44 ) ;
#204 = CIRCLE ( 'NONE', #223, 0.003999999999999999216 ) ;
#205 = CARTESIAN_POINT ( 'NONE',  ( 0.0000000000000000000, 0.0000000000000000000, 2.000000000000000000 ) ) ;
#206 = LINE ( 'NONE', #78, #111 ) ;
#207 = VECTOR ( 'NONE', #15, 39.37007874015748143 ) ;
#208 = STYLED_ITEM ( 'NONE', ( #228 ), #155 ) ;
#209 = FACE_OUTER_BOUND ( 'NONE', #66, .T. ) ;
#210 = EDGE_CURVE ( 'NONE', #73, #27, #83, .T. ) ;
#211 = CARTESIAN_POINT ( 'NONE',  ( 0.0000000000000000000, 0.0000000000000000000, 2.000000000000000000 ) ) ;
#212 = LENGTH_MEASURE_WITH_UNIT ( LENGTH_MEASURE( 0.02539999999999999897 ), #158 );
#213 = PRODUCT ( 'Micro_RSC-187-1X', 'Micro_RSC-187-1X', '', ( #241 ) ) ;
#214 = FILL_AREA_STYLE_COLOUR ( '', #172 ) ;
#215 = DIRECTION ( 'NONE',  ( -1.000000000000000000, 0.0000000000000000000, 0.0000000000000000000 ) ) ;
#216 =( GEOMETRIC_REPRESENTATION_CONTEXT ( 3 ) GLOBAL_UNCERTAINTY_ASSIGNED_CONTEXT ( ( #71 ) ) GLOBAL_UNIT_ASSIGNED_CONTEXT ( ( #180, #43, #154 ) ) REPRESENTATION_CONTEXT ( 'NONE', 'WORKASPACE' ) );
#217 = ORIENTED_EDGE ( 'NONE', *, *, #151, .F. ) ;
#218 = VERTEX_POINT ( 'NONE', #64 ) ;
#219 = FACE_OUTER_BOUND ( 'NONE', #189, .T. ) ;
#220 =( NAMED_UNIT ( * ) SI_UNIT ( $, .STERADIAN. ) SOLID_ANGLE_UNIT ( ) );
#221 = ORIENTED_EDGE ( 'NONE', *, *, #79, .T. ) ;
#222 = CARTESIAN_POINT ( 'NONE',  ( 0.0000000000000000000, 0.0000000000000000000, 1.984999999999999654 ) ) ;
#223 = AXIS2_PLACEMENT_3D ( 'NONE', #26, #178, #114 ) ;
#224 = CARTESIAN_POINT ( 'NONE',  ( 0.0000000000000000000, 0.0000000000000000000, 0.0000000000000000000 ) ) ;
#225 = CARTESIAN_POINT ( 'NONE',  ( -0.003999999999999999216, 4.898587196589411612E-19, 0.0000000000000000000 ) ) ;
#226 = CIRCLE ( 'NONE', #47, 0.09375000000000001388 ) ;
#227 = AXIS2_PLACEMENT_3D ( 'NONE', #88, #102, #166 ) ;
#228 = PRESENTATION_STYLE_ASSIGNMENT (( #147 ) ) ;
#229 = EDGE_CURVE ( 'NONE', #124, #164, #204, .T. ) ;
#230 = CYLINDRICAL_SURFACE ( 'NONE', #100, 0.09375000000000001388 ) ;
#231 = FILL_AREA_STYLE ('',( #214 ) ) ;
#232 = CARTESIAN_POINT ( 'NONE',  ( 0.09375000000000001388, 1.148106374200643863E-17, 2.000000000000000000 ) ) ;
#233 = DIRECTION ( 'NONE',  ( -0.0000000000000000000, -0.0000000000000000000, -1.000000000000000000 ) ) ;
#234 = ADVANCED_BREP_SHAPE_REPRESENTATION ( 'Micro_RSC-187-1X', ( #155, #227 ), #216 ) ;
#235 = COLOUR_RGB ( '',0.7921568627450980005, 0.8196078431372548767, 0.9333333333333333481 ) ;
#236 = ORIENTED_EDGE ( 'NONE', *, *, #148, .F. ) ;
#237 = VERTEX_POINT ( 'NONE', #118 ) ;
#238 = DIRECTION ( 'NONE',  ( -1.000000000000000000, 0.0000000000000000000, 0.0000000000000000000 ) ) ;
#239 = CONICAL_SURFACE ( 'NONE', #131, 0.07874999999999980627, 0.7853981633974466137 ) ;
#240 = AXIS2_PLACEMENT_3D ( 'NONE', #156, #63, #2 ) ;
#241 = PRODUCT_CONTEXT ( 'NONE', #191, 'mechanical' ) ;
#242 = CYLINDRICAL_SURFACE ( 'NONE', #16, 0.09375000000000001388 ) ;
#243 = ORIENTED_EDGE ( 'NONE', *, *, #200, .F. ) ;
#244 = CARTESIAN_POINT ( 'NONE',  ( -0.003999999999999999216, 5.985461230832687873E-18, 0.0000000000000000000 ) ) ;
#245 = ADVANCED_FACE ( 'NONE', ( #132 ), #81, .F. ) ;
#246 = DIRECTION ( 'NONE',  ( -0.5000000000000012212, 6.123233995736780827E-17, 0.8660254037844377084 ) ) ;
#247 = DIMENSIONAL_EXPONENTS ( 1.000000000000000000, 0.0000000000000000000, 0.0000000000000000000, 0.0000000000000000000, 0.0000000000000000000, 0.0000000000000000000, 0.0000000000000000000 ) ;
#248 = CARTESIAN_POINT ( 'NONE',  ( 0.0000000000000000000, 0.0000000000000000000, 0.0000000000000000000 ) ) ;
#249 = DIRECTION ( 'NONE',  ( 1.000000000000000000, 0.0000000000000000000, 0.0000000000000000000 ) ) ;
ENDSEC;
END-ISO-10303-21;
