ISO-10303-21;
HEADER;
FILE_DESCRIPTION (( 'STEP AP214' ),
    '1' );
FILE_NAME ('03482.STEP',
    '2023-06-22T15:22:19',
    ( '' ),
    ( '' ),
    'SwSTEP 2.0',
    'SolidWorks 2023',
    '' );
FILE_SCHEMA (( 'AUTOMOTIVE_DESIGN' ));
ENDSEC;

DATA;
#1 = DIRECTION ( 'NONE',  ( 0.000000000000000000, 0.000000000000000000, -1.000000000000000000 ) ) ;
#2 = PRESENTATION_LAYER_ASSIGNMENT (  '', '', ( #20 ) ) ;
#3 = FACE_OUTER_BOUND ( 'NONE', #118, .T. ) ;
#4 = APPLICATION_PROTOCOL_DEFINITION ( 'draft international standard', 'automotive_design', 1998, #187 ) ;
#5 = ORIENTED_EDGE ( 'NONE', *, *, #108, .T. ) ;
#6 = VERTEX_POINT ( 'NONE', #8 ) ;
#7 = FACE_OUTER_BOUND ( 'NONE', #114, .T. ) ;
#8 = CARTESIAN_POINT ( 'NONE',  ( 0.000000000000000000, 0.000000000000000000, -0.2500000000000000000 ) ) ;
#9 = PRESENTATION_STYLE_ASSIGNMENT (( #253 ) ) ;
#10 = DIRECTION ( 'NONE',  ( 0.000000000000000000, 0.000000000000000000, -1.000000000000000000 ) ) ;
#11 = FACE_OUTER_BOUND ( 'NONE', #46, .T. ) ;
#12 = PRESENTATION_STYLE_ASSIGNMENT (( #39 ) ) ;
#13 = ADVANCED_FACE ( 'NONE', ( #3 ), #195, .T. ) ;
#14 = CYLINDRICAL_SURFACE ( 'NONE', #25, 0.2500000000000000555 ) ;
#15 = CARTESIAN_POINT ( 'NONE',  ( 3.032960542342103792E-32, 1.625000000000000000, 0.000000000000000000 ) ) ;
#16 = EDGE_CURVE ( 'NONE', #97, #270, #113, .T. ) ;
#17 = DIRECTION ( 'NONE',  ( -1.000000000000000000, 0.000000000000000000, 0.000000000000000000 ) ) ;
#18 = DIRECTION ( 'NONE',  ( 0.000000000000000000, 0.000000000000000000, -1.000000000000000000 ) ) ;
#19 = CARTESIAN_POINT ( 'NONE',  ( -1.224646799147352714E-16, 4.000000000000000000, 0.000000000000000000 ) ) ;
#20 = STYLED_ITEM ( 'NONE', ( #180 ), #29 ) ;
#21 = LINE ( 'NONE', #95, #290 ) ;
#22 = CIRCLE ( 'NONE', #156, 0.2500000000000000000 ) ;
#23 = ADVANCED_FACE ( 'NONE', ( #81 ), #130, .T. ) ;
#24 = DIRECTION ( 'NONE',  ( -0.000000000000000000, -1.000000000000000000, -0.000000000000000000 ) ) ;
#25 = AXIS2_PLACEMENT_3D ( 'NONE', #105, #210, #17 ) ;
#26 = EDGE_LOOP ( 'NONE', ( #48, #273, #143, #152 ) ) ;
#27 = EDGE_CURVE ( 'NONE', #270, #223, #80, .T. ) ;
#28 = FILL_AREA_STYLE_COLOUR ( '', #208 ) ;
#29 = MANIFOLD_SOLID_BREP ( 'Revolve - Tool Body (Straight Shanked)', #242 ) ;
#30 = SURFACE_STYLE_USAGE ( .BOTH. , #66 ) ;
#31 =( NAMED_UNIT ( * ) PLANE_ANGLE_UNIT ( ) SI_UNIT ( $, .RADIAN. ) );
#32 = ORIENTED_EDGE ( 'NONE', *, *, #16, .F. ) ;
#33 =( GEOMETRIC_REPRESENTATION_CONTEXT ( 3 ) GLOBAL_UNCERTAINTY_ASSIGNED_CONTEXT ( ( #104 ) ) GLOBAL_UNIT_ASSIGNED_CONTEXT ( ( #211, #41, #90 ) ) REPRESENTATION_CONTEXT ( 'NONE', 'WORKASPACE' ) );
#34 = DIMENSIONAL_EXPONENTS ( 1.000000000000000000, 0.000000000000000000, 0.000000000000000000, 0.000000000000000000, 0.000000000000000000, 0.000000000000000000, 0.000000000000000000 ) ;
#35 = VERTEX_POINT ( 'NONE', #295 ) ;
#36 = ADVANCED_FACE ( 'NONE', ( #11 ), #173, .T. ) ;
#37 = LINE ( 'NONE', #99, #139 ) ;
#38 = DIRECTION ( 'NONE',  ( -0.000000000000000000, -1.000000000000000000, -0.000000000000000000 ) ) ;
#39 = SURFACE_STYLE_USAGE ( .BOTH. , #109 ) ;
#40 = SURFACE_STYLE_USAGE ( .BOTH. , #126 ) ;
#41 =( NAMED_UNIT ( * ) PLANE_ANGLE_UNIT ( ) SI_UNIT ( $, .RADIAN. ) );
#42 = SURFACE_STYLE_FILL_AREA ( #87 ) ;
#43 = ORIENTED_EDGE ( 'NONE', *, *, #108, .F. ) ;
#44 =( NAMED_UNIT ( * ) PLANE_ANGLE_UNIT ( ) SI_UNIT ( $, .RADIAN. ) );
#45 =( GEOMETRIC_REPRESENTATION_CONTEXT ( 3 ) GLOBAL_UNCERTAINTY_ASSIGNED_CONTEXT ( ( #256 ) ) GLOBAL_UNIT_ASSIGNED_CONTEXT ( ( #280, #31, #171 ) ) REPRESENTATION_CONTEXT ( 'NONE', 'WORKASPACE' ) );
#46 = EDGE_LOOP ( 'NONE', ( #241, #246 ) ) ;
#47 = ORIENTED_EDGE ( 'NONE', *, *, #301, .T. ) ;
#48 = ORIENTED_EDGE ( 'NONE', *, *, #27, .F. ) ;
#49 = AXIS2_PLACEMENT_3D ( 'NONE', #205, #38, #136 ) ;
#50 = LENGTH_MEASURE_WITH_UNIT ( LENGTH_MEASURE( 0.02539999999999999897 ), #222 );
#51 = FILL_AREA_STYLE_COLOUR ( '', #78 ) ;
#52 =( LENGTH_UNIT ( ) NAMED_UNIT ( * ) SI_UNIT ( $, .METRE. ) );
#53 = PRODUCT_DEFINITION ( 'UNKNOWN', '', #56, #240 ) ;
#54 = DIRECTION ( 'NONE',  ( 0.000000000000000000, -0.000000000000000000, 1.000000000000000000 ) ) ;
#55 =( NAMED_UNIT ( * ) PLANE_ANGLE_UNIT ( ) SI_UNIT ( $, .RADIAN. ) );
#56 = PRODUCT_DEFINITION_FORMATION_WITH_SPECIFIED_SOURCE ( 'ANY', '', #194, .NOT_KNOWN. ) ;
#57 = SURFACE_SIDE_STYLE ('',( #228 ) ) ;
#58 = EDGE_CURVE ( 'NONE', #146, #101, #37, .T. ) ;
#59 = CYLINDRICAL_SURFACE ( 'NONE', #191, 0.2500000000000000555 ) ;
#60 = CIRCLE ( 'NONE', #122, 0.2500000000000000000 ) ;
#61 = FACE_OUTER_BOUND ( 'NONE', #221, .T. ) ;
#62 = DIRECTION ( 'NONE',  ( -0.000000000000000000, -1.000000000000000000, -0.000000000000000000 ) ) ;
#63 = LENGTH_MEASURE_WITH_UNIT ( LENGTH_MEASURE( 0.02539999999999999897 ), #265 );
#64 =( NAMED_UNIT ( * ) SI_UNIT ( $, .STERADIAN. ) SOLID_ANGLE_UNIT ( ) );
#65 = CARTESIAN_POINT ( 'NONE',  ( 0.2500000000000000000, 4.000000000000000000, 0.000000000000000000 ) ) ;
#66 = SURFACE_SIDE_STYLE ('',( #116 ) ) ;
#67 = DIMENSIONAL_EXPONENTS ( 1.000000000000000000, 0.000000000000000000, 0.000000000000000000, 0.000000000000000000, 0.000000000000000000, 0.000000000000000000, 0.000000000000000000 ) ;
#68 = AXIS2_PLACEMENT_3D ( 'NONE', #229, #107, #287 ) ;
#69 = CIRCLE ( 'NONE', #297, 0.2500000000000001110 ) ;
#70 = ADVANCED_FACE ( 'NONE', ( #7 ), #73, .T. ) ;
#71 = CARTESIAN_POINT ( 'NONE',  ( 0.000000000000000000, 1.625000000000000000, 0.000000000000000000 ) ) ;
#72 = EDGE_LOOP ( 'NONE', ( #218, #167, #74, #293 ) ) ;
#73 = CYLINDRICAL_SURFACE ( 'NONE', #68, 0.2500000000000000000 ) ;
#74 = ORIENTED_EDGE ( 'NONE', *, *, #98, .F. ) ;
#75 = SURFACE_SIDE_STYLE ('',( #258 ) ) ;
#76 = DIRECTION ( 'NONE',  ( -5.156407575357275916E-17, 1.000000000000000000, -0.000000000000000000 ) ) ;
#77 = CIRCLE ( 'NONE', #49, 0.2500000000000000000 ) ;
#78 = COLOUR_RGB ( '',0.7921568627450980005, 0.8196078431372548767, 0.9333333333333333481 ) ;
#79 =( NAMED_UNIT ( * ) SI_UNIT ( $, .STERADIAN. ) SOLID_ANGLE_UNIT ( ) );
#80 = LINE ( 'NONE', #260, #269 ) ;
#81 = FACE_OUTER_BOUND ( 'NONE', #174, .T. ) ;
#82 =( CONVERSION_BASED_UNIT ( 'INCH', #230 ) LENGTH_UNIT ( ) NAMED_UNIT ( #67 ) );
#83 = CIRCLE ( 'NONE', #200, 0.2500000000000000000 ) ;
#84 = APPLICATION_CONTEXT ( 'automotive_design' ) ;
#85 = ADVANCED_FACE ( 'NONE', ( #160 ), #59, .T. ) ;
#86 = DIRECTION ( 'NONE',  ( -5.156407575357275299E-17, 1.000000000000000000, -0.000000000000000000 ) ) ;
#87 = FILL_AREA_STYLE ('',( #131 ) ) ;
#88 = DIRECTION ( 'NONE',  ( -1.000000000000000000, 0.000000000000000000, 0.000000000000000000 ) ) ;
#89 = MECHANICAL_DESIGN_GEOMETRIC_PRESENTATION_REPRESENTATION (  '', ( #234 ), #202 ) ;
#90 =( NAMED_UNIT ( * ) SI_UNIT ( $, .STERADIAN. ) SOLID_ANGLE_UNIT ( ) );
#91 = ADVANCED_FACE ( 'NONE', ( #261 ), #14, .T. ) ;
#92 =( CONVERSION_BASED_UNIT ( 'INCH', #63 ) LENGTH_UNIT ( ) NAMED_UNIT ( #148 ) );
#93 = PRODUCT_CONTEXT ( 'NONE', #187, 'mechanical' ) ;
#94 = PRESENTATION_LAYER_ASSIGNMENT (  '', '', ( #234 ) ) ;
#95 = CARTESIAN_POINT ( 'NONE',  ( -0.2500000000000002220, 4.000000000000000000, 0.000000000000000000 ) ) ;
#96 = CARTESIAN_POINT ( 'NONE',  ( 0.000000000000000000, 1.625000000000000000, 0.000000000000000000 ) ) ;
#97 = VERTEX_POINT ( 'NONE', #263 ) ;
#98 = EDGE_CURVE ( 'NONE', #35, #223, #175, .T. ) ;
#99 = CARTESIAN_POINT ( 'NONE',  ( 3.061616997868383018E-17, 0.000000000000000000, 0.2500000000000000000 ) ) ;
#100 = PRESENTATION_STYLE_ASSIGNMENT (( #30 ) ) ;
#101 = VERTEX_POINT ( 'NONE', #259 ) ;
#102 = FILL_AREA_STYLE ('',( #120 ) ) ;
#103 = ORIENTED_EDGE ( 'NONE', *, *, #232, .T. ) ;
#104 = UNCERTAINTY_MEASURE_WITH_UNIT (LENGTH_MEASURE( 1.000000000000000082E-05 ), #211, 'distance_accuracy_value', 'NONE');
#105 = CARTESIAN_POINT ( 'NONE',  ( -1.224646799147352714E-16, 4.000000000000000000, 0.000000000000000000 ) ) ;
#106 =( CONVERSION_BASED_UNIT ( 'INCH', #231 ) LENGTH_UNIT ( ) NAMED_UNIT ( #168 ) );
#107 = DIRECTION ( 'NONE',  ( -0.000000000000000000, -1.000000000000000000, -0.000000000000000000 ) ) ;
#108 = EDGE_CURVE ( 'NONE', #101, #6, #77, .T. ) ;
#109 = SURFACE_SIDE_STYLE ('',( #42 ) ) ;
#110 = STYLED_ITEM ( 'NONE', ( #154 ), #23 ) ;
#111 = PLANE ( 'NONE',  #178 ) ;
#112 = DIRECTION ( 'NONE',  ( -5.156407575357275916E-17, 1.000000000000000000, -0.000000000000000000 ) ) ;
#113 = CIRCLE ( 'NONE', #262, 0.2500000000000000000 ) ;
#114 = EDGE_LOOP ( 'NONE', ( #197, #291, #124, #254 ) ) ;
#115 = DIRECTION ( 'NONE',  ( 0.000000000000000000, 0.000000000000000000, -1.000000000000000000 ) ) ;
#116 = SURFACE_STYLE_FILL_AREA ( #292 ) ;
#117 = EDGE_CURVE ( 'NONE', #216, #146, #83, .T. ) ;
#118 = EDGE_LOOP ( 'NONE', ( #103, #5 ) ) ;
#119 = AXIS2_PLACEMENT_3D ( 'NONE', #163, #134, #186 ) ;
#120 = FILL_AREA_STYLE_COLOUR ( '', #226 ) ;
#121 = ORIENTED_EDGE ( 'NONE', *, *, #288, .T. ) ;
#122 = AXIS2_PLACEMENT_3D ( 'NONE', #193, #201, #179 ) ;
#123 = UNCERTAINTY_MEASURE_WITH_UNIT (LENGTH_MEASURE( 1.000000000000000082E-05 ), #272, 'distance_accuracy_value', 'NONE');
#124 = ORIENTED_EDGE ( 'NONE', *, *, #232, .F. ) ;
#125 = FILL_AREA_STYLE ('',( #199 ) ) ;
#126 = SURFACE_SIDE_STYLE ('',( #181 ) ) ;
#127 =( GEOMETRIC_REPRESENTATION_CONTEXT ( 3 ) GLOBAL_UNCERTAINTY_ASSIGNED_CONTEXT ( ( #123 ) ) GLOBAL_UNIT_ASSIGNED_CONTEXT ( ( #272, #151, #79 ) ) REPRESENTATION_CONTEXT ( 'NONE', 'WORKASPACE' ) );
#128 = MANIFOLD_SOLID_BREP ( 'Revolve - Cutting Edge', #183 ) ;
#129 = DIRECTION ( 'NONE',  ( 0.000000000000000000, 1.000000000000000000, 0.000000000000000000 ) ) ;
#130 = CYLINDRICAL_SURFACE ( 'NONE', #133, 0.2500000000000000000 ) ;
#131 = FILL_AREA_STYLE_COLOUR ( '', #304 ) ;
#132 = DIRECTION ( 'NONE',  ( 0.000000000000000000, -1.000000000000000000, -0.000000000000000000 ) ) ;
#133 = AXIS2_PLACEMENT_3D ( 'NONE', #303, #298, #296 ) ;
#134 = DIRECTION ( 'NONE',  ( -5.156407575357275299E-17, 1.000000000000000000, -0.000000000000000000 ) ) ;
#135 = EDGE_CURVE ( 'NONE', #97, #35, #21, .T. ) ;
#136 = DIRECTION ( 'NONE',  ( 0.000000000000000000, 0.000000000000000000, -1.000000000000000000 ) ) ;
#137 = PRODUCT_DEFINITION_SHAPE ( 'NONE', 'NONE',  #53 ) ;
#138 = DIRECTION ( 'NONE',  ( -1.000000000000000000, -5.156407575357275916E-17, 0.000000000000000000 ) ) ;
#139 = VECTOR ( 'NONE', #249, 39.37007874015748143 ) ;
#140 = AXIS2_PLACEMENT_3D ( 'NONE', #268, #144, #245 ) ;
#141 = CARTESIAN_POINT ( 'NONE',  ( 0.2500000000000000555, 4.000000000000000000, 3.061616997868384251E-17 ) ) ;
#142 = DIRECTION ( 'NONE',  ( 1.000000000000000000, 5.156407575357275916E-17, 0.000000000000000000 ) ) ;
#143 = ORIENTED_EDGE ( 'NONE', *, *, #135, .T. ) ;
#144 = DIRECTION ( 'NONE',  ( 0.000000000000000000, 0.000000000000000000, 1.000000000000000000 ) ) ;
#145 =( GEOMETRIC_REPRESENTATION_CONTEXT ( 3 ) GLOBAL_UNCERTAINTY_ASSIGNED_CONTEXT ( ( #204 ) ) GLOBAL_UNIT_ASSIGNED_CONTEXT ( ( #158, #55, #225 ) ) REPRESENTATION_CONTEXT ( 'NONE', 'WORKASPACE' ) );
#146 = VERTEX_POINT ( 'NONE', #309 ) ;
#147 = EDGE_CURVE ( 'NONE', #270, #97, #60, .T. ) ;
#148 = DIMENSIONAL_EXPONENTS ( 1.000000000000000000, 0.000000000000000000, 0.000000000000000000, 0.000000000000000000, 0.000000000000000000, 0.000000000000000000, 0.000000000000000000 ) ;
#149 = ORIENTED_EDGE ( 'NONE', *, *, #147, .F. ) ;
#150 = COLOUR_RGB ( '',1.000000000000000000, 0.000000000000000000, 0.000000000000000000 ) ;
#151 =( NAMED_UNIT ( * ) PLANE_ANGLE_UNIT ( ) SI_UNIT ( $, .RADIAN. ) );
#152 = ORIENTED_EDGE ( 'NONE', *, *, #301, .F. ) ;
#153 = AXIS2_PLACEMENT_3D ( 'NONE', #96, #24, #1 ) ;
#154 = PRESENTATION_STYLE_ASSIGNMENT (( #40 ) ) ;
#155 = STYLED_ITEM ( 'NONE', ( #9 ), #70 ) ;
#156 = AXIS2_PLACEMENT_3D ( 'NONE', #190, #236, #115 ) ;
#157 = DIRECTION ( 'NONE',  ( -5.156407575357275299E-17, 1.000000000000000000, -0.000000000000000000 ) ) ;
#158 =( CONVERSION_BASED_UNIT ( 'INCH', #284 ) LENGTH_UNIT ( ) NAMED_UNIT ( #34 ) );
#159 = FILL_AREA_STYLE_COLOUR ( '', #150 ) ;
#160 = FACE_OUTER_BOUND ( 'NONE', #26, .T. ) ;
#161 = COLOUR_RGB ( '',1.000000000000000000, 0.000000000000000000, 0.000000000000000000 ) ;
#162 = CIRCLE ( 'NONE', #153, 0.2500000000000000000 ) ;
#163 = CARTESIAN_POINT ( 'NONE',  ( -1.224646799147352714E-16, 4.000000000000000000, 0.000000000000000000 ) ) ;
#164 =( GEOMETRIC_REPRESENTATION_CONTEXT ( 3 ) GLOBAL_UNCERTAINTY_ASSIGNED_CONTEXT ( ( #252 ) ) GLOBAL_UNIT_ASSIGNED_CONTEXT ( ( #82, #306, #233 ) ) REPRESENTATION_CONTEXT ( 'NONE', 'WORKASPACE' ) );
#165 = DIRECTION ( 'NONE',  ( 5.156407575357275916E-17, -1.000000000000000000, 0.000000000000000000 ) ) ;
#166 = UNCERTAINTY_MEASURE_WITH_UNIT (LENGTH_MEASURE( 1.000000000000000082E-05 ), #106, 'distance_accuracy_value', 'NONE');
#167 = ORIENTED_EDGE ( 'NONE', *, *, #27, .T. ) ;
#168 = DIMENSIONAL_EXPONENTS ( 1.000000000000000000, 0.000000000000000000, 0.000000000000000000, 0.000000000000000000, 0.000000000000000000, 0.000000000000000000, 0.000000000000000000 ) ;
#169 = DIRECTION ( 'NONE',  ( -5.156407575357275916E-17, 1.000000000000000000, 0.000000000000000000 ) ) ;
#170 = PRESENTATION_LAYER_ASSIGNMENT (  '', '', ( #155 ) ) ;
#171 =( NAMED_UNIT ( * ) SI_UNIT ( $, .STERADIAN. ) SOLID_ANGLE_UNIT ( ) );
#172 = ORIENTED_EDGE ( 'NONE', *, *, #58, .F. ) ;
#173 = PLANE ( 'NONE',  #308 ) ;
#174 = EDGE_LOOP ( 'NONE', ( #172, #121, #275, #43 ) ) ;
#175 = CIRCLE ( 'NONE', #119, 0.2500000000000001110 ) ;
#176 = PRESENTATION_STYLE_ASSIGNMENT (( #299 ) ) ;
#177 = SURFACE_STYLE_USAGE ( .BOTH. , #57 ) ;
#178 = AXIS2_PLACEMENT_3D ( 'NONE', #65, #165, #142 ) ;
#179 = DIRECTION ( 'NONE',  ( -1.000000000000000000, 0.000000000000000000, 0.000000000000000000 ) ) ;
#180 = PRESENTATION_STYLE_ASSIGNMENT (( #177 ) ) ;
#181 = SURFACE_STYLE_FILL_AREA ( #206 ) ;
#182 = PRODUCT_RELATED_PRODUCT_CATEGORY ( 'part', '', ( #194 ) ) ;
#183 = CLOSED_SHELL ( 'NONE', ( #70, #36, #23, #13 ) ) ;
#184 = PRESENTATION_LAYER_ASSIGNMENT (  '', '', ( #212 ) ) ;
#185 = ADVANCED_BREP_SHAPE_REPRESENTATION ( '03482', ( #128, #29, #140 ), #305 ) ;
#186 = DIRECTION ( 'NONE',  ( -1.000000000000000000, 0.000000000000000000, 0.000000000000000000 ) ) ;
#187 = APPLICATION_CONTEXT ( 'automotive_design' ) ;
#188 = APPLICATION_PROTOCOL_DEFINITION ( 'draft international standard', 'automotive_design', 1998, #84 ) ;
#189 = EDGE_CURVE ( 'NONE', #216, #6, #203, .T. ) ;
#190 = CARTESIAN_POINT ( 'NONE',  ( 0.000000000000000000, 0.000000000000000000, 0.000000000000000000 ) ) ;
#191 = AXIS2_PLACEMENT_3D ( 'NONE', #235, #157, #88 ) ;
#192 = DIRECTION ( 'NONE',  ( -1.000000000000000000, 0.000000000000000000, 0.000000000000000000 ) ) ;
#193 = CARTESIAN_POINT ( 'NONE',  ( 3.032960542342103792E-32, 1.625000000000000000, 0.000000000000000000 ) ) ;
#194 = PRODUCT ( '03482', '03482', '', ( #93 ) ) ;
#195 = PLANE ( 'NONE',  #238 ) ;
#196 = DIMENSIONAL_EXPONENTS ( 1.000000000000000000, 0.000000000000000000, 0.000000000000000000, 0.000000000000000000, 0.000000000000000000, 0.000000000000000000, 0.000000000000000000 ) ;
#197 = ORIENTED_EDGE ( 'NONE', *, *, #117, .T. ) ;
#198 = MECHANICAL_DESIGN_GEOMETRIC_PRESENTATION_REPRESENTATION (  '', ( #155 ), #33 ) ;
#199 = FILL_AREA_STYLE_COLOUR ( '', #161 ) ;
#200 = AXIS2_PLACEMENT_3D ( 'NONE', #209, #62, #18 ) ;
#201 = DIRECTION ( 'NONE',  ( -5.156407575357275299E-17, 1.000000000000000000, -0.000000000000000000 ) ) ;
#202 =( GEOMETRIC_REPRESENTATION_CONTEXT ( 3 ) GLOBAL_UNCERTAINTY_ASSIGNED_CONTEXT ( ( #166 ) ) GLOBAL_UNIT_ASSIGNED_CONTEXT ( ( #106, #307, #283 ) ) REPRESENTATION_CONTEXT ( 'NONE', 'WORKASPACE' ) );
#203 = LINE ( 'NONE', #271, #276 ) ;
#204 = UNCERTAINTY_MEASURE_WITH_UNIT (LENGTH_MEASURE( 1.000000000000000082E-05 ), #158, 'distance_accuracy_value', 'NONE');
#205 = CARTESIAN_POINT ( 'NONE',  ( 0.000000000000000000, 0.000000000000000000, 0.000000000000000000 ) ) ;
#206 = FILL_AREA_STYLE ('',( #159 ) ) ;
#207 =( LENGTH_UNIT ( ) NAMED_UNIT ( * ) SI_UNIT ( $, .METRE. ) );
#208 = COLOUR_RGB ( '',1.000000000000000000, 0.000000000000000000, 0.000000000000000000 ) ;
#209 = CARTESIAN_POINT ( 'NONE',  ( 0.000000000000000000, 1.625000000000000000, 0.000000000000000000 ) ) ;
#210 = DIRECTION ( 'NONE',  ( -5.156407575357275299E-17, 1.000000000000000000, -0.000000000000000000 ) ) ;
#211 =( CONVERSION_BASED_UNIT ( 'INCH', #50 ) LENGTH_UNIT ( ) NAMED_UNIT ( #243 ) );
#212 = STYLED_ITEM ( 'NONE', ( #176 ), #36 ) ;
#213 = CARTESIAN_POINT ( 'NONE',  ( 3.323567385400236968E-34, 1.625000000000000000, 0.000000000000000000 ) ) ;
#214 = FACE_OUTER_BOUND ( 'NONE', #248, .T. ) ;
#215 = MECHANICAL_DESIGN_GEOMETRIC_PRESENTATION_REPRESENTATION (  '', ( #110 ), #164 ) ;
#216 = VERTEX_POINT ( 'NONE', #239 ) ;
#217 = PLANE ( 'NONE',  #244 ) ;
#218 = ORIENTED_EDGE ( 'NONE', *, *, #16, .T. ) ;
#219 = MECHANICAL_DESIGN_GEOMETRIC_PRESENTATION_REPRESENTATION (  '', ( #251 ), #145 ) ;
#220 = DIMENSIONAL_EXPONENTS ( 1.000000000000000000, 0.000000000000000000, 0.000000000000000000, 0.000000000000000000, 0.000000000000000000, 0.000000000000000000, 0.000000000000000000 ) ;
#221 = EDGE_LOOP ( 'NONE', ( #32, #149 ) ) ;
#222 =( LENGTH_UNIT ( ) NAMED_UNIT ( * ) SI_UNIT ( $, .METRE. ) );
#223 = VERTEX_POINT ( 'NONE', #141 ) ;
#224 = SURFACE_SIDE_STYLE ('',( #274 ) ) ;
#225 =( NAMED_UNIT ( * ) SI_UNIT ( $, .STERADIAN. ) SOLID_ANGLE_UNIT ( ) );
#226 = COLOUR_RGB ( '',1.000000000000000000, 0.000000000000000000, 0.000000000000000000 ) ;
#227 = ADVANCED_FACE ( 'NONE', ( #214 ), #111, .F. ) ;
#228 = SURFACE_STYLE_FILL_AREA ( #282 ) ;
#229 = CARTESIAN_POINT ( 'NONE',  ( 0.000000000000000000, 0.000000000000000000, 0.000000000000000000 ) ) ;
#230 = LENGTH_MEASURE_WITH_UNIT ( LENGTH_MEASURE( 0.02539999999999999897 ), #207 );
#231 = LENGTH_MEASURE_WITH_UNIT ( LENGTH_MEASURE( 0.02539999999999999897 ), #302 );
#232 = EDGE_CURVE ( 'NONE', #6, #101, #22, .T. ) ;
#233 =( NAMED_UNIT ( * ) SI_UNIT ( $, .STERADIAN. ) SOLID_ANGLE_UNIT ( ) );
#234 = STYLED_ITEM ( 'NONE', ( #12 ), #128 ) ;
#235 = CARTESIAN_POINT ( 'NONE',  ( -1.224646799147352714E-16, 4.000000000000000000, 0.000000000000000000 ) ) ;
#236 = DIRECTION ( 'NONE',  ( -0.000000000000000000, -1.000000000000000000, -0.000000000000000000 ) ) ;
#237 = ADVANCED_FACE ( 'NONE', ( #61 ), #217, .F. ) ;
#238 = AXIS2_PLACEMENT_3D ( 'NONE', #279, #132, #10 ) ;
#239 = CARTESIAN_POINT ( 'NONE',  ( 0.000000000000000000, 1.625000000000000000, -0.2500000000000000000 ) ) ;
#240 = PRODUCT_DEFINITION_CONTEXT ( 'detailed design', #84, 'design' ) ;
#241 = ORIENTED_EDGE ( 'NONE', *, *, #117, .F. ) ;
#242 = CLOSED_SHELL ( 'NONE', ( #91, #237, #85, #227 ) ) ;
#243 = DIMENSIONAL_EXPONENTS ( 1.000000000000000000, 0.000000000000000000, 0.000000000000000000, 0.000000000000000000, 0.000000000000000000, 0.000000000000000000, 0.000000000000000000 ) ;
#244 = AXIS2_PLACEMENT_3D ( 'NONE', #213, #169, #138 ) ;
#245 = DIRECTION ( 'NONE',  ( 1.000000000000000000, 0.000000000000000000, 0.000000000000000000 ) ) ;
#246 = ORIENTED_EDGE ( 'NONE', *, *, #288, .F. ) ;
#247 = LENGTH_MEASURE_WITH_UNIT ( LENGTH_MEASURE( 0.02539999999999999897 ), #257 );
#248 = EDGE_LOOP ( 'NONE', ( #250, #47 ) ) ;
#249 = DIRECTION ( 'NONE',  ( -0.000000000000000000, -1.000000000000000000, -0.000000000000000000 ) ) ;
#250 = ORIENTED_EDGE ( 'NONE', *, *, #98, .T. ) ;
#251 = STYLED_ITEM ( 'NONE', ( #100 ), #13 ) ;
#252 = UNCERTAINTY_MEASURE_WITH_UNIT (LENGTH_MEASURE( 1.000000000000000082E-05 ), #82, 'distance_accuracy_value', 'NONE');
#253 = SURFACE_STYLE_USAGE ( .BOTH. , #224 ) ;
#254 = ORIENTED_EDGE ( 'NONE', *, *, #189, .F. ) ;
#255 = LENGTH_MEASURE_WITH_UNIT ( LENGTH_MEASURE( 0.02539999999999999897 ), #52 );
#256 = UNCERTAINTY_MEASURE_WITH_UNIT (LENGTH_MEASURE( 1.000000000000000082E-05 ), #280, 'distance_accuracy_value', 'NONE');
#257 =( LENGTH_UNIT ( ) NAMED_UNIT ( * ) SI_UNIT ( $, .METRE. ) );
#258 = SURFACE_STYLE_FILL_AREA ( #102 ) ;
#259 = CARTESIAN_POINT ( 'NONE',  ( 3.061616997868383018E-17, 0.000000000000000000, 0.2500000000000000000 ) ) ;
#260 = CARTESIAN_POINT ( 'NONE',  ( 0.2499999999999999167, 4.000000000000000000, 3.061616997868383634E-17 ) ) ;
#261 = FACE_OUTER_BOUND ( 'NONE', #72, .T. ) ;
#262 = AXIS2_PLACEMENT_3D ( 'NONE', #15, #86, #278 ) ;
#263 = CARTESIAN_POINT ( 'NONE',  ( -0.2500000000000000000, 1.625000000000000000, 0.000000000000000000 ) ) ;
#264 = CARTESIAN_POINT ( 'NONE',  ( 0.2500000000000000555, 1.625000000000000000, 3.061616997868384251E-17 ) ) ;
#265 =( LENGTH_UNIT ( ) NAMED_UNIT ( * ) SI_UNIT ( $, .METRE. ) );
#266 = DIRECTION ( 'NONE',  ( -0.000000000000000000, -1.000000000000000000, -0.000000000000000000 ) ) ;
#267 = DIRECTION ( 'NONE',  ( -5.156407575357275299E-17, 1.000000000000000000, -0.000000000000000000 ) ) ;
#268 = CARTESIAN_POINT ( 'NONE',  ( 0.000000000000000000, 0.000000000000000000, 0.000000000000000000 ) ) ;
#269 = VECTOR ( 'NONE', #76, 39.37007874015748143 ) ;
#270 = VERTEX_POINT ( 'NONE', #264 ) ;
#271 = CARTESIAN_POINT ( 'NONE',  ( 0.000000000000000000, 0.000000000000000000, -0.2500000000000000000 ) ) ;
#272 =( CONVERSION_BASED_UNIT ( 'INCH', #255 ) LENGTH_UNIT ( ) NAMED_UNIT ( #220 ) );
#273 = ORIENTED_EDGE ( 'NONE', *, *, #147, .T. ) ;
#274 = SURFACE_STYLE_FILL_AREA ( #125 ) ;
#275 = ORIENTED_EDGE ( 'NONE', *, *, #189, .T. ) ;
#276 = VECTOR ( 'NONE', #266, 39.37007874015748143 ) ;
#277 = UNCERTAINTY_MEASURE_WITH_UNIT (LENGTH_MEASURE( 1.000000000000000082E-05 ), #92, 'distance_accuracy_value', 'NONE');
#278 = DIRECTION ( 'NONE',  ( -1.000000000000000000, 0.000000000000000000, 0.000000000000000000 ) ) ;
#279 = CARTESIAN_POINT ( 'NONE',  ( 0.000000000000000000, 0.000000000000000000, 0.000000000000000000 ) ) ;
#280 =( CONVERSION_BASED_UNIT ( 'INCH', #247 ) LENGTH_UNIT ( ) NAMED_UNIT ( #196 ) );
#281 = PRESENTATION_LAYER_ASSIGNMENT (  '', '', ( #251 ) ) ;
#282 = FILL_AREA_STYLE ('',( #51 ) ) ;
#283 =( NAMED_UNIT ( * ) SI_UNIT ( $, .STERADIAN. ) SOLID_ANGLE_UNIT ( ) );
#284 = LENGTH_MEASURE_WITH_UNIT ( LENGTH_MEASURE( 0.02539999999999999897 ), #300 );
#285 = MECHANICAL_DESIGN_GEOMETRIC_PRESENTATION_REPRESENTATION (  '', ( #20 ), #45 ) ;
#286 = SHAPE_DEFINITION_REPRESENTATION ( #137, #185 ) ;
#287 = DIRECTION ( 'NONE',  ( 0.000000000000000000, 0.000000000000000000, -1.000000000000000000 ) ) ;
#288 = EDGE_CURVE ( 'NONE', #146, #216, #162, .T. ) ;
#289 = MECHANICAL_DESIGN_GEOMETRIC_PRESENTATION_REPRESENTATION (  '', ( #212 ), #127 ) ;
#290 = VECTOR ( 'NONE', #112, 39.37007874015748143 ) ;
#291 = ORIENTED_EDGE ( 'NONE', *, *, #58, .T. ) ;
#292 = FILL_AREA_STYLE ('',( #28 ) ) ;
#293 = ORIENTED_EDGE ( 'NONE', *, *, #135, .F. ) ;
#294 = PRESENTATION_LAYER_ASSIGNMENT (  '', '', ( #110 ) ) ;
#295 = CARTESIAN_POINT ( 'NONE',  ( -0.2500000000000002776, 4.000000000000000000, 0.000000000000000000 ) ) ;
#296 = DIRECTION ( 'NONE',  ( 0.000000000000000000, 0.000000000000000000, -1.000000000000000000 ) ) ;
#297 = AXIS2_PLACEMENT_3D ( 'NONE', #19, #267, #192 ) ;
#298 = DIRECTION ( 'NONE',  ( -0.000000000000000000, -1.000000000000000000, -0.000000000000000000 ) ) ;
#299 = SURFACE_STYLE_USAGE ( .BOTH. , #75 ) ;
#300 =( LENGTH_UNIT ( ) NAMED_UNIT ( * ) SI_UNIT ( $, .METRE. ) );
#301 = EDGE_CURVE ( 'NONE', #223, #35, #69, .T. ) ;
#302 =( LENGTH_UNIT ( ) NAMED_UNIT ( * ) SI_UNIT ( $, .METRE. ) );
#303 = CARTESIAN_POINT ( 'NONE',  ( 0.000000000000000000, 0.000000000000000000, 0.000000000000000000 ) ) ;
#304 = COLOUR_RGB ( '',0.7921568627450980005, 0.8196078431372548767, 0.9333333333333333481 ) ;
#305 =( GEOMETRIC_REPRESENTATION_CONTEXT ( 3 ) GLOBAL_UNCERTAINTY_ASSIGNED_CONTEXT ( ( #277 ) ) GLOBAL_UNIT_ASSIGNED_CONTEXT ( ( #92, #44, #64 ) ) REPRESENTATION_CONTEXT ( 'NONE', 'WORKASPACE' ) );
#306 =( NAMED_UNIT ( * ) PLANE_ANGLE_UNIT ( ) SI_UNIT ( $, .RADIAN. ) );
#307 =( NAMED_UNIT ( * ) PLANE_ANGLE_UNIT ( ) SI_UNIT ( $, .RADIAN. ) );
#308 = AXIS2_PLACEMENT_3D ( 'NONE', #71, #129, #54 ) ;
#309 = CARTESIAN_POINT ( 'NONE',  ( 3.061616997868383018E-17, 1.625000000000000000, 0.2500000000000000000 ) ) ;
ENDSEC;
END-ISO-10303-21;
