ISO-10303-21;
HEADER;
FILE_DESCRIPTION (( 'STEP AP214' ),
    '1' );
FILE_NAME ('Micro_GEMM-040-2.STEP',
    '2021-09-01T21:31:06',
    ( '' ),
    ( '' ),
    'SwSTEP 2.0',
    'SolidWorks 2020',
    '' );
FILE_SCHEMA (( 'AUTOMOTIVE_DESIGN' ));
ENDSEC;

DATA;
#1 = UNCERTAINTY_MEASURE_WITH_UNIT (LENGTH_MEASURE( 1.000000000000000082E-05 ), #176, 'distance_accuracy_value', 'NONE');
#2 = ADVANCED_FACE ( 'NONE', ( #118 ), #47, .T. ) ;
#3 = DIRECTION ( 'NONE',  ( 1.000000000000000000, 0.0000000000000000000, 0.0000000000000000000 ) ) ;
#4 = DIRECTION ( 'NONE',  ( -1.224646799147353207E-16, -0.0000000000000000000, -1.000000000000000000 ) ) ;
#5 = VECTOR ( 'NONE', #280, 39.37007874015748143 ) ;
#6 = PRODUCT_RELATED_PRODUCT_CATEGORY ( 'part', '', ( #103 ) ) ;
#7 = LINE ( 'NONE', #100, #63 ) ;
#8 = ORIENTED_EDGE ( 'NONE', *, *, #198, .F. ) ;
#9 = DIRECTION ( 'NONE',  ( 0.0000000000000000000, 0.0000000000000000000, 1.000000000000000000 ) ) ;
#10 = CARTESIAN_POINT ( 'NONE',  ( -0.06374000000000018540, 0.0000000000000000000, 1.968503999999999809 ) ) ;
#11 = EDGE_LOOP ( 'NONE', ( #66, #285, #69, #52 ) ) ;
#12 = COLOUR_RGB ( '',0.7921568627450980005, 0.8196078431372548767, 0.9333333333333333481 ) ;
#13 = ORIENTED_EDGE ( 'NONE', *, *, #233, .F. ) ;
#14 =( CONVERSION_BASED_UNIT ( 'INCH', #202 ) LENGTH_UNIT ( ) NAMED_UNIT ( #250 ) );
#15 = CARTESIAN_POINT ( 'NONE',  ( 0.0000000000000000000, 0.0000000000000000000, 1.968503999999999809 ) ) ;
#16 = CONICAL_SURFACE ( 'NONE', #267, 0.07866125999999999674, 0.1745329251994338637 ) ;
#17 = FILL_AREA_STYLE_COLOUR ( '', #200 ) ;
#18 = LINE ( 'NONE', #172, #279 ) ;
#19 = FILL_AREA_STYLE ('',( #149 ) ) ;
#20 = AXIS2_PLACEMENT_3D ( 'NONE', #264, #140, #3 ) ;
#21 = ORIENTED_EDGE ( 'NONE', *, *, #192, .F. ) ;
#22 = EDGE_CURVE ( 'NONE', #23, #115, #185, .T. ) ;
#23 = VERTEX_POINT ( 'NONE', #10 ) ;
#24 = ORIENTED_EDGE ( 'NONE', *, *, #214, .T. ) ;
#25 = CIRCLE ( 'NONE', #131, 0.07874000000000000443 ) ;
#26 = FACE_OUTER_BOUND ( 'NONE', #230, .T. ) ;
#27 = EDGE_LOOP ( 'NONE', ( #168, #35 ) ) ;
#28 = CARTESIAN_POINT ( 'NONE',  ( 3.857159805062494824E-17, 0.0000000000000000000, 0.3149609999999999910 ) ) ;
#29 = VERTEX_POINT ( 'NONE', #187 ) ;
#30 = AXIS2_PLACEMENT_3D ( 'NONE', #130, #150, #204 ) ;
#31 = DIRECTION ( 'NONE',  ( -1.224646799147353207E-16, -0.0000000000000000000, -1.000000000000000000 ) ) ;
#32 = CARTESIAN_POINT ( 'NONE',  ( -0.07874000000000000443, 0.0000000000000000000, 1.953504000000000129 ) ) ;
#33 = ORIENTED_EDGE ( 'NONE', *, *, #143, .T. ) ;
#34 = CARTESIAN_POINT ( 'NONE',  ( 0.07866126000000001062, 9.633226027589773945E-18, 0.0000000000000000000 ) ) ;
#35 = ORIENTED_EDGE ( 'NONE', *, *, #289, .T. ) ;
#36 = CYLINDRICAL_SURFACE ( 'NONE', #253, 0.07866126000000001062 ) ;
#37 = FACE_OUTER_BOUND ( 'NONE', #184, .T. ) ;
#38 = AXIS2_PLACEMENT_3D ( 'NONE', #61, #196, #78 ) ;
#39 = EDGE_CURVE ( 'NONE', #213, #29, #41, .T. ) ;
#40 = CARTESIAN_POINT ( 'NONE',  ( 0.0000000000000000000, 0.0000000000000000000, 0.0000000000000000000 ) ) ;
#41 = CIRCLE ( 'NONE', #134, 0.07874000000000000443 ) ;
#42 = CLOSED_SHELL ( 'NONE', ( #2, #222, #151, #84, #79, #263, #181, #125, #111, #67 ) ) ;
#43 = ORIENTED_EDGE ( 'NONE', *, *, #251, .F. ) ;
#44 = EDGE_CURVE ( 'NONE', #210, #236, #249, .T. ) ;
#45 = ORIENTED_EDGE ( 'NONE', *, *, #171, .F. ) ;
#46 = EDGE_LOOP ( 'NONE', ( #281, #71, #96, #21 ) ) ;
#47 = CYLINDRICAL_SURFACE ( 'NONE', #68, 0.07866126000000001062 ) ;
#48 = MECHANICAL_DESIGN_GEOMETRIC_PRESENTATION_REPRESENTATION (  '', ( #106 ), #294 ) ;
#49 = EDGE_CURVE ( 'NONE', #236, #210, #110, .T. ) ;
#50 =( GEOMETRIC_REPRESENTATION_CONTEXT ( 3 ) GLOBAL_UNCERTAINTY_ASSIGNED_CONTEXT ( ( #1 ) ) GLOBAL_UNIT_ASSIGNED_CONTEXT ( ( #176, #173, #220 ) ) REPRESENTATION_CONTEXT ( 'NONE', 'WORKASPACE' ) );
#51 = DIRECTION ( 'NONE',  ( -1.224646799147353207E-16, -0.0000000000000000000, -1.000000000000000000 ) ) ;
#52 = ORIENTED_EDGE ( 'NONE', *, *, #65, .F. ) ;
#53 = LINE ( 'NONE', #162, #201 ) ;
#54 = VERTEX_POINT ( 'NONE', #191 ) ;
#55 = SURFACE_SIDE_STYLE ('',( #293 ) ) ;
#56 = VECTOR ( 'NONE', #129, 39.37007874015748143 ) ;
#57 = AXIS2_PLACEMENT_3D ( 'NONE', #108, #85, #177 ) ;
#58 = CARTESIAN_POINT ( 'NONE',  ( 0.0000000000000000000, 0.0000000000000000000, 0.0000000000000000000 ) ) ;
#59 = FACE_OUTER_BOUND ( 'NONE', #120, .T. ) ;
#60 = DIRECTION ( 'NONE',  ( 1.000000000000000000, 0.0000000000000000000, 0.0000000000000000000 ) ) ;
#61 = CARTESIAN_POINT ( 'NONE',  ( 0.0000000000000000000, 0.0000000000000000000, 1.953504000000000129 ) ) ;
#62 = CARTESIAN_POINT ( 'NONE',  ( -0.07866125999999995511, 9.633226027589770864E-18, 0.3149609999999999910 ) ) ;
#63 = VECTOR ( 'NONE', #117, 39.37007874015748143 ) ;
#64 =( NAMED_UNIT ( * ) SI_UNIT ( $, .STERADIAN. ) SOLID_ANGLE_UNIT ( ) );
#65 = EDGE_CURVE ( 'NONE', #208, #213, #241, .T. ) ;
#66 = ORIENTED_EDGE ( 'NONE', *, *, #157, .T. ) ;
#67 = ADVANCED_FACE ( 'NONE', ( #156 ), #105, .F. ) ;
#68 = AXIS2_PLACEMENT_3D ( 'NONE', #94, #4, #167 ) ;
#69 = ORIENTED_EDGE ( 'NONE', *, *, #39, .F. ) ;
#70 = DIRECTION ( 'NONE',  ( 0.0000000000000000000, 0.0000000000000000000, -1.000000000000000000 ) ) ;
#71 = ORIENTED_EDGE ( 'NONE', *, *, #171, .T. ) ;
#72 = DIRECTION ( 'NONE',  ( 1.000000000000000000, 0.0000000000000000000, 0.0000000000000000000 ) ) ;
#73 = EDGE_CURVE ( 'NONE', #54, #208, #158, .T. ) ;
#74 = ORIENTED_EDGE ( 'NONE', *, *, #289, .F. ) ;
#75 = FACE_OUTER_BOUND ( 'NONE', #112, .T. ) ;
#76 = ORIENTED_EDGE ( 'NONE', *, *, #143, .F. ) ;
#77 = CARTESIAN_POINT ( 'NONE',  ( 3.862628547768655706E-17, 0.0000000000000000000, 0.3154075567304767125 ) ) ;
#78 = DIRECTION ( 'NONE',  ( 1.000000000000000000, 0.0000000000000000000, 0.0000000000000000000 ) ) ;
#79 = ADVANCED_FACE ( 'NONE', ( #59 ), #80, .T. ) ;
#80 = CYLINDRICAL_SURFACE ( 'NONE', #252, 0.07874000000000000443 ) ;
#81 = CIRCLE ( 'NONE', #93, 0.06374000000000018540 ) ;
#82 = APPLICATION_PROTOCOL_DEFINITION ( 'draft international standard', 'automotive_design', 1998, #188 ) ;
#83 = CARTESIAN_POINT ( 'NONE',  ( 0.07866126000000002449, 0.0000000000000000000, 0.3149609999999999910 ) ) ;
#84 = ADVANCED_FACE ( 'NONE', ( #170 ), #203, .T. ) ;
#85 = DIRECTION ( 'NONE',  ( 0.0000000000000000000, 0.0000000000000000000, -1.000000000000000000 ) ) ;
#86 = AXIS2_PLACEMENT_3D ( 'NONE', #58, #266, #60 ) ;
#87 = LINE ( 'NONE', #298, #226 ) ;
#88 = APPLICATION_CONTEXT ( 'automotive_design' ) ;
#89 = MANIFOLD_SOLID_BREP ( 'Cut-Revolve1', #42 ) ;
#90 = CIRCLE ( 'NONE', #275, 0.07866125999999999674 ) ;
#91 = DIRECTION ( 'NONE',  ( -1.224646799147353207E-16, -0.0000000000000000000, -1.000000000000000000 ) ) ;
#92 = DIRECTION ( 'NONE',  ( 0.0000000000000000000, 0.0000000000000000000, 1.000000000000000000 ) ) ;
#93 = AXIS2_PLACEMENT_3D ( 'NONE', #238, #9, #284 ) ;
#94 = CARTESIAN_POINT ( 'NONE',  ( 0.0000000000000000000, 0.0000000000000000000, 0.0000000000000000000 ) ) ;
#95 = DIRECTION ( 'NONE',  ( -1.000000000000000000, 0.0000000000000000000, 0.0000000000000000000 ) ) ;
#96 = ORIENTED_EDGE ( 'NONE', *, *, #49, .F. ) ;
#97 = DIRECTION ( 'NONE',  ( -1.224646799147353207E-16, -0.0000000000000000000, -1.000000000000000000 ) ) ;
#98 = VECTOR ( 'NONE', #154, 39.37007874015747433 ) ;
#99 = CIRCLE ( 'NONE', #232, 0.07866125999999999674 ) ;
#100 = CARTESIAN_POINT ( 'NONE',  ( -0.07866126000000001062, 0.0000000000000000000, 9.633226027589773945E-18 ) ) ;
#101 = DIRECTION ( 'NONE',  ( 0.0000000000000000000, 0.0000000000000000000, 1.000000000000000000 ) ) ;
#102 =( NAMED_UNIT ( * ) PLANE_ANGLE_UNIT ( ) SI_UNIT ( $, .RADIAN. ) );
#103 = PRODUCT ( 'Micro_GEMM-040-2', 'Micro_GEMM-040-2', '', ( #269 ) ) ;
#104 =( NAMED_UNIT ( * ) PLANE_ANGLE_UNIT ( ) SI_UNIT ( $, .RADIAN. ) );
#105 = PLANE ( 'NONE',  #178 ) ;
#106 = STYLED_ITEM ( 'NONE', ( #227 ), #89 ) ;
#107 = FACE_OUTER_BOUND ( 'NONE', #243, .T. ) ;
#108 = CARTESIAN_POINT ( 'NONE',  ( 0.0000000000000000000, 0.0000000000000000000, 1.968503999999999809 ) ) ;
#109 = PRESENTATION_STYLE_ASSIGNMENT (( #297 ) ) ;
#110 = CIRCLE ( 'NONE', #278, 0.07866126000000001062 ) ;
#111 = ADVANCED_FACE ( 'NONE', ( #37 ), #36, .T. ) ;
#112 = EDGE_LOOP ( 'NONE', ( #136, #33, #138, #219 ) ) ;
#113 = AXIS2_PLACEMENT_3D ( 'NONE', #193, #97, #165 ) ;
#114 = CONICAL_SURFACE ( 'NONE', #20, 0.07866125999999999674, 0.1745329251994338637 ) ;
#115 = VERTEX_POINT ( 'NONE', #174 ) ;
#116 = UNCERTAINTY_MEASURE_WITH_UNIT (LENGTH_MEASURE( 1.000000000000000082E-05 ), #14, 'distance_accuracy_value', 'NONE');
#117 = DIRECTION ( 'NONE',  ( -1.224646799147353207E-16, -0.0000000000000000000, -1.000000000000000000 ) ) ;
#118 = FACE_OUTER_BOUND ( 'NONE', #46, .T. ) ;
#119 = DIRECTION ( 'NONE',  ( -1.000000000000000000, 0.0000000000000000000, 0.0000000000000000000 ) ) ;
#120 = EDGE_LOOP ( 'NONE', ( #43, #288, #217, #205 ) ) ;
#121 = DIRECTION ( 'NONE',  ( -1.000000000000000000, 0.0000000000000000000, 1.224646799147353207E-16 ) ) ;
#122 = ORIENTED_EDGE ( 'NONE', *, *, #44, .T. ) ;
#123 = DIRECTION ( 'NONE',  ( 1.000000000000000000, 0.0000000000000000000, -0.0000000000000000000 ) ) ;
#124 = EDGE_LOOP ( 'NONE', ( #277, #122 ) ) ;
#125 = ADVANCED_FACE ( 'NONE', ( #107 ), #16, .T. ) ;
#126 = DIRECTION ( 'NONE',  ( -0.0000000000000000000, -0.0000000000000000000, -1.000000000000000000 ) ) ;
#127 = SURFACE_STYLE_USAGE ( .BOTH. , #245 ) ;
#128 =( CONVERSION_BASED_UNIT ( 'INCH', #228 ) LENGTH_UNIT ( ) NAMED_UNIT ( #133 ) );
#129 = DIRECTION ( 'NONE',  ( -0.0000000000000000000, -0.0000000000000000000, -1.000000000000000000 ) ) ;
#130 = CARTESIAN_POINT ( 'NONE',  ( 0.0000000000000000000, 0.0000000000000000000, 1.968503999999999809 ) ) ;
#131 = AXIS2_PLACEMENT_3D ( 'NONE', #77, #51, #209 ) ;
#132 = VERTEX_POINT ( 'NONE', #83 ) ;
#133 = DIMENSIONAL_EXPONENTS ( 1.000000000000000000, 0.0000000000000000000, 0.0000000000000000000, 0.0000000000000000000, 0.0000000000000000000, 0.0000000000000000000, 0.0000000000000000000 ) ;
#134 = AXIS2_PLACEMENT_3D ( 'NONE', #189, #283, #72 ) ;
#135 =( GEOMETRIC_REPRESENTATION_CONTEXT ( 3 ) GLOBAL_UNCERTAINTY_ASSIGNED_CONTEXT ( ( #116 ) ) GLOBAL_UNIT_ASSIGNED_CONTEXT ( ( #14, #104, #271 ) ) REPRESENTATION_CONTEXT ( 'NONE', 'WORKASPACE' ) );
#136 = ORIENTED_EDGE ( 'NONE', *, *, #160, .F. ) ;
#137 = FACE_OUTER_BOUND ( 'NONE', #27, .T. ) ;
#138 = ORIENTED_EDGE ( 'NONE', *, *, #39, .T. ) ;
#139 = EDGE_CURVE ( 'NONE', #132, #29, #18, .T. ) ;
#140 = DIRECTION ( 'NONE',  ( 1.224646799147353207E-16, 0.0000000000000000000, 1.000000000000000000 ) ) ;
#141 = ORIENTED_EDGE ( 'NONE', *, *, #157, .F. ) ;
#142 = ORIENTED_EDGE ( 'NONE', *, *, #22, .F. ) ;
#143 = EDGE_CURVE ( 'NONE', #235, #213, #175, .T. ) ;
#144 = DIRECTION ( 'NONE',  ( 0.7071067811865502373, 8.659560562354966138E-17, -0.7071067811865446862 ) ) ;
#145 = ORIENTED_EDGE ( 'NONE', *, *, #192, .T. ) ;
#146 = PRODUCT_DEFINITION_SHAPE ( 'NONE', 'NONE',  #229 ) ;
#147 =( LENGTH_UNIT ( ) NAMED_UNIT ( * ) SI_UNIT ( $, .METRE. ) );
#148 = CIRCLE ( 'NONE', #239, 0.07874000000000000443 ) ;
#149 = FILL_AREA_STYLE_COLOUR ( '', #12 ) ;
#150 = DIRECTION ( 'NONE',  ( -0.0000000000000000000, -0.0000000000000000000, -1.000000000000000000 ) ) ;
#151 = ADVANCED_FACE ( 'NONE', ( #246 ), #155, .T. ) ;
#152 = LENGTH_MEASURE_WITH_UNIT ( LENGTH_MEASURE( 0.02539999999999999897 ), #147 );
#153 = DIRECTION ( 'NONE',  ( -1.000000000000000000, 0.0000000000000000000, 1.224646799147353207E-16 ) ) ;
#154 = DIRECTION ( 'NONE',  ( -0.1736481776669311639, 2.126576849575783008E-17, 0.9848077530122080203 ) ) ;
#155 = CONICAL_SURFACE ( 'NONE', #57, 0.06374000000000018540, 0.7853981633974522758 ) ;
#156 = FACE_OUTER_BOUND ( 'NONE', #124, .T. ) ;
#157 = EDGE_CURVE ( 'NONE', #208, #54, #148, .T. ) ;
#158 = CIRCLE ( 'NONE', #38, 0.07874000000000000443 ) ;
#159 = AXIS2_PLACEMENT_3D ( 'NONE', #215, #257, #123 ) ;
#160 = EDGE_CURVE ( 'NONE', #235, #132, #99, .T. ) ;
#161 = ORIENTED_EDGE ( 'NONE', *, *, #139, .T. ) ;
#162 = CARTESIAN_POINT ( 'NONE',  ( 0.06374000000000018540, 7.805898697765251255E-18, 1.968503999999999809 ) ) ;
#163 = CARTESIAN_POINT ( 'NONE',  ( 0.0000000000000000000, 0.0000000000000000000, 1.968503999999999809 ) ) ;
#164 = CARTESIAN_POINT ( 'NONE',  ( 0.0000000000000000000, 0.0000000000000000000, 1.968503999999999809 ) ) ;
#165 = DIRECTION ( 'NONE',  ( -1.000000000000000000, 0.0000000000000000000, 1.224646799147353207E-16 ) ) ;
#166 =( LENGTH_UNIT ( ) NAMED_UNIT ( * ) SI_UNIT ( $, .METRE. ) );
#167 = DIRECTION ( 'NONE',  ( -1.000000000000000000, 0.0000000000000000000, 1.224646799147353207E-16 ) ) ;
#168 = ORIENTED_EDGE ( 'NONE', *, *, #22, .T. ) ;
#169 = CARTESIAN_POINT ( 'NONE',  ( -0.07873999999999996280, 0.0000000000000000000, 0.3154075567304767125 ) ) ;
#170 = FACE_OUTER_BOUND ( 'NONE', #11, .T. ) ;
#171 = EDGE_CURVE ( 'NONE', #132, #210, #87, .T. ) ;
#172 = CARTESIAN_POINT ( 'NONE',  ( 0.07866126000000002449, 0.0000000000000000000, 0.3149609999999999910 ) ) ;
#173 =( NAMED_UNIT ( * ) PLANE_ANGLE_UNIT ( ) SI_UNIT ( $, .RADIAN. ) );
#174 = CARTESIAN_POINT ( 'NONE',  ( 0.06374000000000018540, 8.724383797125754882E-18, 1.968503999999999809 ) ) ;
#175 = LINE ( 'NONE', #62, #98 ) ;
#176 =( CONVERSION_BASED_UNIT ( 'INCH', #152 ) LENGTH_UNIT ( ) NAMED_UNIT ( #182 ) );
#177 = DIRECTION ( 'NONE',  ( -1.000000000000000000, 0.0000000000000000000, 0.0000000000000000000 ) ) ;
#178 = AXIS2_PLACEMENT_3D ( 'NONE', #268, #101, #290 ) ;
#179 = ADVANCED_BREP_SHAPE_REPRESENTATION ( 'Micro_GEMM-040-2', ( #89, #86 ), #135 ) ;
#180 = SHAPE_DEFINITION_REPRESENTATION ( #146, #179 ) ;
#181 = ADVANCED_FACE ( 'NONE', ( #26 ), #194, .T. ) ;
#182 = DIMENSIONAL_EXPONENTS ( 1.000000000000000000, 0.0000000000000000000, 0.0000000000000000000, 0.0000000000000000000, 0.0000000000000000000, 0.0000000000000000000, 0.0000000000000000000 ) ;
#183 = STYLED_ITEM ( 'NONE', ( #109 ), #179 ) ;
#184 = EDGE_LOOP ( 'NONE', ( #45, #206, #145, #276 ) ) ;
#185 = CIRCLE ( 'NONE', #237, 0.06374000000000018540 ) ;
#186 = CARTESIAN_POINT ( 'NONE',  ( -0.07866126000000001062, 0.0000000000000000000, 1.926645205517954789E-17 ) ) ;
#187 = CARTESIAN_POINT ( 'NONE',  ( 0.07874000000000003219, 9.642868896486263131E-18, 0.3154075567304767125 ) ) ;
#188 = APPLICATION_CONTEXT ( 'automotive_design' ) ;
#189 = CARTESIAN_POINT ( 'NONE',  ( 3.862628547768655706E-17, 0.0000000000000000000, 0.3154075567304767125 ) ) ;
#190 = LINE ( 'NONE', #286, #218 ) ;
#191 = CARTESIAN_POINT ( 'NONE',  ( 0.07874000000000000443, 9.642868896486258509E-18, 1.953504000000000129 ) ) ;
#192 = EDGE_CURVE ( 'NONE', #235, #236, #7, .T. ) ;
#193 = CARTESIAN_POINT ( 'NONE',  ( 1.179729942015078919E-33, 0.0000000000000000000, 9.633226027589773945E-18 ) ) ;
#194 = CONICAL_SURFACE ( 'NONE', #212, 0.06374000000000018540, 0.7853981633974522758 ) ;
#195 = DIRECTION ( 'NONE',  ( 1.000000000000000000, 0.0000000000000000000, 0.0000000000000000000 ) ) ;
#196 = DIRECTION ( 'NONE',  ( 0.0000000000000000000, 0.0000000000000000000, -1.000000000000000000 ) ) ;
#197 =( LENGTH_UNIT ( ) NAMED_UNIT ( * ) SI_UNIT ( $, .METRE. ) );
#198 = EDGE_CURVE ( 'NONE', #23, #208, #190, .T. ) ;
#199 = FILL_AREA_STYLE ('',( #17 ) ) ;
#200 = COLOUR_RGB ( '',0.7921568627450980005, 0.8196078431372548767, 0.9333333333333333481 ) ;
#201 = VECTOR ( 'NONE', #144, 39.37007874015748854 ) ;
#202 = LENGTH_MEASURE_WITH_UNIT ( LENGTH_MEASURE( 0.02539999999999999897 ), #166 );
#203 = CYLINDRICAL_SURFACE ( 'NONE', #30, 0.07874000000000000443 ) ;
#204 = DIRECTION ( 'NONE',  ( -1.000000000000000000, 0.0000000000000000000, 0.0000000000000000000 ) ) ;
#205 = ORIENTED_EDGE ( 'NONE', *, *, #214, .F. ) ;
#206 = ORIENTED_EDGE ( 'NONE', *, *, #233, .T. ) ;
#207 = PRODUCT_DEFINITION_CONTEXT ( 'detailed design', #88, 'design' ) ;
#208 = VERTEX_POINT ( 'NONE', #32 ) ;
#209 = DIRECTION ( 'NONE',  ( 1.000000000000000000, 0.0000000000000000000, 0.0000000000000000000 ) ) ;
#210 = VERTEX_POINT ( 'NONE', #34 ) ;
#211 = CARTESIAN_POINT ( 'NONE',  ( 0.07874000000000000443, 9.642868896486258509E-18, 1.968503999999999809 ) ) ;
#212 = AXIS2_PLACEMENT_3D ( 'NONE', #164, #70, #95 ) ;
#213 = VERTEX_POINT ( 'NONE', #169 ) ;
#214 = EDGE_CURVE ( 'NONE', #29, #213, #25, .T. ) ;
#215 = CARTESIAN_POINT ( 'NONE',  ( 0.0000000000000000000, 0.0000000000000000000, 1.968503999999999809 ) ) ;
#216 = ORIENTED_EDGE ( 'NONE', *, *, #73, .F. ) ;
#217 = ORIENTED_EDGE ( 'NONE', *, *, #65, .T. ) ;
#218 = VECTOR ( 'NONE', #234, 39.37007874015748854 ) ;
#219 = ORIENTED_EDGE ( 'NONE', *, *, #139, .F. ) ;
#220 =( NAMED_UNIT ( * ) SI_UNIT ( $, .STERADIAN. ) SOLID_ANGLE_UNIT ( ) );
#221 = CARTESIAN_POINT ( 'NONE',  ( -0.07874000000000000443, 0.0000000000000000000, 1.968503999999999809 ) ) ;
#222 = ADVANCED_FACE ( 'NONE', ( #75 ), #114, .T. ) ;
#223 = DIRECTION ( 'NONE',  ( -1.000000000000000000, 0.0000000000000000000, 0.0000000000000000000 ) ) ;
#224 = DIRECTION ( 'NONE',  ( -1.224646799147353207E-16, -0.0000000000000000000, -1.000000000000000000 ) ) ;
#225 = CARTESIAN_POINT ( 'NONE',  ( 3.857159805062494824E-17, 0.0000000000000000000, 0.3149609999999999910 ) ) ;
#226 = VECTOR ( 'NONE', #248, 39.37007874015748143 ) ;
#227 = PRESENTATION_STYLE_ASSIGNMENT (( #127 ) ) ;
#228 = LENGTH_MEASURE_WITH_UNIT ( LENGTH_MEASURE( 0.02539999999999999897 ), #197 );
#229 = PRODUCT_DEFINITION ( 'UNKNOWN', '', #259, #207 ) ;
#230 = EDGE_LOOP ( 'NONE', ( #260, #142, #240, #216 ) ) ;
#231 = UNCERTAINTY_MEASURE_WITH_UNIT (LENGTH_MEASURE( 1.000000000000000082E-05 ), #128, 'distance_accuracy_value', 'NONE');
#232 = AXIS2_PLACEMENT_3D ( 'NONE', #292, #224, #299 ) ;
#233 = EDGE_CURVE ( 'NONE', #132, #235, #90, .T. ) ;
#234 = DIRECTION ( 'NONE',  ( -0.7071067811865502373, 0.0000000000000000000, -0.7071067811865446862 ) ) ;
#235 = VERTEX_POINT ( 'NONE', #242 ) ;
#236 = VERTEX_POINT ( 'NONE', #186 ) ;
#237 = AXIS2_PLACEMENT_3D ( 'NONE', #163, #92, #255 ) ;
#238 = CARTESIAN_POINT ( 'NONE',  ( 0.0000000000000000000, 0.0000000000000000000, 1.968503999999999809 ) ) ;
#239 = AXIS2_PLACEMENT_3D ( 'NONE', #272, #273, #195 ) ;
#240 = ORIENTED_EDGE ( 'NONE', *, *, #198, .T. ) ;
#241 = LINE ( 'NONE', #221, #56 ) ;
#242 = CARTESIAN_POINT ( 'NONE',  ( -0.07866125999999995511, 9.638047462038014686E-18, 0.3149609999999999910 ) ) ;
#243 = EDGE_LOOP ( 'NONE', ( #76, #13, #161, #24 ) ) ;
#244 = APPLICATION_PROTOCOL_DEFINITION ( 'draft international standard', 'automotive_design', 1998, #88 ) ;
#245 = SURFACE_SIDE_STYLE ('',( #265 ) ) ;
#246 = FACE_OUTER_BOUND ( 'NONE', #262, .T. ) ;
#247 = PRESENTATION_LAYER_ASSIGNMENT (  '', '', ( #183 ) ) ;
#248 = DIRECTION ( 'NONE',  ( -1.224646799147353207E-16, -0.0000000000000000000, -1.000000000000000000 ) ) ;
#249 = CIRCLE ( 'NONE', #113, 0.07866126000000001062 ) ;
#250 = DIMENSIONAL_EXPONENTS ( 1.000000000000000000, 0.0000000000000000000, 0.0000000000000000000, 0.0000000000000000000, 0.0000000000000000000, 0.0000000000000000000, 0.0000000000000000000 ) ;
#251 = EDGE_CURVE ( 'NONE', #54, #29, #261, .T. ) ;
#252 = AXIS2_PLACEMENT_3D ( 'NONE', #15, #126, #223 ) ;
#253 = AXIS2_PLACEMENT_3D ( 'NONE', #40, #296, #153 ) ;
#254 = ORIENTED_EDGE ( 'NONE', *, *, #256, .T. ) ;
#255 = DIRECTION ( 'NONE',  ( 1.000000000000000000, 0.0000000000000000000, 0.0000000000000000000 ) ) ;
#256 = EDGE_CURVE ( 'NONE', #115, #54, #53, .T. ) ;
#257 = DIRECTION ( 'NONE',  ( 0.0000000000000000000, 0.0000000000000000000, 1.000000000000000000 ) ) ;
#258 = CARTESIAN_POINT ( 'NONE',  ( 1.179729942015078919E-33, 0.0000000000000000000, 9.633226027589773945E-18 ) ) ;
#259 = PRODUCT_DEFINITION_FORMATION_WITH_SPECIFIED_SOURCE ( 'ANY', '', #103, .NOT_KNOWN. ) ;
#260 = ORIENTED_EDGE ( 'NONE', *, *, #256, .F. ) ;
#261 = LINE ( 'NONE', #211, #5 ) ;
#262 = EDGE_LOOP ( 'NONE', ( #74, #254, #141, #8 ) ) ;
#263 = ADVANCED_FACE ( 'NONE', ( #137 ), #282, .T. ) ;
#264 = CARTESIAN_POINT ( 'NONE',  ( 3.857159805062494824E-17, 0.0000000000000000000, 0.3149609999999999910 ) ) ;
#265 = SURFACE_STYLE_FILL_AREA ( #199 ) ;
#266 = DIRECTION ( 'NONE',  ( 0.0000000000000000000, 0.0000000000000000000, 1.000000000000000000 ) ) ;
#267 = AXIS2_PLACEMENT_3D ( 'NONE', #225, #270, #291 ) ;
#268 = CARTESIAN_POINT ( 'NONE',  ( 0.0000000000000000000, 0.0000000000000000000, 0.0000000000000000000 ) ) ;
#269 = PRODUCT_CONTEXT ( 'NONE', #188, 'mechanical' ) ;
#270 = DIRECTION ( 'NONE',  ( 1.224646799147353207E-16, 0.0000000000000000000, 1.000000000000000000 ) ) ;
#271 =( NAMED_UNIT ( * ) SI_UNIT ( $, .STERADIAN. ) SOLID_ANGLE_UNIT ( ) );
#272 = CARTESIAN_POINT ( 'NONE',  ( 0.0000000000000000000, 0.0000000000000000000, 1.953504000000000129 ) ) ;
#273 = DIRECTION ( 'NONE',  ( 0.0000000000000000000, 0.0000000000000000000, -1.000000000000000000 ) ) ;
#274 = PRESENTATION_LAYER_ASSIGNMENT (  '', '', ( #106 ) ) ;
#275 = AXIS2_PLACEMENT_3D ( 'NONE', #28, #91, #119 ) ;
#276 = ORIENTED_EDGE ( 'NONE', *, *, #44, .F. ) ;
#277 = ORIENTED_EDGE ( 'NONE', *, *, #49, .T. ) ;
#278 = AXIS2_PLACEMENT_3D ( 'NONE', #258, #31, #121 ) ;
#279 = VECTOR ( 'NONE', #295, 39.37007874015748143 ) ;
#280 = DIRECTION ( 'NONE',  ( -0.0000000000000000000, -0.0000000000000000000, -1.000000000000000000 ) ) ;
#281 = ORIENTED_EDGE ( 'NONE', *, *, #160, .T. ) ;
#282 = PLANE ( 'NONE',  #159 ) ;
#283 = DIRECTION ( 'NONE',  ( -1.224646799147353207E-16, -0.0000000000000000000, -1.000000000000000000 ) ) ;
#284 = DIRECTION ( 'NONE',  ( 1.000000000000000000, 0.0000000000000000000, 0.0000000000000000000 ) ) ;
#285 = ORIENTED_EDGE ( 'NONE', *, *, #251, .T. ) ;
#286 = CARTESIAN_POINT ( 'NONE',  ( -0.06374000000000018540, 0.0000000000000000000, 1.968503999999999809 ) ) ;
#287 = MECHANICAL_DESIGN_GEOMETRIC_PRESENTATION_REPRESENTATION (  '', ( #183 ), #50 ) ;
#288 = ORIENTED_EDGE ( 'NONE', *, *, #73, .T. ) ;
#289 = EDGE_CURVE ( 'NONE', #115, #23, #81, .T. ) ;
#290 = DIRECTION ( 'NONE',  ( 1.000000000000000000, 0.0000000000000000000, -0.0000000000000000000 ) ) ;
#291 = DIRECTION ( 'NONE',  ( 1.000000000000000000, 0.0000000000000000000, 0.0000000000000000000 ) ) ;
#292 = CARTESIAN_POINT ( 'NONE',  ( 3.857159805062494824E-17, 0.0000000000000000000, 0.3149609999999999910 ) ) ;
#293 = SURFACE_STYLE_FILL_AREA ( #19 ) ;
#294 =( GEOMETRIC_REPRESENTATION_CONTEXT ( 3 ) GLOBAL_UNCERTAINTY_ASSIGNED_CONTEXT ( ( #231 ) ) GLOBAL_UNIT_ASSIGNED_CONTEXT ( ( #128, #102, #64 ) ) REPRESENTATION_CONTEXT ( 'NONE', 'WORKASPACE' ) );
#295 = DIRECTION ( 'NONE',  ( 0.1736481776669313581, 0.0000000000000000000, 0.9848077530122077983 ) ) ;
#296 = DIRECTION ( 'NONE',  ( -1.224646799147353207E-16, -0.0000000000000000000, -1.000000000000000000 ) ) ;
#297 = SURFACE_STYLE_USAGE ( .BOTH. , #55 ) ;
#298 = CARTESIAN_POINT ( 'NONE',  ( 0.07866126000000001062, 9.633226027589773945E-18, -9.633226027589773945E-18 ) ) ;
#299 = DIRECTION ( 'NONE',  ( -1.000000000000000000, 0.0000000000000000000, 0.0000000000000000000 ) ) ;
ENDSEC;
END-ISO-10303-21;
