ISO-10303-21;
HEADER;
FILE_DESCRIPTION (( 'STEP AP214' ),
    '1' );
FILE_NAME ('Micro_RTCM-040-2X.STEP',
    '2021-09-03T18:21:23',
    ( '' ),
    ( '' ),
    'SwSTEP 2.0',
    'SolidWorks 2020',
    '' );
FILE_SCHEMA (( 'AUTOMOTIVE_DESIGN' ));
ENDSEC;

DATA;
#1 = DIRECTION ( 'NONE',  ( 0.0000000000000000000, 0.0000000000000000000, -1.000000000000000000 ) ) ;
#2 = VERTEX_POINT ( 'NONE', #55 ) ;
#3 = CARTESIAN_POINT ( 'NONE',  ( 0.0000000000000000000, 0.0000000000000000000, 0.0000000000000000000 ) ) ;
#4 = UNCERTAINTY_MEASURE_WITH_UNIT (LENGTH_MEASURE( 1.000000000000000082E-05 ), #169, 'distance_accuracy_value', 'NONE');
#5 = ORIENTED_EDGE ( 'NONE', *, *, #222, .F. ) ;
#6 = LINE ( 'NONE', #218, #236 ) ;
#7 = AXIS2_PLACEMENT_3D ( 'NONE', #81, #180, #237 ) ;
#8 = EDGE_CURVE ( 'NONE', #39, #2, #232, .T. ) ;
#9 = CARTESIAN_POINT ( 'NONE',  ( -0.003936999999999995191, -5.062506170655286488E-18, 1.968503999999999809 ) ) ;
#10 = FILL_AREA_STYLE_COLOUR ( '', #115 ) ;
#11 = FILL_AREA_STYLE ('',( #10 ) ) ;
#12 = STYLED_ITEM ( 'NONE', ( #167 ), #162 ) ;
#13 = CARTESIAN_POINT ( 'NONE',  ( 0.0000000000000000000, 0.0000000000000000000, 1.689335403441426298 ) ) ;
#14 =( NAMED_UNIT ( * ) SI_UNIT ( $, .STERADIAN. ) SOLID_ANGLE_UNIT ( ) );
#15 = CLOSED_SHELL ( 'NONE', ( #122, #30, #200, #51, #239, #37, #155, #94 ) ) ;
#16 = APPLICATION_PROTOCOL_DEFINITION ( 'draft international standard', 'automotive_design', 1998, #209 ) ;
#17 = ORIENTED_EDGE ( 'NONE', *, *, #166, .T. ) ;
#18 = ORIENTED_EDGE ( 'NONE', *, *, #8, .F. ) ;
#19 = ORIENTED_EDGE ( 'NONE', *, *, #98, .T. ) ;
#20 = CIRCLE ( 'NONE', #54, 0.003936999999999995191 ) ;
#21 = CARTESIAN_POINT ( 'NONE',  ( 0.0000000000000000000, 0.0000000000000000000, 1.689335403441426298 ) ) ;
#22 = VERTEX_POINT ( 'NONE', #159 ) ;
#23 = CARTESIAN_POINT ( 'NONE',  ( -0.07874000000000000443, 0.0000000000000000000, 1.968503999999999809 ) ) ;
#24 = ORIENTED_EDGE ( 'NONE', *, *, #222, .T. ) ;
#25 = DIRECTION ( 'NONE',  ( 0.0000000000000000000, 0.0000000000000000000, 1.000000000000000000 ) ) ;
#26 = FACE_OUTER_BOUND ( 'NONE', #127, .T. ) ;
#27 = FACE_OUTER_BOUND ( 'NONE', #108, .T. ) ;
#28 =( GEOMETRIC_REPRESENTATION_CONTEXT ( 3 ) GLOBAL_UNCERTAINTY_ASSIGNED_CONTEXT ( ( #203 ) ) GLOBAL_UNIT_ASSIGNED_CONTEXT ( ( #68, #139, #31 ) ) REPRESENTATION_CONTEXT ( 'NONE', 'WORKASPACE' ) );
#29 = PLANE ( 'NONE',  #168 ) ;
#30 = ADVANCED_FACE ( 'NONE', ( #249 ), #106, .T. ) ;
#31 =( NAMED_UNIT ( * ) SI_UNIT ( $, .STERADIAN. ) SOLID_ANGLE_UNIT ( ) );
#32 = AXIS2_PLACEMENT_3D ( 'NONE', #38, #231, #134 ) ;
#33 = CARTESIAN_POINT ( 'NONE',  ( 0.003936999999999995191, 0.0000000000000000000, 0.0000000000000000000 ) ) ;
#34 = EDGE_CURVE ( 'NONE', #109, #227, #20, .T. ) ;
#35 = FACE_OUTER_BOUND ( 'NONE', #43, .T. ) ;
#36 = DIRECTION ( 'NONE',  ( -0.0000000000000000000, -0.0000000000000000000, -1.000000000000000000 ) ) ;
#37 = ADVANCED_FACE ( 'NONE', ( #96 ), #157, .F. ) ;
#38 = CARTESIAN_POINT ( 'NONE',  ( 0.0000000000000000000, 0.0000000000000000000, 0.0000000000000000000 ) ) ;
#39 = VERTEX_POINT ( 'NONE', #177 ) ;
#40 = VECTOR ( 'NONE', #70, 39.37007874015748854 ) ;
#41 = PRESENTATION_LAYER_ASSIGNMENT (  '', '', ( #194 ) ) ;
#42 = VERTEX_POINT ( 'NONE', #161 ) ;
#43 = EDGE_LOOP ( 'NONE', ( #56, #216, #137, #198 ) ) ;
#44 = ORIENTED_EDGE ( 'NONE', *, *, #34, .F. ) ;
#45 = DIRECTION ( 'NONE',  ( -0.2588190451025217387, -3.169619151431776651E-17, -0.9659258262890679791 ) ) ;
#46 = DIRECTION ( 'NONE',  ( 0.0000000000000000000, 0.0000000000000000000, -1.000000000000000000 ) ) ;
#47 = COLOUR_RGB ( '',0.7921568627450980005, 0.8196078431372548767, 0.9333333333333333481 ) ;
#48 = CARTESIAN_POINT ( 'NONE',  ( 0.07874000000000000443, 9.642868896486258509E-18, 1.968503999999999809 ) ) ;
#49 = PRESENTATION_LAYER_ASSIGNMENT (  '', '', ( #12 ) ) ;
#50 = AXIS2_PLACEMENT_3D ( 'NONE', #183, #143, #181 ) ;
#51 = ADVANCED_FACE ( 'NONE', ( #211 ), #61, .T. ) ;
#52 = CARTESIAN_POINT ( 'NONE',  ( 0.0000000000000000000, 0.0000000000000000000, 0.0000000000000000000 ) ) ;
#53 = DIRECTION ( 'NONE',  ( -1.000000000000000000, 0.0000000000000000000, 0.0000000000000000000 ) ) ;
#54 = AXIS2_PLACEMENT_3D ( 'NONE', #3, #132, #174 ) ;
#55 = CARTESIAN_POINT ( 'NONE',  ( -0.07874000000000000443, 0.0000000000000000000, 0.2791685965585736229 ) ) ;
#56 = ORIENTED_EDGE ( 'NONE', *, *, #113, .F. ) ;
#57 = CARTESIAN_POINT ( 'NONE',  ( 0.07874000000000000443, 9.642868896486258509E-18, 1.689335403441426298 ) ) ;
#58 = AXIS2_PLACEMENT_3D ( 'NONE', #13, #244, #151 ) ;
#59 = EDGE_CURVE ( 'NONE', #77, #39, #199, .T. ) ;
#60 = DIRECTION ( 'NONE',  ( 0.0000000000000000000, 0.0000000000000000000, 1.000000000000000000 ) ) ;
#61 = CYLINDRICAL_SURFACE ( 'NONE', #184, 0.07874000000000000443 ) ;
#62 = DIRECTION ( 'NONE',  ( 1.000000000000000000, 0.0000000000000000000, -0.0000000000000000000 ) ) ;
#63 = CIRCLE ( 'NONE', #208, 0.003936999999999995191 ) ;
#64 =( GEOMETRIC_REPRESENTATION_CONTEXT ( 3 ) GLOBAL_UNCERTAINTY_ASSIGNED_CONTEXT ( ( #4 ) ) GLOBAL_UNIT_ASSIGNED_CONTEXT ( ( #169, #224, #245 ) ) REPRESENTATION_CONTEXT ( 'NONE', 'WORKASPACE' ) );
#65 = DIRECTION ( 'NONE',  ( 0.2588190451025217387, 0.0000000000000000000, 0.9659258262890679791 ) ) ;
#66 = FACE_OUTER_BOUND ( 'NONE', #188, .T. ) ;
#67 = LINE ( 'NONE', #48, #83 ) ;
#68 =( CONVERSION_BASED_UNIT ( 'INCH', #217 ) LENGTH_UNIT ( ) NAMED_UNIT ( #140 ) );
#69 = VECTOR ( 'NONE', #136, 39.37007874015748143 ) ;
#70 = DIRECTION ( 'NONE',  ( 0.2588190451025217387, 0.0000000000000000000, -0.9659258262890679791 ) ) ;
#71 = VECTOR ( 'NONE', #240, 39.37007874015748854 ) ;
#72 = CARTESIAN_POINT ( 'NONE',  ( 0.003936999999999995191, 0.0000000000000000000, 1.968503999999999809 ) ) ;
#73 = CARTESIAN_POINT ( 'NONE',  ( 0.0000000000000000000, 0.0000000000000000000, 0.0000000000000000000 ) ) ;
#74 = DIRECTION ( 'NONE',  ( -1.000000000000000000, 0.0000000000000000000, 0.0000000000000000000 ) ) ;
#75 = ORIENTED_EDGE ( 'NONE', *, *, #150, .F. ) ;
#76 = AXIS2_PLACEMENT_3D ( 'NONE', #126, #36, #172 ) ;
#77 = VERTEX_POINT ( 'NONE', #57 ) ;
#78 = ORIENTED_EDGE ( 'NONE', *, *, #213, .T. ) ;
#79 = CARTESIAN_POINT ( 'NONE',  ( -0.003936999999999995191, 4.821434448243123477E-19, 0.0000000000000000000 ) ) ;
#80 = CIRCLE ( 'NONE', #147, 0.003936999999999995191 ) ;
#81 = CARTESIAN_POINT ( 'NONE',  ( 0.0000000000000000000, 0.0000000000000000000, 1.968503999999999809 ) ) ;
#82 = SURFACE_SIDE_STYLE ('',( #141 ) ) ;
#83 = VECTOR ( 'NONE', #138, 39.37007874015748143 ) ;
#84 = FILL_AREA_STYLE ('',( #206 ) ) ;
#85 = CARTESIAN_POINT ( 'NONE',  ( 0.0000000000000000000, 0.0000000000000000000, 0.0000000000000000000 ) ) ;
#86 = CIRCLE ( 'NONE', #76, 0.07874000000000000443 ) ;
#87 =( LENGTH_UNIT ( ) NAMED_UNIT ( * ) SI_UNIT ( $, .METRE. ) );
#88 = DIRECTION ( 'NONE',  ( 1.000000000000000000, 0.0000000000000000000, 0.0000000000000000000 ) ) ;
#89 = ORIENTED_EDGE ( 'NONE', *, *, #233, .F. ) ;
#90 = EDGE_LOOP ( 'NONE', ( #78, #196 ) ) ;
#91 = AXIS2_PLACEMENT_3D ( 'NONE', #101, #116, #204 ) ;
#92 = AXIS2_PLACEMENT_3D ( 'NONE', #185, #230, #88 ) ;
#93 = ORIENTED_EDGE ( 'NONE', *, *, #144, .T. ) ;
#94 = ADVANCED_FACE ( 'NONE', ( #221 ), #29, .T. ) ;
#95 = ORIENTED_EDGE ( 'NONE', *, *, #98, .F. ) ;
#96 = FACE_OUTER_BOUND ( 'NONE', #90, .T. ) ;
#97 = CIRCLE ( 'NONE', #248, 0.07874000000000000443 ) ;
#98 = EDGE_CURVE ( 'NONE', #210, #42, #63, .T. ) ;
#99 = ORIENTED_EDGE ( 'NONE', *, *, #8, .T. ) ;
#100 = PRODUCT ( 'Micro_RTCM-040-2X', 'Micro_RTCM-040-2X', '', ( #247 ) ) ;
#101 = CARTESIAN_POINT ( 'NONE',  ( 0.0000000000000000000, 0.0000000000000000000, 1.968503999999999809 ) ) ;
#102 = CYLINDRICAL_SURFACE ( 'NONE', #7, 0.07874000000000000443 ) ;
#103 = EDGE_CURVE ( 'NONE', #22, #2, #97, .T. ) ;
#104 = CARTESIAN_POINT ( 'NONE',  ( 0.0000000000000000000, 0.0000000000000000000, 1.968503999999999809 ) ) ;
#105 = CARTESIAN_POINT ( 'NONE',  ( 0.0000000000000000000, 0.0000000000000000000, 1.968503999999999809 ) ) ;
#106 = CONICAL_SURFACE ( 'NONE', #32, 0.003936999999999995191, 0.2617993877991504625 ) ;
#107 = AXIS2_PLACEMENT_3D ( 'NONE', #21, #1, #74 ) ;
#108 = EDGE_LOOP ( 'NONE', ( #17, #112, #149, #5 ) ) ;
#109 = VERTEX_POINT ( 'NONE', #182 ) ;
#110 = DIRECTION ( 'NONE',  ( -0.0000000000000000000, -0.0000000000000000000, -1.000000000000000000 ) ) ;
#111 = ORIENTED_EDGE ( 'NONE', *, *, #233, .T. ) ;
#112 = ORIENTED_EDGE ( 'NONE', *, *, #189, .T. ) ;
#113 = EDGE_CURVE ( 'NONE', #109, #2, #202, .T. ) ;
#114 = ORIENTED_EDGE ( 'NONE', *, *, #189, .F. ) ;
#115 = COLOUR_RGB ( '',0.7921568627450980005, 0.8196078431372548767, 0.9333333333333333481 ) ;
#116 = DIRECTION ( 'NONE',  ( 0.0000000000000000000, 0.0000000000000000000, -1.000000000000000000 ) ) ;
#117 = LINE ( 'NONE', #118, #142 ) ;
#118 = CARTESIAN_POINT ( 'NONE',  ( 0.003936999999999995191, 0.0000000000000000000, 0.0000000000000000000 ) ) ;
#119 = MECHANICAL_DESIGN_GEOMETRIC_PRESENTATION_REPRESENTATION (  '', ( #194 ), #64 ) ;
#120 = DIRECTION ( 'NONE',  ( 1.000000000000000000, 0.0000000000000000000, 0.0000000000000000000 ) ) ;
#121 = CARTESIAN_POINT ( 'NONE',  ( 0.0000000000000000000, 0.0000000000000000000, 1.968503999999999809 ) ) ;
#122 = ADVANCED_FACE ( 'NONE', ( #27 ), #135, .T. ) ;
#123 = DIRECTION ( 'NONE',  ( -0.0000000000000000000, -0.0000000000000000000, -1.000000000000000000 ) ) ;
#124 = LENGTH_MEASURE_WITH_UNIT ( LENGTH_MEASURE( 0.02539999999999999897 ), #225 );
#125 = SURFACE_STYLE_FILL_AREA ( #84 ) ;
#126 = CARTESIAN_POINT ( 'NONE',  ( 0.0000000000000000000, 0.0000000000000000000, 0.2791685965585736229 ) ) ;
#127 = EDGE_LOOP ( 'NONE', ( #178, #93, #89, #18 ) ) ;
#128 = AXIS2_PLACEMENT_3D ( 'NONE', #73, #60, #156 ) ;
#129 = SHAPE_DEFINITION_REPRESENTATION ( #201, #220 ) ;
#130 = ORIENTED_EDGE ( 'NONE', *, *, #223, .F. ) ;
#131 = PRODUCT_RELATED_PRODUCT_CATEGORY ( 'part', '', ( #100 ) ) ;
#132 = DIRECTION ( 'NONE',  ( -0.0000000000000000000, -0.0000000000000000000, -1.000000000000000000 ) ) ;
#133 = AXIS2_PLACEMENT_3D ( 'NONE', #85, #246, #148 ) ;
#134 = DIRECTION ( 'NONE',  ( 1.000000000000000000, 0.0000000000000000000, 0.0000000000000000000 ) ) ;
#135 = CONICAL_SURFACE ( 'NONE', #160, 0.003936999999999995191, 0.2617993877991504625 ) ;
#136 = DIRECTION ( 'NONE',  ( -0.0000000000000000000, -0.0000000000000000000, -1.000000000000000000 ) ) ;
#137 = ORIENTED_EDGE ( 'NONE', *, *, #150, .T. ) ;
#138 = DIRECTION ( 'NONE',  ( -0.0000000000000000000, -0.0000000000000000000, -1.000000000000000000 ) ) ;
#139 =( NAMED_UNIT ( * ) PLANE_ANGLE_UNIT ( ) SI_UNIT ( $, .RADIAN. ) );
#140 = DIMENSIONAL_EXPONENTS ( 1.000000000000000000, 0.0000000000000000000, 0.0000000000000000000, 0.0000000000000000000, 0.0000000000000000000, 0.0000000000000000000, 0.0000000000000000000 ) ;
#141 = SURFACE_STYLE_FILL_AREA ( #11 ) ;
#142 = VECTOR ( 'NONE', #65, 39.37007874015748854 ) ;
#143 = DIRECTION ( 'NONE',  ( 0.0000000000000000000, 0.0000000000000000000, -1.000000000000000000 ) ) ;
#144 = EDGE_CURVE ( 'NONE', #77, #22, #67, .T. ) ;
#145 = LENGTH_MEASURE_WITH_UNIT ( LENGTH_MEASURE( 0.02539999999999999897 ), #87 );
#146 = SURFACE_SIDE_STYLE ('',( #125 ) ) ;
#147 = AXIS2_PLACEMENT_3D ( 'NONE', #52, #123, #53 ) ;
#148 = DIRECTION ( 'NONE',  ( 1.000000000000000000, 0.0000000000000000000, 0.0000000000000000000 ) ) ;
#149 = ORIENTED_EDGE ( 'NONE', *, *, #59, .F. ) ;
#150 = EDGE_CURVE ( 'NONE', #227, #22, #117, .T. ) ;
#151 = DIRECTION ( 'NONE',  ( -1.000000000000000000, 0.0000000000000000000, 0.0000000000000000000 ) ) ;
#152 = LINE ( 'NONE', #72, #40 ) ;
#153 = APPLICATION_PROTOCOL_DEFINITION ( 'draft international standard', 'automotive_design', 1998, #191 ) ;
#154 = MECHANICAL_DESIGN_GEOMETRIC_PRESENTATION_REPRESENTATION (  '', ( #12 ), #28 ) ;
#155 = ADVANCED_FACE ( 'NONE', ( #66 ), #243, .T. ) ;
#156 = DIRECTION ( 'NONE',  ( 1.000000000000000000, 0.0000000000000000000, -0.0000000000000000000 ) ) ;
#157 = PLANE ( 'NONE',  #128 ) ;
#158 = CONICAL_SURFACE ( 'NONE', #133, 0.003936999999999995191, 0.2617993877991504625 ) ;
#159 = CARTESIAN_POINT ( 'NONE',  ( 0.07874000000000000443, 9.642868896486258509E-18, 0.2791685965585736229 ) ) ;
#160 = AXIS2_PLACEMENT_3D ( 'NONE', #121, #234, #120 ) ;
#161 = CARTESIAN_POINT ( 'NONE',  ( 0.003936999999999995191, 0.0000000000000000000, 1.968503999999999809 ) ) ;
#162 = MANIFOLD_SOLID_BREP ( 'Mirror1', #15 ) ;
#163 = CARTESIAN_POINT ( 'NONE',  ( 0.0000000000000000000, 0.0000000000000000000, 0.2791685965585736229 ) ) ;
#164 = DIRECTION ( 'NONE',  ( -1.000000000000000000, 0.0000000000000000000, 0.0000000000000000000 ) ) ;
#165 = PRODUCT_DEFINITION_CONTEXT ( 'detailed design', #191, 'design' ) ;
#166 = EDGE_CURVE ( 'NONE', #42, #210, #192, .T. ) ;
#167 = PRESENTATION_STYLE_ASSIGNMENT (( #205 ) ) ;
#168 = AXIS2_PLACEMENT_3D ( 'NONE', #104, #25, #62 ) ;
#169 =( CONVERSION_BASED_UNIT ( 'INCH', #145 ) LENGTH_UNIT ( ) NAMED_UNIT ( #241 ) );
#170 =( NAMED_UNIT ( * ) PLANE_ANGLE_UNIT ( ) SI_UNIT ( $, .RADIAN. ) );
#171 = CIRCLE ( 'NONE', #58, 0.07874000000000000443 ) ;
#172 = DIRECTION ( 'NONE',  ( -1.000000000000000000, 0.0000000000000000000, 0.0000000000000000000 ) ) ;
#173 =( GEOMETRIC_REPRESENTATION_CONTEXT ( 3 ) GLOBAL_UNCERTAINTY_ASSIGNED_CONTEXT ( ( #197 ) ) GLOBAL_UNIT_ASSIGNED_CONTEXT ( ( #186, #170, #14 ) ) REPRESENTATION_CONTEXT ( 'NONE', 'WORKASPACE' ) );
#174 = DIRECTION ( 'NONE',  ( -1.000000000000000000, 0.0000000000000000000, 0.0000000000000000000 ) ) ;
#175 = ORIENTED_EDGE ( 'NONE', *, *, #59, .T. ) ;
#176 = EDGE_LOOP ( 'NONE', ( #214, #95 ) ) ;
#177 = CARTESIAN_POINT ( 'NONE',  ( -0.07874000000000000443, 0.0000000000000000000, 1.689335403441426298 ) ) ;
#178 = ORIENTED_EDGE ( 'NONE', *, *, #223, .T. ) ;
#179 = PRODUCT_DEFINITION ( 'UNKNOWN', '', #212, #165 ) ;
#180 = DIRECTION ( 'NONE',  ( -0.0000000000000000000, -0.0000000000000000000, -1.000000000000000000 ) ) ;
#181 = DIRECTION ( 'NONE',  ( 1.000000000000000000, 0.0000000000000000000, 0.0000000000000000000 ) ) ;
#182 = CARTESIAN_POINT ( 'NONE',  ( -0.003936999999999995191, 5.062506170655285717E-18, 0.0000000000000000000 ) ) ;
#183 = CARTESIAN_POINT ( 'NONE',  ( 0.0000000000000000000, 0.0000000000000000000, 1.968503999999999809 ) ) ;
#184 = AXIS2_PLACEMENT_3D ( 'NONE', #190, #110, #193 ) ;
#185 = CARTESIAN_POINT ( 'NONE',  ( 0.0000000000000000000, 0.0000000000000000000, 0.0000000000000000000 ) ) ;
#186 =( CONVERSION_BASED_UNIT ( 'INCH', #124 ) LENGTH_UNIT ( ) NAMED_UNIT ( #238 ) );
#187 = PRESENTATION_STYLE_ASSIGNMENT (( #207 ) ) ;
#188 = EDGE_LOOP ( 'NONE', ( #114, #19, #24, #130 ) ) ;
#189 = EDGE_CURVE ( 'NONE', #210, #39, #6, .T. ) ;
#190 = CARTESIAN_POINT ( 'NONE',  ( 0.0000000000000000000, 0.0000000000000000000, 1.968503999999999809 ) ) ;
#191 = APPLICATION_CONTEXT ( 'automotive_design' ) ;
#192 = CIRCLE ( 'NONE', #91, 0.003936999999999995191 ) ;
#193 = DIRECTION ( 'NONE',  ( -1.000000000000000000, 0.0000000000000000000, 0.0000000000000000000 ) ) ;
#194 = STYLED_ITEM ( 'NONE', ( #187 ), #220 ) ;
#195 = EDGE_LOOP ( 'NONE', ( #229, #175, #99, #228 ) ) ;
#196 = ORIENTED_EDGE ( 'NONE', *, *, #34, .T. ) ;
#197 = UNCERTAINTY_MEASURE_WITH_UNIT (LENGTH_MEASURE( 1.000000000000000082E-05 ), #186, 'distance_accuracy_value', 'NONE');
#198 = ORIENTED_EDGE ( 'NONE', *, *, #103, .T. ) ;
#199 = CIRCLE ( 'NONE', #107, 0.07874000000000000443 ) ;
#200 = ADVANCED_FACE ( 'NONE', ( #26 ), #102, .T. ) ;
#201 = PRODUCT_DEFINITION_SHAPE ( 'NONE', 'NONE',  #179 ) ;
#202 = LINE ( 'NONE', #79, #71 ) ;
#203 = UNCERTAINTY_MEASURE_WITH_UNIT (LENGTH_MEASURE( 1.000000000000000082E-05 ), #68, 'distance_accuracy_value', 'NONE');
#204 = DIRECTION ( 'NONE',  ( -1.000000000000000000, 0.0000000000000000000, 0.0000000000000000000 ) ) ;
#205 = SURFACE_STYLE_USAGE ( .BOTH. , #82 ) ;
#206 = FILL_AREA_STYLE_COLOUR ( '', #47 ) ;
#207 = SURFACE_STYLE_USAGE ( .BOTH. , #146 ) ;
#208 = AXIS2_PLACEMENT_3D ( 'NONE', #105, #46, #164 ) ;
#209 = APPLICATION_CONTEXT ( 'automotive_design' ) ;
#210 = VERTEX_POINT ( 'NONE', #9 ) ;
#211 = FACE_OUTER_BOUND ( 'NONE', #195, .T. ) ;
#212 = PRODUCT_DEFINITION_FORMATION_WITH_SPECIFIED_SOURCE ( 'ANY', '', #100, .NOT_KNOWN. ) ;
#213 = EDGE_CURVE ( 'NONE', #227, #109, #80, .T. ) ;
#214 = ORIENTED_EDGE ( 'NONE', *, *, #166, .F. ) ;
#215 = ORIENTED_EDGE ( 'NONE', *, *, #113, .T. ) ;
#216 = ORIENTED_EDGE ( 'NONE', *, *, #213, .F. ) ;
#217 = LENGTH_MEASURE_WITH_UNIT ( LENGTH_MEASURE( 0.02539999999999999897 ), #242 );
#218 = CARTESIAN_POINT ( 'NONE',  ( -0.003936999999999995191, -4.821434448243123477E-19, 1.968503999999999809 ) ) ;
#219 = DIRECTION ( 'NONE',  ( -0.0000000000000000000, -0.0000000000000000000, -1.000000000000000000 ) ) ;
#220 = ADVANCED_BREP_SHAPE_REPRESENTATION ( 'Micro_RTCM-040-2X', ( #162, #92 ), #173 ) ;
#221 = FACE_OUTER_BOUND ( 'NONE', #176, .T. ) ;
#222 = EDGE_CURVE ( 'NONE', #42, #77, #152, .T. ) ;
#223 = EDGE_CURVE ( 'NONE', #39, #77, #171, .T. ) ;
#224 =( NAMED_UNIT ( * ) PLANE_ANGLE_UNIT ( ) SI_UNIT ( $, .RADIAN. ) );
#225 =( LENGTH_UNIT ( ) NAMED_UNIT ( * ) SI_UNIT ( $, .METRE. ) );
#226 = EDGE_LOOP ( 'NONE', ( #44, #215, #111, #75 ) ) ;
#227 = VERTEX_POINT ( 'NONE', #33 ) ;
#228 = ORIENTED_EDGE ( 'NONE', *, *, #103, .F. ) ;
#229 = ORIENTED_EDGE ( 'NONE', *, *, #144, .F. ) ;
#230 = DIRECTION ( 'NONE',  ( 0.0000000000000000000, 0.0000000000000000000, 1.000000000000000000 ) ) ;
#231 = DIRECTION ( 'NONE',  ( 0.0000000000000000000, 0.0000000000000000000, 1.000000000000000000 ) ) ;
#232 = LINE ( 'NONE', #23, #69 ) ;
#233 = EDGE_CURVE ( 'NONE', #2, #22, #86, .T. ) ;
#234 = DIRECTION ( 'NONE',  ( 0.0000000000000000000, 0.0000000000000000000, -1.000000000000000000 ) ) ;
#235 = DIRECTION ( 'NONE',  ( -1.000000000000000000, 0.0000000000000000000, 0.0000000000000000000 ) ) ;
#236 = VECTOR ( 'NONE', #45, 39.37007874015748854 ) ;
#237 = DIRECTION ( 'NONE',  ( -1.000000000000000000, 0.0000000000000000000, 0.0000000000000000000 ) ) ;
#238 = DIMENSIONAL_EXPONENTS ( 1.000000000000000000, 0.0000000000000000000, 0.0000000000000000000, 0.0000000000000000000, 0.0000000000000000000, 0.0000000000000000000, 0.0000000000000000000 ) ;
#239 = ADVANCED_FACE ( 'NONE', ( #35 ), #158, .T. ) ;
#240 = DIRECTION ( 'NONE',  ( -0.2588190451025217387, 3.169619151431776651E-17, 0.9659258262890679791 ) ) ;
#241 = DIMENSIONAL_EXPONENTS ( 1.000000000000000000, 0.0000000000000000000, 0.0000000000000000000, 0.0000000000000000000, 0.0000000000000000000, 0.0000000000000000000, 0.0000000000000000000 ) ;
#242 =( LENGTH_UNIT ( ) NAMED_UNIT ( * ) SI_UNIT ( $, .METRE. ) );
#243 = CONICAL_SURFACE ( 'NONE', #50, 0.003936999999999995191, 0.2617993877991504625 ) ;
#244 = DIRECTION ( 'NONE',  ( 0.0000000000000000000, 0.0000000000000000000, -1.000000000000000000 ) ) ;
#245 =( NAMED_UNIT ( * ) SI_UNIT ( $, .STERADIAN. ) SOLID_ANGLE_UNIT ( ) );
#246 = DIRECTION ( 'NONE',  ( 0.0000000000000000000, 0.0000000000000000000, 1.000000000000000000 ) ) ;
#247 = PRODUCT_CONTEXT ( 'NONE', #209, 'mechanical' ) ;
#248 = AXIS2_PLACEMENT_3D ( 'NONE', #163, #219, #235 ) ;
#249 = FACE_OUTER_BOUND ( 'NONE', #226, .T. ) ;
ENDSEC;
END-ISO-10303-21;
