ISO-10303-21;
HEADER;
FILE_DESCRIPTION (( 'STEP AP214' ),
    '1' );
FILE_NAME ('83866.STEP',
    '2023-07-12T13:07:27',
    ( '' ),
    ( '' ),
    'SwSTEP 2.0',
    'SolidWorks 2023',
    '' );
FILE_SCHEMA (( 'AUTOMOTIVE_DESIGN' ));
ENDSEC;

DATA;
#1 = APPLICATION_CONTEXT ( 'automotive_design' ) ;
#2 = EDGE_LOOP ( 'NONE', ( #178, #253 ) ) ;
#3 =( GEOMETRIC_REPRESENTATION_CONTEXT ( 3 ) GLOBAL_UNCERTAINTY_ASSIGNED_CONTEXT ( ( #65 ) ) GLOBAL_UNIT_ASSIGNED_CONTEXT ( ( #215, #290, #153 ) ) REPRESENTATION_CONTEXT ( 'NONE', 'WORKASPACE' ) );
#4 =( LENGTH_UNIT ( ) NAMED_UNIT ( * ) SI_UNIT ( $, .METRE. ) );
#5 = COLOUR_RGB ( '',1.000000000000000000, 0.000000000000000000, 0.000000000000000000 ) ;
#6 =( NAMED_UNIT ( * ) SI_UNIT ( $, .STERADIAN. ) SOLID_ANGLE_UNIT ( ) );
#7 = CARTESIAN_POINT ( 'NONE',  ( 3.061616997868382155E-16, 1.499999999999999778, 0.000000000000000000 ) ) ;
#8 = PRESENTATION_STYLE_ASSIGNMENT (( #149 ) ) ;
#9 = COLOUR_RGB ( '',0.7921568627450980005, 0.8196078431372548767, 0.9333333333333333481 ) ;
#10 = PRESENTATION_LAYER_ASSIGNMENT (  '', '', ( #141 ) ) ;
#11 = EDGE_LOOP ( 'NONE', ( #88, #139 ) ) ;
#12 = CARTESIAN_POINT ( 'NONE',  ( 7.759858224610213193E-36, 3.939507132779483357E-19, 0.000000000000000000 ) ) ;
#13 = DIRECTION ( 'NONE',  ( 1.000000000000000000, -1.969753566389741688E-17, 0.000000000000000000 ) ) ;
#14 = DIRECTION ( 'NONE',  ( -1.969753566389741688E-17, -1.000000000000000000, 0.000000000000000000 ) ) ;
#15 = EDGE_LOOP ( 'NONE', ( #53, #225 ) ) ;
#16 = VECTOR ( 'NONE', #169, 39.37007874015748143 ) ;
#17 = AXIS2_PLACEMENT_3D ( 'NONE', #237, #35, #221 ) ;
#18 = ADVANCED_BREP_SHAPE_REPRESENTATION ( '83866', ( #166, #161, #62 ), #171 ) ;
#19 = DIMENSIONAL_EXPONENTS ( 1.000000000000000000, 0.000000000000000000, 0.000000000000000000, 0.000000000000000000, 0.000000000000000000, 0.000000000000000000, 0.000000000000000000 ) ;
#20 = DIRECTION ( 'NONE',  ( 1.000000000000000000, -1.969753566389741688E-17, 0.000000000000000000 ) ) ;
#21 = SURFACE_STYLE_USAGE ( .BOTH. , #70 ) ;
#22 = DIMENSIONAL_EXPONENTS ( 1.000000000000000000, 0.000000000000000000, 0.000000000000000000, 0.000000000000000000, 0.000000000000000000, 0.000000000000000000, 0.000000000000000000 ) ;
#23 = PRESENTATION_STYLE_ASSIGNMENT (( #279 ) ) ;
#24 = SHAPE_DEFINITION_REPRESENTATION ( #117, #18 ) ;
#25 = AXIS2_PLACEMENT_3D ( 'NONE', #308, #226, #20 ) ;
#26 = FACE_OUTER_BOUND ( 'NONE', #242, .T. ) ;
#27 = CIRCLE ( 'NONE', #278, 0.06249999999999945183 ) ;
#28 = DIRECTION ( 'NONE',  ( -1.308125060991543796E-16, 1.000000000000000000, -0.000000000000000000 ) ) ;
#29 = CARTESIAN_POINT ( 'NONE',  ( -0.02000000000000000042, 7.879014265558966714E-19, 0.000000000000000000 ) ) ;
#30 = PRODUCT_DEFINITION ( 'UNKNOWN', '', #249, #255 ) ;
#31 = CARTESIAN_POINT ( 'NONE',  ( 0.06249999999999995143, 0.07361215932167705644, 7.654042494670951382E-18 ) ) ;
#32 = EDGE_CURVE ( 'NONE', #82, #219, #138, .T. ) ;
#33 = DIRECTION ( 'NONE',  ( 1.308125060991543796E-16, -1.000000000000000000, 0.000000000000000000 ) ) ;
#34 = CARTESIAN_POINT ( 'NONE',  ( 4.927510678953310113E-16, 0.07361215932167698706, 0.000000000000000000 ) ) ;
#35 = DIRECTION ( 'NONE',  ( -1.969753566389741688E-17, -1.000000000000000000, -0.000000000000000000 ) ) ;
#36 = ADVANCED_FACE ( 'NONE', ( #26 ), #229, .T. ) ;
#37 =( NAMED_UNIT ( * ) PLANE_ANGLE_UNIT ( ) SI_UNIT ( $, .RADIAN. ) );
#38 = PRESENTATION_LAYER_ASSIGNMENT (  '', '', ( #100 ) ) ;
#39 = SURFACE_SIDE_STYLE ('',( #243 ) ) ;
#40 = FACE_OUTER_BOUND ( 'NONE', #11, .T. ) ;
#41 = ORIENTED_EDGE ( 'NONE', *, *, #32, .T. ) ;
#42 = SURFACE_STYLE_FILL_AREA ( #118 ) ;
#43 = EDGE_CURVE ( 'NONE', #158, #224, #209, .T. ) ;
#44 = EDGE_LOOP ( 'NONE', ( #75, #94 ) ) ;
#45 = DIMENSIONAL_EXPONENTS ( 1.000000000000000000, 0.000000000000000000, 0.000000000000000000, 0.000000000000000000, 0.000000000000000000, 0.000000000000000000, 0.000000000000000000 ) ;
#46 = STYLED_ITEM ( 'NONE', ( #176 ), #161 ) ;
#47 = DIRECTION ( 'NONE',  ( 0.000000000000000000, 0.000000000000000000, 1.000000000000000000 ) ) ;
#48 = LENGTH_MEASURE_WITH_UNIT ( LENGTH_MEASURE( 0.02539999999999999897 ), #135 );
#49 = APPLICATION_PROTOCOL_DEFINITION ( 'draft international standard', 'automotive_design', 1998, #119 ) ;
#50 =( NAMED_UNIT ( * ) SI_UNIT ( $, .STERADIAN. ) SOLID_ANGLE_UNIT ( ) );
#51 = CIRCLE ( 'NONE', #157, 0.06249999999999963918 ) ;
#52 = DIRECTION ( 'NONE',  ( -1.000000000000000000, 0.000000000000000000, 0.000000000000000000 ) ) ;
#53 = ORIENTED_EDGE ( 'NONE', *, *, #231, .F. ) ;
#54 = AXIS2_PLACEMENT_3D ( 'NONE', #7, #61, #123 ) ;
#55 = CARTESIAN_POINT ( 'NONE',  ( -0.02000000000000000042, 7.879014265558966714E-19, 0.000000000000000000 ) ) ;
#56 = SURFACE_STYLE_USAGE ( .BOTH. , #147 ) ;
#57 =( LENGTH_UNIT ( ) NAMED_UNIT ( * ) SI_UNIT ( $, .METRE. ) );
#58 = UNCERTAINTY_MEASURE_WITH_UNIT (LENGTH_MEASURE( 1.000000000000000082E-05 ), #267, 'distance_accuracy_value', 'NONE');
#59 = CARTESIAN_POINT ( 'NONE',  ( 0.06249999999999995143, 1.499999999999999778, 0.000000000000000000 ) ) ;
#60 = AXIS2_PLACEMENT_3D ( 'NONE', #59, #33, #173 ) ;
#61 = DIRECTION ( 'NONE',  ( -1.308125060991543796E-16, 1.000000000000000000, -0.000000000000000000 ) ) ;
#62 = AXIS2_PLACEMENT_3D ( 'NONE', #160, #47, #134 ) ;
#63 = SURFACE_SIDE_STYLE ('',( #261 ) ) ;
#64 = DIRECTION ( 'NONE',  ( -1.969753566389741688E-17, -1.000000000000000000, -0.000000000000000000 ) ) ;
#65 = UNCERTAINTY_MEASURE_WITH_UNIT (LENGTH_MEASURE( 1.000000000000000082E-05 ), #215, 'distance_accuracy_value', 'NONE');
#66 = ORIENTED_EDGE ( 'NONE', *, *, #148, .F. ) ;
#67 = DIRECTION ( 'NONE',  ( -1.969753566389741688E-17, -1.000000000000000000, -0.000000000000000000 ) ) ;
#68 = STYLED_ITEM ( 'NONE', ( #110 ), #192 ) ;
#69 = SURFACE_STYLE_USAGE ( .BOTH. , #39 ) ;
#70 = SURFACE_SIDE_STYLE ('',( #204 ) ) ;
#71 = ORIENTED_EDGE ( 'NONE', *, *, #244, .F. ) ;
#72 = AXIS2_PLACEMENT_3D ( 'NONE', #254, #28, #52 ) ;
#73 =( GEOMETRIC_REPRESENTATION_CONTEXT ( 3 ) GLOBAL_UNCERTAINTY_ASSIGNED_CONTEXT ( ( #58 ) ) GLOBAL_UNIT_ASSIGNED_CONTEXT ( ( #267, #37, #96 ) ) REPRESENTATION_CONTEXT ( 'NONE', 'WORKASPACE' ) );
#74 = DIRECTION ( 'NONE',  ( -1.000000000000000000, -1.308125060991543796E-16, 0.000000000000000000 ) ) ;
#75 = ORIENTED_EDGE ( 'NONE', *, *, #228, .T. ) ;
#76 = FACE_OUTER_BOUND ( 'NONE', #263, .T. ) ;
#77 = CARTESIAN_POINT ( 'NONE',  ( 0.06249999999999985428, 1.499999999999999778, 7.654042494670902078E-18 ) ) ;
#78 = FACE_OUTER_BOUND ( 'NONE', #200, .T. ) ;
#79 = MECHANICAL_DESIGN_GEOMETRIC_PRESENTATION_REPRESENTATION (  '', ( #141 ), #184 ) ;
#80 = FILL_AREA_STYLE_COLOUR ( '', #262 ) ;
#81 = AXIS2_PLACEMENT_3D ( 'NONE', #289, #67, #105 ) ;
#82 = VERTEX_POINT ( 'NONE', #164 ) ;
#83 = SURFACE_STYLE_FILL_AREA ( #151 ) ;
#84 = CYLINDRICAL_SURFACE ( 'NONE', #172, 0.06249999999999954897 ) ;
#85 = VERTEX_POINT ( 'NONE', #55 ) ;
#86 = DIRECTION ( 'NONE',  ( -1.000000000000000000, 1.969753566389741688E-17, 0.000000000000000000 ) ) ;
#87 = LENGTH_MEASURE_WITH_UNIT ( LENGTH_MEASURE( 0.02539999999999999897 ), #250 );
#88 = ORIENTED_EDGE ( 'NONE', *, *, #208, .T. ) ;
#89 = EDGE_CURVE ( 'NONE', #85, #113, #102, .T. ) ;
#90 = DIRECTION ( 'NONE',  ( -1.000000000000000000, -1.365923996832143689E-16, 0.000000000000000000 ) ) ;
#91 = FILL_AREA_STYLE_COLOUR ( '', #180 ) ;
#92 = ORIENTED_EDGE ( 'NONE', *, *, #208, .F. ) ;
#93 =( CONVERSION_BASED_UNIT ( 'INCH', #48 ) LENGTH_UNIT ( ) NAMED_UNIT ( #268 ) );
#94 = ORIENTED_EDGE ( 'NONE', *, *, #244, .T. ) ;
#95 = PRODUCT ( '83866', '83866', '', ( #304 ) ) ;
#96 =( NAMED_UNIT ( * ) SI_UNIT ( $, .STERADIAN. ) SOLID_ANGLE_UNIT ( ) );
#97 = CIRCLE ( 'NONE', #17, 0.06249999999999995143 ) ;
#98 = ADVANCED_FACE ( 'NONE', ( #122 ), #186, .F. ) ;
#99 = LENGTH_MEASURE_WITH_UNIT ( LENGTH_MEASURE( 0.02539999999999999897 ), #306 );
#100 = STYLED_ITEM ( 'NONE', ( #8 ), #166 ) ;
#101 = PRESENTATION_LAYER_ASSIGNMENT (  '', '', ( #256 ) ) ;
#102 = LINE ( 'NONE', #29, #233 ) ;
#103 = DIRECTION ( 'NONE',  ( 0.5000000000000006661, 0.8660254037844382635, 6.123233995736774664E-17 ) ) ;
#104 = LENGTH_MEASURE_WITH_UNIT ( LENGTH_MEASURE( 0.02539999999999999897 ), #4 );
#105 = DIRECTION ( 'NONE',  ( 1.000000000000000000, 0.000000000000000000, 0.000000000000000000 ) ) ;
#106 = CARTESIAN_POINT ( 'NONE',  ( 0.06249999999999995837, 1.499999999999999778, 7.654042494670908241E-18 ) ) ;
#107 = AXIS2_PLACEMENT_3D ( 'NONE', #129, #64, #167 ) ;
#108 = ORIENTED_EDGE ( 'NONE', *, *, #89, .T. ) ;
#109 = FILL_AREA_STYLE ('',( #170 ) ) ;
#110 = PRESENTATION_STYLE_ASSIGNMENT (( #69 ) ) ;
#111 = LENGTH_MEASURE_WITH_UNIT ( LENGTH_MEASURE( 0.02539999999999999897 ), #280 );
#112 = CIRCLE ( 'NONE', #54, 0.06249999999999963918 ) ;
#113 = VERTEX_POINT ( 'NONE', #217 ) ;
#114 = ADVANCED_FACE ( 'NONE', ( #294 ), #125, .F. ) ;
#115 = ORIENTED_EDGE ( 'NONE', *, *, #228, .F. ) ;
#116 =( CONVERSION_BASED_UNIT ( 'INCH', #274 ) LENGTH_UNIT ( ) NAMED_UNIT ( #45 ) );
#117 = PRODUCT_DEFINITION_SHAPE ( 'NONE', 'NONE',  #30 ) ;
#118 = FILL_AREA_STYLE ('',( #281 ) ) ;
#119 = APPLICATION_CONTEXT ( 'automotive_design' ) ;
#120 = CARTESIAN_POINT ( 'NONE',  ( 0.02000000000000000042, 0.000000000000000000, 2.449293598294706769E-18 ) ) ;
#121 =( GEOMETRIC_REPRESENTATION_CONTEXT ( 3 ) GLOBAL_UNCERTAINTY_ASSIGNED_CONTEXT ( ( #175 ) ) GLOBAL_UNIT_ASSIGNED_CONTEXT ( ( #185, #245, #50 ) ) REPRESENTATION_CONTEXT ( 'NONE', 'WORKASPACE' ) );
#122 = FACE_OUTER_BOUND ( 'NONE', #15, .T. ) ;
#123 = DIRECTION ( 'NONE',  ( -1.000000000000000000, 0.000000000000000000, 0.000000000000000000 ) ) ;
#124 = CIRCLE ( 'NONE', #107, 0.02000000000000000042 ) ;
#125 = PLANE ( 'NONE',  #60 ) ;
#126 = DIRECTION ( 'NONE',  ( -1.308125060991543796E-16, 1.000000000000000000, -0.000000000000000000 ) ) ;
#127 = SURFACE_SIDE_STYLE ('',( #83 ) ) ;
#128 = FILL_AREA_STYLE_COLOUR ( '', #9 ) ;
#129 = CARTESIAN_POINT ( 'NONE',  ( 7.759858224610213193E-36, 3.939507132779483357E-19, 0.000000000000000000 ) ) ;
#130 = CONICAL_SURFACE ( 'NONE', #213, 0.02000000000000000042, 0.5235987755982995928 ) ;
#131 = ORIENTED_EDGE ( 'NONE', *, *, #32, .F. ) ;
#132 = COLOUR_RGB ( '',1.000000000000000000, 0.000000000000000000, 0.000000000000000000 ) ;
#133 = VERTEX_POINT ( 'NONE', #106 ) ;
#134 = DIRECTION ( 'NONE',  ( 1.000000000000000000, 0.000000000000000000, 0.000000000000000000 ) ) ;
#135 =( LENGTH_UNIT ( ) NAMED_UNIT ( * ) SI_UNIT ( $, .METRE. ) );
#136 = PLANE ( 'NONE',  #145 ) ;
#137 = CONICAL_SURFACE ( 'NONE', #307, 0.02000000000000000042, 0.5235987755982995928 ) ;
#138 = LINE ( 'NONE', #210, #299 ) ;
#139 = ORIENTED_EDGE ( 'NONE', *, *, #190, .T. ) ;
#140 = AXIS2_PLACEMENT_3D ( 'NONE', #286, #283, #74 ) ;
#141 = STYLED_ITEM ( 'NONE', ( #23 ), #182 ) ;
#142 = LENGTH_MEASURE_WITH_UNIT ( LENGTH_MEASURE( 0.02539999999999999897 ), #57 );
#143 = DIRECTION ( 'NONE',  ( 1.969753566389741688E-17, 1.000000000000000000, 0.000000000000000000 ) ) ;
#144 = CLOSED_SHELL ( 'NONE', ( #36, #98, #251, #114 ) ) ;
#145 = AXIS2_PLACEMENT_3D ( 'NONE', #222, #14, #13 ) ;
#146 =( NAMED_UNIT ( * ) PLANE_ANGLE_UNIT ( ) SI_UNIT ( $, .RADIAN. ) );
#147 = SURFACE_SIDE_STYLE ('',( #257 ) ) ;
#148 = EDGE_CURVE ( 'NONE', #297, #133, #214, .T. ) ;
#149 = SURFACE_STYLE_USAGE ( .BOTH. , #63 ) ;
#150 = ORIENTED_EDGE ( 'NONE', *, *, #148, .T. ) ;
#151 = FILL_AREA_STYLE ('',( #128 ) ) ;
#152 = AXIS2_PLACEMENT_3D ( 'NONE', #285, #143, #232 ) ;
#153 =( NAMED_UNIT ( * ) SI_UNIT ( $, .STERADIAN. ) SOLID_ANGLE_UNIT ( ) );
#154 = FILL_AREA_STYLE ('',( #270 ) ) ;
#155 = ORIENTED_EDGE ( 'NONE', *, *, #43, .T. ) ;
#156 =( NAMED_UNIT ( * ) SI_UNIT ( $, .STERADIAN. ) SOLID_ANGLE_UNIT ( ) );
#157 = AXIS2_PLACEMENT_3D ( 'NONE', #230, #126, #293 ) ;
#158 = VERTEX_POINT ( 'NONE', #196 ) ;
#159 = FACE_OUTER_BOUND ( 'NONE', #272, .T. ) ;
#160 = CARTESIAN_POINT ( 'NONE',  ( 0.000000000000000000, 0.000000000000000000, 0.000000000000000000 ) ) ;
#161 = MANIFOLD_SOLID_BREP ( 'Revolve - Tool Body (Tipped Off)', #144 ) ;
#162 = MECHANICAL_DESIGN_GEOMETRIC_PRESENTATION_REPRESENTATION (  '', ( #256 ), #73 ) ;
#163 = EDGE_CURVE ( 'NONE', #224, #113, #260, .T. ) ;
#164 = CARTESIAN_POINT ( 'NONE',  ( -0.06249999999999895917, 0.07361215932167698706, 0.000000000000000000 ) ) ;
#165 = PRODUCT_RELATED_PRODUCT_CATEGORY ( 'part', '', ( #95 ) ) ;
#166 = MANIFOLD_SOLID_BREP ( 'Revolve - Cutting Edge', #277 ) ;
#167 = DIRECTION ( 'NONE',  ( 1.000000000000000000, -1.969753566389741688E-17, 0.000000000000000000 ) ) ;
#168 = EDGE_CURVE ( 'NONE', #297, #82, #291, .T. ) ;
#169 = DIRECTION ( 'NONE',  ( -1.308125060991543796E-16, 1.000000000000000000, -0.000000000000000000 ) ) ;
#170 = FILL_AREA_STYLE_COLOUR ( '', #132 ) ;
#171 =( GEOMETRIC_REPRESENTATION_CONTEXT ( 3 ) GLOBAL_UNCERTAINTY_ASSIGNED_CONTEXT ( ( #235 ) ) GLOBAL_UNIT_ASSIGNED_CONTEXT ( ( #199, #201, #183 ) ) REPRESENTATION_CONTEXT ( 'NONE', 'WORKASPACE' ) );
#172 = AXIS2_PLACEMENT_3D ( 'NONE', #194, #218, #295 ) ;
#173 = DIRECTION ( 'NONE',  ( 1.000000000000000000, 1.308125060991543796E-16, 0.000000000000000000 ) ) ;
#174 = DIRECTION ( 'NONE',  ( -1.000000000000000000, -1.365923996832143689E-16, 0.000000000000000000 ) ) ;
#175 = UNCERTAINTY_MEASURE_WITH_UNIT (LENGTH_MEASURE( 1.000000000000000082E-05 ), #185, 'distance_accuracy_value', 'NONE');
#176 = PRESENTATION_STYLE_ASSIGNMENT (( #258 ) ) ;
#177 = ORIENTED_EDGE ( 'NONE', *, *, #163, .T. ) ;
#178 = ORIENTED_EDGE ( 'NONE', *, *, #269, .F. ) ;
#179 = PLANE ( 'NONE',  #152 ) ;
#180 = COLOUR_RGB ( '',1.000000000000000000, 0.000000000000000000, 0.000000000000000000 ) ;
#181 = DIRECTION ( 'NONE',  ( 1.969753566389741688E-17, 1.000000000000000000, 0.000000000000000000 ) ) ;
#182 = ADVANCED_FACE ( 'NONE', ( #159 ), #130, .T. ) ;
#183 =( NAMED_UNIT ( * ) SI_UNIT ( $, .STERADIAN. ) SOLID_ANGLE_UNIT ( ) );
#184 =( GEOMETRIC_REPRESENTATION_CONTEXT ( 3 ) GLOBAL_UNCERTAINTY_ASSIGNED_CONTEXT ( ( #216 ) ) GLOBAL_UNIT_ASSIGNED_CONTEXT ( ( #93, #223, #198 ) ) REPRESENTATION_CONTEXT ( 'NONE', 'WORKASPACE' ) );
#185 =( CONVERSION_BASED_UNIT ( 'INCH', #99 ) LENGTH_UNIT ( ) NAMED_UNIT ( #282 ) );
#186 = PLANE ( 'NONE',  #140 ) ;
#187 = VECTOR ( 'NONE', #103, 39.37007874015748143 ) ;
#188 = ORIENTED_EDGE ( 'NONE', *, *, #43, .F. ) ;
#189 = DIRECTION ( 'NONE',  ( -0.5000000000000006661, 0.8660254037844382635, 0.000000000000000000 ) ) ;
#190 = EDGE_CURVE ( 'NONE', #158, #85, #248, .T. ) ;
#191 = MECHANICAL_DESIGN_GEOMETRIC_PRESENTATION_REPRESENTATION (  '', ( #206 ), #3 ) ;
#192 = ADVANCED_FACE ( 'NONE', ( #301 ), #179, .T. ) ;
#193 = FILL_AREA_STYLE ('',( #80 ) ) ;
#194 = CARTESIAN_POINT ( 'NONE',  ( 3.061616997868382155E-16, 1.499999999999999778, 0.000000000000000000 ) ) ;
#195 = PRESENTATION_LAYER_ASSIGNMENT (  '', '', ( #68 ) ) ;
#196 = CARTESIAN_POINT ( 'NONE',  ( 0.02000000000000000042, 0.000000000000000000, 5.051668046482829268E-18 ) ) ;
#197 = DIRECTION ( 'NONE',  ( -1.308125060991543796E-16, 1.000000000000000000, -0.000000000000000000 ) ) ;
#198 =( NAMED_UNIT ( * ) SI_UNIT ( $, .STERADIAN. ) SOLID_ANGLE_UNIT ( ) );
#199 =( CONVERSION_BASED_UNIT ( 'INCH', #111 ) LENGTH_UNIT ( ) NAMED_UNIT ( #19 ) );
#200 = EDGE_LOOP ( 'NONE', ( #247, #155, #177, #302 ) ) ;
#201 =( NAMED_UNIT ( * ) PLANE_ANGLE_UNIT ( ) SI_UNIT ( $, .RADIAN. ) );
#202 = DIRECTION ( 'NONE',  ( -1.308125060991543796E-16, 1.000000000000000000, -0.000000000000000000 ) ) ;
#203 = APPLICATION_PROTOCOL_DEFINITION ( 'draft international standard', 'automotive_design', 1998, #1 ) ;
#204 = SURFACE_STYLE_FILL_AREA ( #246 ) ;
#205 = DIRECTION ( 'NONE',  ( 1.969753566389741688E-17, 1.000000000000000000, 0.000000000000000000 ) ) ;
#206 = STYLED_ITEM ( 'NONE', ( #259 ), #292 ) ;
#207 =( GEOMETRIC_REPRESENTATION_CONTEXT ( 3 ) GLOBAL_UNCERTAINTY_ASSIGNED_CONTEXT ( ( #288 ) ) GLOBAL_UNIT_ASSIGNED_CONTEXT ( ( #239, #146, #6 ) ) REPRESENTATION_CONTEXT ( 'NONE', 'WORKASPACE' ) );
#208 = EDGE_CURVE ( 'NONE', #85, #158, #124, .T. ) ;
#209 = LINE ( 'NONE', #120, #187 ) ;
#210 = CARTESIAN_POINT ( 'NONE',  ( -0.06249999999999923672, 1.499999999999999778, 0.000000000000000000 ) ) ;
#211 = AXIS2_PLACEMENT_3D ( 'NONE', #264, #202, #90 ) ;
#212 = MECHANICAL_DESIGN_GEOMETRIC_PRESENTATION_REPRESENTATION (  '', ( #46 ), #207 ) ;
#213 = AXIS2_PLACEMENT_3D ( 'NONE', #296, #181, #86 ) ;
#214 = LINE ( 'NONE', #77, #16 ) ;
#215 =( CONVERSION_BASED_UNIT ( 'INCH', #104 ) LENGTH_UNIT ( ) NAMED_UNIT ( #276 ) );
#216 = UNCERTAINTY_MEASURE_WITH_UNIT (LENGTH_MEASURE( 1.000000000000000082E-05 ), #93, 'distance_accuracy_value', 'NONE');
#217 = CARTESIAN_POINT ( 'NONE',  ( -0.06249999999999995143, 0.07361215932167705644, 0.000000000000000000 ) ) ;
#218 = DIRECTION ( 'NONE',  ( -1.308125060991543796E-16, 1.000000000000000000, -0.000000000000000000 ) ) ;
#219 = VERTEX_POINT ( 'NONE', #287 ) ;
#220 = COLOUR_RGB ( '',1.000000000000000000, 0.000000000000000000, 0.000000000000000000 ) ;
#221 = DIRECTION ( 'NONE',  ( 1.000000000000000000, 0.000000000000000000, 0.000000000000000000 ) ) ;
#222 = CARTESIAN_POINT ( 'NONE',  ( 3.879929112305106597E-36, 1.969753566389741679E-19, 0.000000000000000000 ) ) ;
#223 =( NAMED_UNIT ( * ) PLANE_ANGLE_UNIT ( ) SI_UNIT ( $, .RADIAN. ) );
#224 = VERTEX_POINT ( 'NONE', #31 ) ;
#225 = ORIENTED_EDGE ( 'NONE', *, *, #168, .F. ) ;
#226 = DIRECTION ( 'NONE',  ( -1.969753566389741688E-17, -1.000000000000000000, -0.000000000000000000 ) ) ;
#227 = MECHANICAL_DESIGN_GEOMETRIC_PRESENTATION_REPRESENTATION (  '', ( #100 ), #234 ) ;
#228 = EDGE_CURVE ( 'NONE', #219, #133, #51, .T. ) ;
#229 = CYLINDRICAL_SURFACE ( 'NONE', #72, 0.06249999999999954897 ) ;
#230 = CARTESIAN_POINT ( 'NONE',  ( 3.061616997868382155E-16, 1.499999999999999778, 0.000000000000000000 ) ) ;
#231 = EDGE_CURVE ( 'NONE', #82, #297, #27, .T. ) ;
#232 = DIRECTION ( 'NONE',  ( -1.000000000000000000, 1.969753566389741688E-17, 0.000000000000000000 ) ) ;
#233 = VECTOR ( 'NONE', #189, 39.37007874015748143 ) ;
#234 =( GEOMETRIC_REPRESENTATION_CONTEXT ( 3 ) GLOBAL_UNCERTAINTY_ASSIGNED_CONTEXT ( ( #284 ) ) GLOBAL_UNIT_ASSIGNED_CONTEXT ( ( #116, #303, #156 ) ) REPRESENTATION_CONTEXT ( 'NONE', 'WORKASPACE' ) );
#235 = UNCERTAINTY_MEASURE_WITH_UNIT (LENGTH_MEASURE( 1.000000000000000082E-05 ), #199, 'distance_accuracy_value', 'NONE');
#236 =( LENGTH_UNIT ( ) NAMED_UNIT ( * ) SI_UNIT ( $, .METRE. ) );
#237 = CARTESIAN_POINT ( 'NONE',  ( 1.449978133535232595E-18, 0.07361215932167705644, 0.000000000000000000 ) ) ;
#238 = PRESENTATION_LAYER_ASSIGNMENT (  '', '', ( #206 ) ) ;
#239 =( CONVERSION_BASED_UNIT ( 'INCH', #142 ) LENGTH_UNIT ( ) NAMED_UNIT ( #273 ) );
#240 = DIRECTION ( 'NONE',  ( -1.000000000000000000, 1.969753566389741688E-17, 0.000000000000000000 ) ) ;
#241 = PRESENTATION_LAYER_ASSIGNMENT (  '', '', ( #46 ) ) ;
#242 = EDGE_LOOP ( 'NONE', ( #275, #150, #115, #131 ) ) ;
#243 = SURFACE_STYLE_FILL_AREA ( #154 ) ;
#244 = EDGE_CURVE ( 'NONE', #133, #219, #112, .T. ) ;
#245 =( NAMED_UNIT ( * ) PLANE_ANGLE_UNIT ( ) SI_UNIT ( $, .RADIAN. ) );
#246 = FILL_AREA_STYLE ('',( #91 ) ) ;
#247 = ORIENTED_EDGE ( 'NONE', *, *, #190, .F. ) ;
#248 = CIRCLE ( 'NONE', #25, 0.02000000000000000042 ) ;
#249 = PRODUCT_DEFINITION_FORMATION_WITH_SPECIFIED_SOURCE ( 'ANY', '', #95, .NOT_KNOWN. ) ;
#250 =( LENGTH_UNIT ( ) NAMED_UNIT ( * ) SI_UNIT ( $, .METRE. ) );
#251 = ADVANCED_FACE ( 'NONE', ( #76 ), #84, .T. ) ;
#252 = DIRECTION ( 'NONE',  ( -1.308125060991543796E-16, 1.000000000000000000, -0.000000000000000000 ) ) ;
#253 = ORIENTED_EDGE ( 'NONE', *, *, #163, .F. ) ;
#254 = CARTESIAN_POINT ( 'NONE',  ( 3.061616997868382155E-16, 1.499999999999999778, 0.000000000000000000 ) ) ;
#255 = PRODUCT_DEFINITION_CONTEXT ( 'detailed design', #119, 'design' ) ;
#256 = STYLED_ITEM ( 'NONE', ( #309 ), #298 ) ;
#257 = SURFACE_STYLE_FILL_AREA ( #109 ) ;
#258 = SURFACE_STYLE_USAGE ( .BOTH. , #127 ) ;
#259 = PRESENTATION_STYLE_ASSIGNMENT (( #56 ) ) ;
#260 = CIRCLE ( 'NONE', #81, 0.06249999999999995143 ) ;
#261 = SURFACE_STYLE_FILL_AREA ( #193 ) ;
#262 = COLOUR_RGB ( '',0.7921568627450980005, 0.8196078431372548767, 0.9333333333333333481 ) ;
#263 = EDGE_LOOP ( 'NONE', ( #66, #305, #41, #71 ) ) ;
#264 = CARTESIAN_POINT ( 'NONE',  ( 4.927510678953310113E-16, 0.07361215932167698706, 0.000000000000000000 ) ) ;
#265 = ORIENTED_EDGE ( 'NONE', *, *, #269, .T. ) ;
#266 = SURFACE_SIDE_STYLE ('',( #42 ) ) ;
#267 =( CONVERSION_BASED_UNIT ( 'INCH', #87 ) LENGTH_UNIT ( ) NAMED_UNIT ( #22 ) );
#268 = DIMENSIONAL_EXPONENTS ( 1.000000000000000000, 0.000000000000000000, 0.000000000000000000, 0.000000000000000000, 0.000000000000000000, 0.000000000000000000, 0.000000000000000000 ) ;
#269 = EDGE_CURVE ( 'NONE', #113, #224, #97, .T. ) ;
#270 = FILL_AREA_STYLE_COLOUR ( '', #220 ) ;
#271 = CARTESIAN_POINT ( 'NONE',  ( 0.06249999999999995837, 0.07361215932167700093, 7.654042494670908241E-18 ) ) ;
#272 = EDGE_LOOP ( 'NONE', ( #188, #92, #108, #265 ) ) ;
#273 = DIMENSIONAL_EXPONENTS ( 1.000000000000000000, 0.000000000000000000, 0.000000000000000000, 0.000000000000000000, 0.000000000000000000, 0.000000000000000000, 0.000000000000000000 ) ;
#274 = LENGTH_MEASURE_WITH_UNIT ( LENGTH_MEASURE( 0.02539999999999999897 ), #236 );
#275 = ORIENTED_EDGE ( 'NONE', *, *, #231, .T. ) ;
#276 = DIMENSIONAL_EXPONENTS ( 1.000000000000000000, 0.000000000000000000, 0.000000000000000000, 0.000000000000000000, 0.000000000000000000, 0.000000000000000000, 0.000000000000000000 ) ;
#277 = CLOSED_SHELL ( 'NONE', ( #292, #192, #182, #298 ) ) ;
#278 = AXIS2_PLACEMENT_3D ( 'NONE', #34, #197, #174 ) ;
#279 = SURFACE_STYLE_USAGE ( .BOTH. , #266 ) ;
#280 =( LENGTH_UNIT ( ) NAMED_UNIT ( * ) SI_UNIT ( $, .METRE. ) );
#281 = FILL_AREA_STYLE_COLOUR ( '', #5 ) ;
#282 = DIMENSIONAL_EXPONENTS ( 1.000000000000000000, 0.000000000000000000, 0.000000000000000000, 0.000000000000000000, 0.000000000000000000, 0.000000000000000000, 0.000000000000000000 ) ;
#283 = DIRECTION ( 'NONE',  ( -1.308125060991543796E-16, 1.000000000000000000, 0.000000000000000000 ) ) ;
#284 = UNCERTAINTY_MEASURE_WITH_UNIT (LENGTH_MEASURE( 1.000000000000000082E-05 ), #116, 'distance_accuracy_value', 'NONE');
#285 = CARTESIAN_POINT ( 'NONE',  ( 1.449978133535231824E-18, 0.07361215932167702869, 0.000000000000000000 ) ) ;
#286 = CARTESIAN_POINT ( 'NONE',  ( 4.927510678953310113E-16, 0.07361215932167705644, 0.000000000000000000 ) ) ;
#287 = CARTESIAN_POINT ( 'NONE',  ( -0.06249999999999933387, 1.499999999999999778, 0.000000000000000000 ) ) ;
#288 = UNCERTAINTY_MEASURE_WITH_UNIT (LENGTH_MEASURE( 1.000000000000000082E-05 ), #239, 'distance_accuracy_value', 'NONE');
#289 = CARTESIAN_POINT ( 'NONE',  ( 1.449978133535232595E-18, 0.07361215932167705644, 0.000000000000000000 ) ) ;
#290 =( NAMED_UNIT ( * ) PLANE_ANGLE_UNIT ( ) SI_UNIT ( $, .RADIAN. ) );
#291 = CIRCLE ( 'NONE', #211, 0.06249999999999945183 ) ;
#292 = ADVANCED_FACE ( 'NONE', ( #78 ), #137, .T. ) ;
#293 = DIRECTION ( 'NONE',  ( -1.000000000000000000, 0.000000000000000000, 0.000000000000000000 ) ) ;
#294 = FACE_OUTER_BOUND ( 'NONE', #44, .T. ) ;
#295 = DIRECTION ( 'NONE',  ( -1.000000000000000000, 0.000000000000000000, 0.000000000000000000 ) ) ;
#296 = CARTESIAN_POINT ( 'NONE',  ( 7.759858224610213193E-36, 3.939507132779483357E-19, 0.000000000000000000 ) ) ;
#297 = VERTEX_POINT ( 'NONE', #271 ) ;
#298 = ADVANCED_FACE ( 'NONE', ( #40 ), #136, .T. ) ;
#299 = VECTOR ( 'NONE', #252, 39.37007874015748143 ) ;
#300 = MECHANICAL_DESIGN_GEOMETRIC_PRESENTATION_REPRESENTATION (  '', ( #68 ), #121 ) ;
#301 = FACE_OUTER_BOUND ( 'NONE', #2, .T. ) ;
#302 = ORIENTED_EDGE ( 'NONE', *, *, #89, .F. ) ;
#303 =( NAMED_UNIT ( * ) PLANE_ANGLE_UNIT ( ) SI_UNIT ( $, .RADIAN. ) );
#304 = PRODUCT_CONTEXT ( 'NONE', #1, 'mechanical' ) ;
#305 = ORIENTED_EDGE ( 'NONE', *, *, #168, .T. ) ;
#306 =( LENGTH_UNIT ( ) NAMED_UNIT ( * ) SI_UNIT ( $, .METRE. ) );
#307 = AXIS2_PLACEMENT_3D ( 'NONE', #12, #205, #240 ) ;
#308 = CARTESIAN_POINT ( 'NONE',  ( 7.759858224610213193E-36, 3.939507132779483357E-19, 0.000000000000000000 ) ) ;
#309 = PRESENTATION_STYLE_ASSIGNMENT (( #21 ) ) ;
ENDSEC;
END-ISO-10303-21;
