ISO-10303-21;
HEADER;
FILE_DESCRIPTION (( 'STEP AP214' ),
    '1' );
FILE_NAME ('81941.STEP',
    '2023-06-23T04:01:44',
    ( '' ),
    ( '' ),
    'SwSTEP 2.0',
    'SolidWorks 2023',
    '' );
FILE_SCHEMA (( 'AUTOMOTIVE_DESIGN' ));
ENDSEC;

DATA;
#1 = FACE_OUTER_BOUND ( 'NONE', #252, .T. ) ;
#2 =( NAMED_UNIT ( * ) SI_UNIT ( $, .STERADIAN. ) SOLID_ANGLE_UNIT ( ) );
#3 = COLOUR_RGB ( '',1.000000000000000000, 0.000000000000000000, 0.000000000000000000 ) ;
#4 = DIRECTION ( 'NONE',  ( 5.442874662877122010E-17, 1.000000000000000000, -0.000000000000000000 ) ) ;
#5 = DIMENSIONAL_EXPONENTS ( 1.000000000000000000, 0.000000000000000000, 0.000000000000000000, 0.000000000000000000, 0.000000000000000000, 0.000000000000000000, 0.000000000000000000 ) ;
#6 = FACE_OUTER_BOUND ( 'NONE', #128, .T. ) ;
#7 = DIRECTION ( 'NONE',  ( -1.000000000000000000, 0.000000000000000000, 0.000000000000000000 ) ) ;
#8 = AXIS2_PLACEMENT_3D ( 'NONE', #34, #220, #101 ) ;
#9 = EDGE_LOOP ( 'NONE', ( #198, #226, #281, #111 ) ) ;
#10 = DIRECTION ( 'NONE',  ( -0.000000000000000000, -1.000000000000000000, -0.000000000000000000 ) ) ;
#11 = ORIENTED_EDGE ( 'NONE', *, *, #305, .T. ) ;
#12 = PRESENTATION_STYLE_ASSIGNMENT (( #253 ) ) ;
#13 = UNCERTAINTY_MEASURE_WITH_UNIT (LENGTH_MEASURE( 1.000000000000000082E-05 ), #177, 'distance_accuracy_value', 'NONE');
#14 = ORIENTED_EDGE ( 'NONE', *, *, #292, .F. ) ;
#15 = APPLICATION_PROTOCOL_DEFINITION ( 'draft international standard', 'automotive_design', 1998, #169 ) ;
#16 = AXIS2_PLACEMENT_3D ( 'NONE', #147, #219, #272 ) ;
#17 = SURFACE_STYLE_FILL_AREA ( #21 ) ;
#18 = FILL_AREA_STYLE ('',( #231 ) ) ;
#19 = CYLINDRICAL_SURFACE ( 'NONE', #221, 0.3124999999999999445 ) ;
#20 =( LENGTH_UNIT ( ) NAMED_UNIT ( * ) SI_UNIT ( $, .METRE. ) );
#21 = FILL_AREA_STYLE ('',( #179 ) ) ;
#22 = ADVANCED_FACE ( 'NONE', ( #45 ), #133, .T. ) ;
#23 = STYLED_ITEM ( 'NONE', ( #156 ), #57 ) ;
#24 = DIRECTION ( 'NONE',  ( 0.000000000000000000, -0.000000000000000000, 1.000000000000000000 ) ) ;
#25 = DIRECTION ( 'NONE',  ( 5.442874662877122010E-17, 1.000000000000000000, -0.000000000000000000 ) ) ;
#26 = SURFACE_SIDE_STYLE ('',( #160 ) ) ;
#27 = LENGTH_MEASURE_WITH_UNIT ( LENGTH_MEASURE( 0.02539999999999999897 ), #277 );
#28 =( NAMED_UNIT ( * ) PLANE_ANGLE_UNIT ( ) SI_UNIT ( $, .RADIAN. ) );
#29 = CIRCLE ( 'NONE', #145, 0.3125000000000000000 ) ;
#30 = SURFACE_SIDE_STYLE ('',( #244 ) ) ;
#31 = STYLED_ITEM ( 'NONE', ( #12 ), #289 ) ;
#32 = DIRECTION ( 'NONE',  ( 5.442874662877122626E-17, 1.000000000000000000, -0.000000000000000000 ) ) ;
#33 = DIRECTION ( 'NONE',  ( -1.000000000000000000, 0.000000000000000000, 0.000000000000000000 ) ) ;
#34 = CARTESIAN_POINT ( 'NONE',  ( 1.224646799147352714E-16, 3.000000000000000444, 0.000000000000000000 ) ) ;
#35 = PLANE ( 'NONE',  #16 ) ;
#36 = CARTESIAN_POINT ( 'NONE',  ( -1.516480271171051896E-32, 0.7499999999999998890, 0.000000000000000000 ) ) ;
#37 = ORIENTED_EDGE ( 'NONE', *, *, #199, .F. ) ;
#38 = VECTOR ( 'NONE', #25, 39.37007874015748143 ) ;
#39 = ORIENTED_EDGE ( 'NONE', *, *, #254, .F. ) ;
#40 = ORIENTED_EDGE ( 'NONE', *, *, #108, .F. ) ;
#41 =( NAMED_UNIT ( * ) PLANE_ANGLE_UNIT ( ) SI_UNIT ( $, .RADIAN. ) );
#42 = SURFACE_STYLE_FILL_AREA ( #172 ) ;
#43 = ORIENTED_EDGE ( 'NONE', *, *, #175, .F. ) ;
#44 = MECHANICAL_DESIGN_GEOMETRIC_PRESENTATION_REPRESENTATION (  '', ( #23 ), #55 ) ;
#45 = FACE_OUTER_BOUND ( 'NONE', #278, .T. ) ;
#46 = CLOSED_SHELL ( 'NONE', ( #240, #52, #154, #188 ) ) ;
#47 =( NAMED_UNIT ( * ) PLANE_ANGLE_UNIT ( ) SI_UNIT ( $, .RADIAN. ) );
#48 = PRESENTATION_STYLE_ASSIGNMENT (( #262 ) ) ;
#49 = SURFACE_STYLE_FILL_AREA ( #118 ) ;
#50 = AXIS2_PLACEMENT_3D ( 'NONE', #259, #134, #183 ) ;
#51 =( CONVERSION_BASED_UNIT ( 'INCH', #123 ) LENGTH_UNIT ( ) NAMED_UNIT ( #97 ) );
#52 = ADVANCED_FACE ( 'NONE', ( #135 ), #265, .F. ) ;
#53 = PRESENTATION_STYLE_ASSIGNMENT (( #121 ) ) ;
#54 = MANIFOLD_SOLID_BREP ( 'Revolve - Tool Body (Straight Shanked)', #46 ) ;
#55 =( GEOMETRIC_REPRESENTATION_CONTEXT ( 3 ) GLOBAL_UNCERTAINTY_ASSIGNED_CONTEXT ( ( #102 ) ) GLOBAL_UNIT_ASSIGNED_CONTEXT ( ( #51, #190, #163 ) ) REPRESENTATION_CONTEXT ( 'NONE', 'WORKASPACE' ) );
#56 = FACE_OUTER_BOUND ( 'NONE', #152, .T. ) ;
#57 = MANIFOLD_SOLID_BREP ( 'Revolve - Cutting Edge', #288 ) ;
#58 = CARTESIAN_POINT ( 'NONE',  ( 0.000000000000000000, 0.7499999999999998890, 0.000000000000000000 ) ) ;
#59 = LINE ( 'NONE', #85, #186 ) ;
#60 = PRODUCT_DEFINITION_CONTEXT ( 'detailed design', #169, 'design' ) ;
#61 = VERTEX_POINT ( 'NONE', #98 ) ;
#62 =( LENGTH_UNIT ( ) NAMED_UNIT ( * ) SI_UNIT ( $, .METRE. ) );
#63 = EDGE_LOOP ( 'NONE', ( #224, #176 ) ) ;
#64 = CARTESIAN_POINT ( 'NONE',  ( 3.827021247335478926E-17, 0.000000000000000000, 0.3125000000000000000 ) ) ;
#65 = AXIS2_PLACEMENT_3D ( 'NONE', #290, #103, #126 ) ;
#66 = EDGE_CURVE ( 'NONE', #276, #80, #72, .T. ) ;
#67 = UNCERTAINTY_MEASURE_WITH_UNIT (LENGTH_MEASURE( 1.000000000000000082E-05 ), #208, 'distance_accuracy_value', 'NONE');
#68 = FILL_AREA_STYLE_COLOUR ( '', #209 ) ;
#69 = PRESENTATION_LAYER_ASSIGNMENT (  '', '', ( #201 ) ) ;
#70 = LENGTH_MEASURE_WITH_UNIT ( LENGTH_MEASURE( 0.02539999999999999897 ), #74 );
#71 = COLOUR_RGB ( '',1.000000000000000000, 0.000000000000000000, 0.000000000000000000 ) ;
#72 = CIRCLE ( 'NONE', #196, 0.3125000000000000000 ) ;
#73 = AXIS2_PLACEMENT_3D ( 'NONE', #170, #165, #249 ) ;
#74 =( LENGTH_UNIT ( ) NAMED_UNIT ( * ) SI_UNIT ( $, .METRE. ) );
#75 = CARTESIAN_POINT ( 'NONE',  ( 0.000000000000000000, 0.000000000000000000, 0.000000000000000000 ) ) ;
#76 = DIMENSIONAL_EXPONENTS ( 1.000000000000000000, 0.000000000000000000, 0.000000000000000000, 0.000000000000000000, 0.000000000000000000, 0.000000000000000000, 0.000000000000000000 ) ;
#77 = MECHANICAL_DESIGN_GEOMETRIC_PRESENTATION_REPRESENTATION (  '', ( #309 ), #141 ) ;
#78 = CARTESIAN_POINT ( 'NONE',  ( 0.000000000000000000, 0.000000000000000000, 0.000000000000000000 ) ) ;
#79 = PLANE ( 'NONE',  #50 ) ;
#80 = VERTEX_POINT ( 'NONE', #266 ) ;
#81 = PRODUCT_CONTEXT ( 'NONE', #158, 'mechanical' ) ;
#82 = PRESENTATION_STYLE_ASSIGNMENT (( #149 ) ) ;
#83 = ORIENTED_EDGE ( 'NONE', *, *, #108, .T. ) ;
#84 = PRESENTATION_LAYER_ASSIGNMENT (  '', '', ( #275 ) ) ;
#85 = CARTESIAN_POINT ( 'NONE',  ( 0.000000000000000000, 0.000000000000000000, -0.3125000000000000000 ) ) ;
#86 = EDGE_LOOP ( 'NONE', ( #83, #88, #302, #130 ) ) ;
#87 = CARTESIAN_POINT ( 'NONE',  ( 0.000000000000000000, 0.000000000000000000, 0.000000000000000000 ) ) ;
#88 = ORIENTED_EDGE ( 'NONE', *, *, #245, .T. ) ;
#89 =( NAMED_UNIT ( * ) SI_UNIT ( $, .STERADIAN. ) SOLID_ANGLE_UNIT ( ) );
#90 = MECHANICAL_DESIGN_GEOMETRIC_PRESENTATION_REPRESENTATION (  '', ( #201 ), #127 ) ;
#91 = DIRECTION ( 'NONE',  ( -1.000000000000000000, 5.442874662877122010E-17, 0.000000000000000000 ) ) ;
#92 = LINE ( 'NONE', #286, #38 ) ;
#93 = PRODUCT_DEFINITION ( 'UNKNOWN', '', #116, #60 ) ;
#94 = CIRCLE ( 'NONE', #185, 0.3125000000000000000 ) ;
#95 = ADVANCED_BREP_SHAPE_REPRESENTATION ( '81941', ( #57, #54, #251 ), #162 ) ;
#96 = FILL_AREA_STYLE ('',( #68 ) ) ;
#97 = DIMENSIONAL_EXPONENTS ( 1.000000000000000000, 0.000000000000000000, 0.000000000000000000, 0.000000000000000000, 0.000000000000000000, 0.000000000000000000, 0.000000000000000000 ) ;
#98 = CARTESIAN_POINT ( 'NONE',  ( -0.3124999999999997224, 3.000000000000000444, 0.000000000000000000 ) ) ;
#99 =( CONVERSION_BASED_UNIT ( 'INCH', #70 ) LENGTH_UNIT ( ) NAMED_UNIT ( #144 ) );
#100 = DIRECTION ( 'NONE',  ( -0.000000000000000000, -1.000000000000000000, -0.000000000000000000 ) ) ;
#101 = DIRECTION ( 'NONE',  ( -1.000000000000000000, 0.000000000000000000, 0.000000000000000000 ) ) ;
#102 = UNCERTAINTY_MEASURE_WITH_UNIT (LENGTH_MEASURE( 1.000000000000000082E-05 ), #51, 'distance_accuracy_value', 'NONE');
#103 = DIRECTION ( 'NONE',  ( 5.442874662877122626E-17, 1.000000000000000000, -0.000000000000000000 ) ) ;
#104 = AXIS2_PLACEMENT_3D ( 'NONE', #75, #100, #167 ) ;
#105 = AXIS2_PLACEMENT_3D ( 'NONE', #36, #32, #7 ) ;
#106 = CARTESIAN_POINT ( 'NONE',  ( 0.000000000000000000, 0.000000000000000000, -0.3125000000000000000 ) ) ;
#107 = VERTEX_POINT ( 'NONE', #146 ) ;
#108 = EDGE_CURVE ( 'NONE', #203, #150, #294, .T. ) ;
#109 = CARTESIAN_POINT ( 'NONE',  ( -0.3125000000000000000, 0.7499999999999998890, 0.000000000000000000 ) ) ;
#110 = SHAPE_DEFINITION_REPRESENTATION ( #191, #95 ) ;
#111 = ORIENTED_EDGE ( 'NONE', *, *, #284, .F. ) ;
#112 = ORIENTED_EDGE ( 'NONE', *, *, #66, .F. ) ;
#113 = CARTESIAN_POINT ( 'NONE',  ( 0.000000000000000000, 0.7499999999999998890, 0.000000000000000000 ) ) ;
#114 = APPLICATION_PROTOCOL_DEFINITION ( 'draft international standard', 'automotive_design', 1998, #158 ) ;
#115 = AXIS2_PLACEMENT_3D ( 'NONE', #137, #140, #91 ) ;
#116 = PRODUCT_DEFINITION_FORMATION_WITH_SPECIFIED_SOURCE ( 'ANY', '', #243, .NOT_KNOWN. ) ;
#117 = PRESENTATION_LAYER_ASSIGNMENT (  '', '', ( #31 ) ) ;
#118 = FILL_AREA_STYLE ('',( #282 ) ) ;
#119 = CIRCLE ( 'NONE', #73, 0.3124999999999998890 ) ;
#120 = PRESENTATION_STYLE_ASSIGNMENT (( #213 ) ) ;
#121 = SURFACE_STYLE_USAGE ( .BOTH. , #30 ) ;
#122 = EDGE_CURVE ( 'NONE', #203, #61, #142, .T. ) ;
#123 = LENGTH_MEASURE_WITH_UNIT ( LENGTH_MEASURE( 0.02539999999999999897 ), #187 );
#124 = DIRECTION ( 'NONE',  ( 0.000000000000000000, 0.000000000000000000, -1.000000000000000000 ) ) ;
#125 = FILL_AREA_STYLE_COLOUR ( '', #207 ) ;
#126 = DIRECTION ( 'NONE',  ( -1.000000000000000000, 0.000000000000000000, 0.000000000000000000 ) ) ;
#127 =( GEOMETRIC_REPRESENTATION_CONTEXT ( 3 ) GLOBAL_UNCERTAINTY_ASSIGNED_CONTEXT ( ( #297 ) ) GLOBAL_UNIT_ASSIGNED_CONTEXT ( ( #99, #194, #2 ) ) REPRESENTATION_CONTEXT ( 'NONE', 'WORKASPACE' ) );
#128 = EDGE_LOOP ( 'NONE', ( #230, #300, #205, #39 ) ) ;
#129 = DIRECTION ( 'NONE',  ( 0.000000000000000000, 0.000000000000000000, -1.000000000000000000 ) ) ;
#130 = ORIENTED_EDGE ( 'NONE', *, *, #122, .F. ) ;
#131 = COLOUR_RGB ( '',1.000000000000000000, 0.000000000000000000, 0.000000000000000000 ) ;
#132 = SURFACE_SIDE_STYLE ('',( #17 ) ) ;
#133 = PLANE ( 'NONE',  #161 ) ;
#134 = DIRECTION ( 'NONE',  ( 0.000000000000000000, -1.000000000000000000, -0.000000000000000000 ) ) ;
#135 = FACE_OUTER_BOUND ( 'NONE', #206, .T. ) ;
#136 = CARTESIAN_POINT ( 'NONE',  ( 1.224646799147352714E-16, 3.000000000000000444, 0.000000000000000000 ) ) ;
#137 = CARTESIAN_POINT ( 'NONE',  ( 4.628888218092148898E-34, 0.7499999999999998890, 0.000000000000000000 ) ) ;
#138 = PRESENTATION_LAYER_ASSIGNMENT (  '', '', ( #23 ) ) ;
#139 = SURFACE_STYLE_USAGE ( .BOTH. , #159 ) ;
#140 = DIRECTION ( 'NONE',  ( 5.442874662877122010E-17, 1.000000000000000000, -0.000000000000000000 ) ) ;
#141 =( GEOMETRIC_REPRESENTATION_CONTEXT ( 3 ) GLOBAL_UNCERTAINTY_ASSIGNED_CONTEXT ( ( #247 ) ) GLOBAL_UNIT_ASSIGNED_CONTEXT ( ( #214, #47, #301 ) ) REPRESENTATION_CONTEXT ( 'NONE', 'WORKASPACE' ) );
#142 = LINE ( 'NONE', #197, #192 ) ;
#143 = CYLINDRICAL_SURFACE ( 'NONE', #104, 0.3125000000000000000 ) ;
#144 = DIMENSIONAL_EXPONENTS ( 1.000000000000000000, 0.000000000000000000, 0.000000000000000000, 0.000000000000000000, 0.000000000000000000, 0.000000000000000000, 0.000000000000000000 ) ;
#145 = AXIS2_PLACEMENT_3D ( 'NONE', #78, #10, #124 ) ;
#146 = CARTESIAN_POINT ( 'NONE',  ( 0.000000000000000000, 0.7499999999999998890, -0.3125000000000000000 ) ) ;
#147 = CARTESIAN_POINT ( 'NONE',  ( 0.3125000000000000000, 3.000000000000000444, 0.000000000000000000 ) ) ;
#148 = LINE ( 'NONE', #64, #217 ) ;
#149 = SURFACE_STYLE_USAGE ( .BOTH. , #274 ) ;
#150 = VERTEX_POINT ( 'NONE', #248 ) ;
#151 =( CONVERSION_BASED_UNIT ( 'INCH', #200 ) LENGTH_UNIT ( ) NAMED_UNIT ( #268 ) );
#152 = EDGE_LOOP ( 'NONE', ( #178, #258 ) ) ;
#153 = DIRECTION ( 'NONE',  ( 0.000000000000000000, 1.000000000000000000, 0.000000000000000000 ) ) ;
#154 = ADVANCED_FACE ( 'NONE', ( #6 ), #271, .T. ) ;
#155 =( NAMED_UNIT ( * ) SI_UNIT ( $, .STERADIAN. ) SOLID_ANGLE_UNIT ( ) );
#156 = PRESENTATION_STYLE_ASSIGNMENT (( #139 ) ) ;
#157 = CIRCLE ( 'NONE', #8, 0.3124999999999998890 ) ;
#158 = APPLICATION_CONTEXT ( 'automotive_design' ) ;
#159 = SURFACE_SIDE_STYLE ('',( #285 ) ) ;
#160 = SURFACE_STYLE_FILL_AREA ( #18 ) ;
#161 = AXIS2_PLACEMENT_3D ( 'NONE', #113, #153, #24 ) ;
#162 =( GEOMETRIC_REPRESENTATION_CONTEXT ( 3 ) GLOBAL_UNCERTAINTY_ASSIGNED_CONTEXT ( ( #13 ) ) GLOBAL_UNIT_ASSIGNED_CONTEXT ( ( #177, #41, #89 ) ) REPRESENTATION_CONTEXT ( 'NONE', 'WORKASPACE' ) );
#163 =( NAMED_UNIT ( * ) SI_UNIT ( $, .STERADIAN. ) SOLID_ANGLE_UNIT ( ) );
#164 = DIMENSIONAL_EXPONENTS ( 1.000000000000000000, 0.000000000000000000, 0.000000000000000000, 0.000000000000000000, 0.000000000000000000, 0.000000000000000000, 0.000000000000000000 ) ;
#165 = DIRECTION ( 'NONE',  ( 5.442874662877122626E-17, 1.000000000000000000, -0.000000000000000000 ) ) ;
#166 = DIMENSIONAL_EXPONENTS ( 1.000000000000000000, 0.000000000000000000, 0.000000000000000000, 0.000000000000000000, 0.000000000000000000, 0.000000000000000000, 0.000000000000000000 ) ;
#167 = DIRECTION ( 'NONE',  ( 0.000000000000000000, 0.000000000000000000, -1.000000000000000000 ) ) ;
#168 = PRESENTATION_LAYER_ASSIGNMENT (  '', '', ( #309 ) ) ;
#169 = APPLICATION_CONTEXT ( 'automotive_design' ) ;
#170 = CARTESIAN_POINT ( 'NONE',  ( 1.224646799147352714E-16, 3.000000000000000444, 0.000000000000000000 ) ) ;
#171 = ADVANCED_FACE ( 'NONE', ( #1 ), #143, .T. ) ;
#172 = FILL_AREA_STYLE ('',( #202 ) ) ;
#173 =( NAMED_UNIT ( * ) PLANE_ANGLE_UNIT ( ) SI_UNIT ( $, .RADIAN. ) );
#174 =( GEOMETRIC_REPRESENTATION_CONTEXT ( 3 ) GLOBAL_UNCERTAINTY_ASSIGNED_CONTEXT ( ( #67 ) ) GLOBAL_UNIT_ASSIGNED_CONTEXT ( ( #208, #28, #155 ) ) REPRESENTATION_CONTEXT ( 'NONE', 'WORKASPACE' ) );
#175 = EDGE_CURVE ( 'NONE', #107, #257, #94, .T. ) ;
#176 = ORIENTED_EDGE ( 'NONE', *, *, #284, .T. ) ;
#177 =( CONVERSION_BASED_UNIT ( 'INCH', #256 ) LENGTH_UNIT ( ) NAMED_UNIT ( #166 ) );
#178 = ORIENTED_EDGE ( 'NONE', *, *, #267, .T. ) ;
#179 = FILL_AREA_STYLE_COLOUR ( '', #3 ) ;
#180 = ORIENTED_EDGE ( 'NONE', *, *, #273, .F. ) ;
#181 = UNCERTAINTY_MEASURE_WITH_UNIT (LENGTH_MEASURE( 1.000000000000000082E-05 ), #151, 'distance_accuracy_value', 'NONE');
#182 = LENGTH_MEASURE_WITH_UNIT ( LENGTH_MEASURE( 0.02539999999999999897 ), #20 );
#183 = DIRECTION ( 'NONE',  ( 0.000000000000000000, 0.000000000000000000, -1.000000000000000000 ) ) ;
#184 = LENGTH_MEASURE_WITH_UNIT ( LENGTH_MEASURE( 0.02539999999999999897 ), #264 );
#185 = AXIS2_PLACEMENT_3D ( 'NONE', #195, #293, #218 ) ;
#186 = VECTOR ( 'NONE', #210, 39.37007874015748143 ) ;
#187 =( LENGTH_UNIT ( ) NAMED_UNIT ( * ) SI_UNIT ( $, .METRE. ) );
#188 = ADVANCED_FACE ( 'NONE', ( #56 ), #35, .F. ) ;
#189 =( NAMED_UNIT ( * ) SI_UNIT ( $, .STERADIAN. ) SOLID_ANGLE_UNIT ( ) );
#190 =( NAMED_UNIT ( * ) PLANE_ANGLE_UNIT ( ) SI_UNIT ( $, .RADIAN. ) );
#191 = PRODUCT_DEFINITION_SHAPE ( 'NONE', 'NONE',  #93 ) ;
#192 = VECTOR ( 'NONE', #4, 39.37007874015748143 ) ;
#193 = DIRECTION ( 'NONE',  ( 0.000000000000000000, 0.000000000000000000, -1.000000000000000000 ) ) ;
#194 =( NAMED_UNIT ( * ) PLANE_ANGLE_UNIT ( ) SI_UNIT ( $, .RADIAN. ) );
#195 = CARTESIAN_POINT ( 'NONE',  ( 0.000000000000000000, 0.7499999999999998890, 0.000000000000000000 ) ) ;
#196 = AXIS2_PLACEMENT_3D ( 'NONE', #260, #234, #193 ) ;
#197 = CARTESIAN_POINT ( 'NONE',  ( -0.3124999999999998335, 3.000000000000000444, 0.000000000000000000 ) ) ;
#198 = ORIENTED_EDGE ( 'NONE', *, *, #305, .F. ) ;
#199 = EDGE_CURVE ( 'NONE', #257, #107, #304, .T. ) ;
#200 = LENGTH_MEASURE_WITH_UNIT ( LENGTH_MEASURE( 0.02539999999999999897 ), #62 );
#201 = STYLED_ITEM ( 'NONE', ( #53 ), #171 ) ;
#202 = FILL_AREA_STYLE_COLOUR ( '', #131 ) ;
#203 = VERTEX_POINT ( 'NONE', #109 ) ;
#204 = CARTESIAN_POINT ( 'NONE',  ( 0.000000000000000000, 0.000000000000000000, 0.000000000000000000 ) ) ;
#205 = ORIENTED_EDGE ( 'NONE', *, *, #122, .T. ) ;
#206 = EDGE_LOOP ( 'NONE', ( #40, #180 ) ) ;
#207 = COLOUR_RGB ( '',1.000000000000000000, 0.000000000000000000, 0.000000000000000000 ) ;
#208 =( CONVERSION_BASED_UNIT ( 'INCH', #182 ) LENGTH_UNIT ( ) NAMED_UNIT ( #76 ) );
#209 = COLOUR_RGB ( '',0.7921568627450980005, 0.8196078431372548767, 0.9333333333333333481 ) ;
#210 = DIRECTION ( 'NONE',  ( -0.000000000000000000, -1.000000000000000000, -0.000000000000000000 ) ) ;
#211 = ADVANCED_FACE ( 'NONE', ( #295 ), #79, .T. ) ;
#212 = FACE_OUTER_BOUND ( 'NONE', #86, .T. ) ;
#213 = SURFACE_STYLE_USAGE ( .BOTH. , #239 ) ;
#214 =( CONVERSION_BASED_UNIT ( 'INCH', #27 ) LENGTH_UNIT ( ) NAMED_UNIT ( #164 ) );
#215 = CARTESIAN_POINT ( 'NONE',  ( 1.224646799147352714E-16, 3.000000000000000444, 0.000000000000000000 ) ) ;
#216 = COLOUR_RGB ( '',0.7921568627450980005, 0.8196078431372548767, 0.9333333333333333481 ) ;
#217 = VECTOR ( 'NONE', #303, 39.37007874015748143 ) ;
#218 = DIRECTION ( 'NONE',  ( 0.000000000000000000, 0.000000000000000000, -1.000000000000000000 ) ) ;
#219 = DIRECTION ( 'NONE',  ( -5.442874662877122010E-17, -1.000000000000000000, 0.000000000000000000 ) ) ;
#220 = DIRECTION ( 'NONE',  ( 5.442874662877122626E-17, 1.000000000000000000, -0.000000000000000000 ) ) ;
#221 = AXIS2_PLACEMENT_3D ( 'NONE', #136, #237, #306 ) ;
#222 = DIRECTION ( 'NONE',  ( -0.000000000000000000, -1.000000000000000000, -0.000000000000000000 ) ) ;
#223 = VERTEX_POINT ( 'NONE', #233 ) ;
#224 = ORIENTED_EDGE ( 'NONE', *, *, #66, .T. ) ;
#225 =( NAMED_UNIT ( * ) SI_UNIT ( $, .STERADIAN. ) SOLID_ANGLE_UNIT ( ) );
#226 = ORIENTED_EDGE ( 'NONE', *, *, #199, .T. ) ;
#227 = DIRECTION ( 'NONE',  ( -0.000000000000000000, -1.000000000000000000, -0.000000000000000000 ) ) ;
#228 = AXIS2_PLACEMENT_3D ( 'NONE', #215, #242, #33 ) ;
#229 = AXIS2_PLACEMENT_3D ( 'NONE', #87, #227, #279 ) ;
#230 = ORIENTED_EDGE ( 'NONE', *, *, #245, .F. ) ;
#231 = FILL_AREA_STYLE_COLOUR ( '', #71 ) ;
#232 =( LENGTH_UNIT ( ) NAMED_UNIT ( * ) SI_UNIT ( $, .METRE. ) );
#233 = CARTESIAN_POINT ( 'NONE',  ( 0.3125000000000000000, 3.000000000000000444, 3.827021247335477694E-17 ) ) ;
#234 = DIRECTION ( 'NONE',  ( -0.000000000000000000, -1.000000000000000000, -0.000000000000000000 ) ) ;
#235 = DIRECTION ( 'NONE',  ( 1.000000000000000000, 0.000000000000000000, 0.000000000000000000 ) ) ;
#236 = PRODUCT_RELATED_PRODUCT_CATEGORY ( 'part', '', ( #243 ) ) ;
#237 = DIRECTION ( 'NONE',  ( 5.442874662877122626E-17, 1.000000000000000000, -0.000000000000000000 ) ) ;
#238 = PRESENTATION_LAYER_ASSIGNMENT (  '', '', ( #283 ) ) ;
#239 = SURFACE_SIDE_STYLE ('',( #49 ) ) ;
#240 = ADVANCED_FACE ( 'NONE', ( #212 ), #19, .T. ) ;
#241 =( GEOMETRIC_REPRESENTATION_CONTEXT ( 3 ) GLOBAL_UNCERTAINTY_ASSIGNED_CONTEXT ( ( #181 ) ) GLOBAL_UNIT_ASSIGNED_CONTEXT ( ( #151, #173, #225 ) ) REPRESENTATION_CONTEXT ( 'NONE', 'WORKASPACE' ) );
#242 = DIRECTION ( 'NONE',  ( 5.442874662877122626E-17, 1.000000000000000000, -0.000000000000000000 ) ) ;
#243 = PRODUCT ( '81941', '81941', '', ( #81 ) ) ;
#244 = SURFACE_STYLE_FILL_AREA ( #287 ) ;
#245 = EDGE_CURVE ( 'NONE', #150, #223, #92, .T. ) ;
#246 = CIRCLE ( 'NONE', #105, 0.3125000000000000000 ) ;
#247 = UNCERTAINTY_MEASURE_WITH_UNIT (LENGTH_MEASURE( 1.000000000000000082E-05 ), #214, 'distance_accuracy_value', 'NONE');
#248 = CARTESIAN_POINT ( 'NONE',  ( 0.3125000000000000000, 0.7499999999999998890, 3.827021247335477694E-17 ) ) ;
#249 = DIRECTION ( 'NONE',  ( -1.000000000000000000, 0.000000000000000000, 0.000000000000000000 ) ) ;
#250 = MECHANICAL_DESIGN_GEOMETRIC_PRESENTATION_REPRESENTATION (  '', ( #283 ), #174 ) ;
#251 = AXIS2_PLACEMENT_3D ( 'NONE', #204, #261, #235 ) ;
#252 = EDGE_LOOP ( 'NONE', ( #255, #11, #112, #14 ) ) ;
#253 = SURFACE_STYLE_USAGE ( .BOTH. , #132 ) ;
#254 = EDGE_CURVE ( 'NONE', #223, #61, #157, .T. ) ;
#255 = ORIENTED_EDGE ( 'NONE', *, *, #175, .T. ) ;
#256 = LENGTH_MEASURE_WITH_UNIT ( LENGTH_MEASURE( 0.02539999999999999897 ), #232 );
#257 = VERTEX_POINT ( 'NONE', #291 ) ;
#258 = ORIENTED_EDGE ( 'NONE', *, *, #254, .T. ) ;
#259 = CARTESIAN_POINT ( 'NONE',  ( 0.000000000000000000, 0.000000000000000000, 0.000000000000000000 ) ) ;
#260 = CARTESIAN_POINT ( 'NONE',  ( 0.000000000000000000, 0.000000000000000000, 0.000000000000000000 ) ) ;
#261 = DIRECTION ( 'NONE',  ( 0.000000000000000000, 0.000000000000000000, 1.000000000000000000 ) ) ;
#262 = SURFACE_STYLE_USAGE ( .BOTH. , #26 ) ;
#263 = MECHANICAL_DESIGN_GEOMETRIC_PRESENTATION_REPRESENTATION (  '', ( #275 ), #299 ) ;
#264 =( LENGTH_UNIT ( ) NAMED_UNIT ( * ) SI_UNIT ( $, .METRE. ) );
#265 = PLANE ( 'NONE',  #115 ) ;
#266 = CARTESIAN_POINT ( 'NONE',  ( 3.827021247335478926E-17, 0.000000000000000000, 0.3125000000000000000 ) ) ;
#267 = EDGE_CURVE ( 'NONE', #61, #223, #119, .T. ) ;
#268 = DIMENSIONAL_EXPONENTS ( 1.000000000000000000, 0.000000000000000000, 0.000000000000000000, 0.000000000000000000, 0.000000000000000000, 0.000000000000000000, 0.000000000000000000 ) ;
#269 = AXIS2_PLACEMENT_3D ( 'NONE', #58, #222, #129 ) ;
#270 = MECHANICAL_DESIGN_GEOMETRIC_PRESENTATION_REPRESENTATION (  '', ( #31 ), #241 ) ;
#271 = CYLINDRICAL_SURFACE ( 'NONE', #228, 0.3124999999999999445 ) ;
#272 = DIRECTION ( 'NONE',  ( 1.000000000000000000, -5.442874662877122010E-17, 0.000000000000000000 ) ) ;
#273 = EDGE_CURVE ( 'NONE', #150, #203, #246, .T. ) ;
#274 = SURFACE_SIDE_STYLE ('',( #42 ) ) ;
#275 = STYLED_ITEM ( 'NONE', ( #120 ), #54 ) ;
#276 = VERTEX_POINT ( 'NONE', #106 ) ;
#277 =( LENGTH_UNIT ( ) NAMED_UNIT ( * ) SI_UNIT ( $, .METRE. ) );
#278 = EDGE_LOOP ( 'NONE', ( #43, #37 ) ) ;
#279 = DIRECTION ( 'NONE',  ( 0.000000000000000000, 0.000000000000000000, -1.000000000000000000 ) ) ;
#280 = UNCERTAINTY_MEASURE_WITH_UNIT (LENGTH_MEASURE( 1.000000000000000082E-05 ), #307, 'distance_accuracy_value', 'NONE');
#281 = ORIENTED_EDGE ( 'NONE', *, *, #292, .T. ) ;
#282 = FILL_AREA_STYLE_COLOUR ( '', #216 ) ;
#283 = STYLED_ITEM ( 'NONE', ( #48 ), #22 ) ;
#284 = EDGE_CURVE ( 'NONE', #80, #276, #29, .T. ) ;
#285 = SURFACE_STYLE_FILL_AREA ( #96 ) ;
#286 = CARTESIAN_POINT ( 'NONE',  ( 0.3125000000000000555, 3.000000000000000444, 3.827021247335477694E-17 ) ) ;
#287 = FILL_AREA_STYLE ('',( #125 ) ) ;
#288 = CLOSED_SHELL ( 'NONE', ( #171, #22, #289, #211 ) ) ;
#289 = ADVANCED_FACE ( 'NONE', ( #296 ), #298, .T. ) ;
#290 = CARTESIAN_POINT ( 'NONE',  ( -1.516480271171051896E-32, 0.7499999999999998890, 0.000000000000000000 ) ) ;
#291 = CARTESIAN_POINT ( 'NONE',  ( 3.827021247335478926E-17, 0.7499999999999998890, 0.3125000000000000000 ) ) ;
#292 = EDGE_CURVE ( 'NONE', #107, #276, #59, .T. ) ;
#293 = DIRECTION ( 'NONE',  ( -0.000000000000000000, -1.000000000000000000, -0.000000000000000000 ) ) ;
#294 = CIRCLE ( 'NONE', #65, 0.3125000000000000000 ) ;
#295 = FACE_OUTER_BOUND ( 'NONE', #63, .T. ) ;
#296 = FACE_OUTER_BOUND ( 'NONE', #9, .T. ) ;
#297 = UNCERTAINTY_MEASURE_WITH_UNIT (LENGTH_MEASURE( 1.000000000000000082E-05 ), #99, 'distance_accuracy_value', 'NONE');
#298 = CYLINDRICAL_SURFACE ( 'NONE', #229, 0.3125000000000000000 ) ;
#299 =( GEOMETRIC_REPRESENTATION_CONTEXT ( 3 ) GLOBAL_UNCERTAINTY_ASSIGNED_CONTEXT ( ( #280 ) ) GLOBAL_UNIT_ASSIGNED_CONTEXT ( ( #307, #308, #189 ) ) REPRESENTATION_CONTEXT ( 'NONE', 'WORKASPACE' ) );
#300 = ORIENTED_EDGE ( 'NONE', *, *, #273, .T. ) ;
#301 =( NAMED_UNIT ( * ) SI_UNIT ( $, .STERADIAN. ) SOLID_ANGLE_UNIT ( ) );
#302 = ORIENTED_EDGE ( 'NONE', *, *, #267, .F. ) ;
#303 = DIRECTION ( 'NONE',  ( -0.000000000000000000, -1.000000000000000000, -0.000000000000000000 ) ) ;
#304 = CIRCLE ( 'NONE', #269, 0.3125000000000000000 ) ;
#305 = EDGE_CURVE ( 'NONE', #257, #80, #148, .T. ) ;
#306 = DIRECTION ( 'NONE',  ( -1.000000000000000000, 0.000000000000000000, 0.000000000000000000 ) ) ;
#307 =( CONVERSION_BASED_UNIT ( 'INCH', #184 ) LENGTH_UNIT ( ) NAMED_UNIT ( #5 ) );
#308 =( NAMED_UNIT ( * ) PLANE_ANGLE_UNIT ( ) SI_UNIT ( $, .RADIAN. ) );
#309 = STYLED_ITEM ( 'NONE', ( #82 ), #211 ) ;
ENDSEC;
END-ISO-10303-21;
