ISO-10303-21;
HEADER;
FILE_DESCRIPTION (( 'STEP AP214' ),
    '1' );
FILE_NAME ('Micro_BMS-016-2.STEP',
    '2021-09-03T14:51:16',
    ( '' ),
    ( '' ),
    'SwSTEP 2.0',
    'SolidWorks 2020',
    '' );
FILE_SCHEMA (( 'AUTOMOTIVE_DESIGN' ));
ENDSEC;

DATA;
#1 = DIRECTION ( 'NONE',  ( 0.1736481776669313581, 0.0000000000000000000, 0.9848077530122077983 ) ) ;
#2 = CARTESIAN_POINT ( 'NONE',  ( 0.0000000000000000000, 0.0000000000000000000, 1.500000000000000222 ) ) ;
#3 = AXIS2_PLACEMENT_3D ( 'NONE', #16, #218, #260 ) ;
#4 = LINE ( 'NONE', #153, #305 ) ;
#5 = PRODUCT_CONTEXT ( 'NONE', #132, 'mechanical' ) ;
#6 = EDGE_LOOP ( 'NONE', ( #37, #60, #64, #228 ) ) ;
#7 = EDGE_CURVE ( 'NONE', #120, #301, #318, .T. ) ;
#8 = CARTESIAN_POINT ( 'NONE',  ( 0.04750000000000064587, 5.817072295950006528E-18, 1.500000000000000222 ) ) ;
#9 = EDGE_LOOP ( 'NONE', ( #82, #248, #207, #114 ) ) ;
#10 =( CONVERSION_BASED_UNIT ( 'INCH', #12 ) LENGTH_UNIT ( ) NAMED_UNIT ( #173 ) );
#11 = ORIENTED_EDGE ( 'NONE', *, *, #202, .F. ) ;
#12 = LENGTH_MEASURE_WITH_UNIT ( LENGTH_MEASURE( 0.02539999999999999897 ), #119 );
#13 = EDGE_CURVE ( 'NONE', #137, #120, #110, .T. ) ;
#14 = DIRECTION ( 'NONE',  ( 1.224646799147353454E-16, 0.0000000000000000000, 1.000000000000000000 ) ) ;
#15 = AXIS2_PLACEMENT_3D ( 'NONE', #155, #300, #80 ) ;
#16 = CARTESIAN_POINT ( 'NONE',  ( 2.939152317953648508E-18, 0.0000000000000000000, 0.02400000000000000050 ) ) ;
#17 = FACE_OUTER_BOUND ( 'NONE', #154, .T. ) ;
#18 = EDGE_CURVE ( 'NONE', #166, #31, #243, .T. ) ;
#19 = CYLINDRICAL_SURFACE ( 'NONE', #62, 0.06250000000000000000 ) ;
#20 = CARTESIAN_POINT ( 'NONE',  ( 0.007992000000000006044, 0.0000000000000000000, 0.02400000000000000050 ) ) ;
#21 = CIRCLE ( 'NONE', #215, 0.04750000000000064587 ) ;
#22 = CARTESIAN_POINT ( 'NONE',  ( -0.007992000000000000839, 0.0000000000000000000, 0.007992000000000002574 ) ) ;
#23 = EDGE_CURVE ( 'NONE', #88, #166, #99, .T. ) ;
#24 = APPLICATION_PROTOCOL_DEFINITION ( 'draft international standard', 'automotive_design', 1998, #132 ) ;
#25 = APPLICATION_PROTOCOL_DEFINITION ( 'draft international standard', 'automotive_design', 1998, #95 ) ;
#26 = DIRECTION ( 'NONE',  ( 1.224646799147353454E-16, 0.0000000000000000000, 1.000000000000000000 ) ) ;
#27 = ORIENTED_EDGE ( 'NONE', *, *, #150, .T. ) ;
#28 = CARTESIAN_POINT ( 'NONE',  ( 0.0000000000000000000, 0.0000000000000000000, 0.0000000000000000000 ) ) ;
#29 = ORIENTED_EDGE ( 'NONE', *, *, #118, .F. ) ;
#30 =( NAMED_UNIT ( * ) SI_UNIT ( $, .STERADIAN. ) SOLID_ANGLE_UNIT ( ) );
#31 = VERTEX_POINT ( 'NONE', #67 ) ;
#32 = VECTOR ( 'NONE', #1, 39.37007874015748143 ) ;
#33 = CIRCLE ( 'NONE', #287, 0.04750000000000064587 ) ;
#34 = ORIENTED_EDGE ( 'NONE', *, *, #18, .T. ) ;
#35 = EDGE_CURVE ( 'NONE', #71, #137, #145, .T. ) ;
#36 = FILL_AREA_STYLE ('',( #209 ) ) ;
#37 = ORIENTED_EDGE ( 'NONE', *, *, #266, .F. ) ;
#38 = MANIFOLD_SOLID_BREP ( 'Fillet1', #117 ) ;
#39 = FACE_OUTER_BOUND ( 'NONE', #273, .T. ) ;
#40 = DIMENSIONAL_EXPONENTS ( 1.000000000000000000, 0.0000000000000000000, 0.0000000000000000000, 0.0000000000000000000, 0.0000000000000000000, 0.0000000000000000000, 0.0000000000000000000 ) ;
#41 = CARTESIAN_POINT ( 'NONE',  ( 9.787377218785650228E-19, 0.0000000000000000000, 0.007992000000000000839 ) ) ;
#42 = DIRECTION ( 'NONE',  ( -0.7071067811865456854, 0.0000000000000000000, -0.7071067811865493491 ) ) ;
#43 = ORIENTED_EDGE ( 'NONE', *, *, #83, .F. ) ;
#44 = AXIS2_PLACEMENT_3D ( 'NONE', #100, #269, #245 ) ;
#45 = PRESENTATION_LAYER_ASSIGNMENT (  '', '', ( #297 ) ) ;
#46 = DIRECTION ( 'NONE',  ( -1.000000000000000000, 0.0000000000000000000, 1.224646799147353454E-16 ) ) ;
#47 = DIRECTION ( 'NONE',  ( -1.224646799147353454E-16, -0.0000000000000000000, -1.000000000000000000 ) ) ;
#48 = DIRECTION ( 'NONE',  ( 1.000000000000000000, 0.0000000000000000000, 0.0000000000000000000 ) ) ;
#49 = LINE ( 'NONE', #152, #89 ) ;
#50 = CIRCLE ( 'NONE', #73, 0.007992000000000000839 ) ;
#51 = DIRECTION ( 'NONE',  ( -1.000000000000000000, 0.0000000000000000000, 1.224646799147353454E-16 ) ) ;
#52 = SURFACE_STYLE_USAGE ( .BOTH. , #271 ) ;
#53 = EDGE_LOOP ( 'NONE', ( #310, #186, #303, #34 ) ) ;
#54 = FACE_OUTER_BOUND ( 'NONE', #201, .T. ) ;
#55 = ORIENTED_EDGE ( 'NONE', *, *, #259, .T. ) ;
#56 = LENGTH_MEASURE_WITH_UNIT ( LENGTH_MEASURE( 0.02539999999999999897 ), #69 );
#57 = FACE_OUTER_BOUND ( 'NONE', #281, .T. ) ;
#58 = ORIENTED_EDGE ( 'NONE', *, *, #223, .T. ) ;
#59 =( CONVERSION_BASED_UNIT ( 'INCH', #250 ) LENGTH_UNIT ( ) NAMED_UNIT ( #265 ) );
#60 = ORIENTED_EDGE ( 'NONE', *, *, #177, .F. ) ;
#61 = ADVANCED_FACE ( 'NONE', ( #163 ), #212, .T. ) ;
#62 = AXIS2_PLACEMENT_3D ( 'NONE', #167, #190, #101 ) ;
#63 = AXIS2_PLACEMENT_3D ( 'NONE', #171, #264, #48 ) ;
#64 = ORIENTED_EDGE ( 'NONE', *, *, #35, .T. ) ;
#65 = ORIENTED_EDGE ( 'NONE', *, *, #35, .F. ) ;
#66 = CARTESIAN_POINT ( 'NONE',  ( 0.06250000000000000000, 7.654042494670956004E-18, 1.500000000000000222 ) ) ;
#67 = CARTESIAN_POINT ( 'NONE',  ( 0.007992000000000002574, 9.787377218785648302E-19, 0.007992000000000000839 ) ) ;
#68 = ADVANCED_FACE ( 'NONE', ( #39 ), #93, .T. ) ;
#69 =( LENGTH_UNIT ( ) NAMED_UNIT ( * ) SI_UNIT ( $, .METRE. ) );
#70 = CARTESIAN_POINT ( 'NONE',  ( 0.0000000000000000000, 0.0000000000000000000, 1.485000000000000764 ) ) ;
#71 = VERTEX_POINT ( 'NONE', #315 ) ;
#72 = CYLINDRICAL_SURFACE ( 'NONE', #214, 0.007992000000000002574 ) ;
#73 = AXIS2_PLACEMENT_3D ( 'NONE', #192, #169, #75 ) ;
#74 = DIRECTION ( 'NONE',  ( 1.000000000000000000, 0.0000000000000000000, 0.0000000000000000000 ) ) ;
#75 = DIRECTION ( 'NONE',  ( 0.0000000000000000000, 0.0000000000000000000, -1.000000000000000000 ) ) ;
#76 = CYLINDRICAL_SURFACE ( 'NONE', #261, 0.007992000000000002574 ) ;
#77 = DIRECTION ( 'NONE',  ( 1.000000000000000000, 0.0000000000000000000, 0.0000000000000000000 ) ) ;
#78 = VECTOR ( 'NONE', #279, 39.37007874015748143 ) ;
#79 = ORIENTED_EDGE ( 'NONE', *, *, #112, .T. ) ;
#80 = DIRECTION ( 'NONE',  ( -1.000000000000000000, 0.0000000000000000000, 1.335245398554932983E-16 ) ) ;
#81 = ADVANCED_FACE ( 'NONE', ( #176 ), #72, .T. ) ;
#82 = ORIENTED_EDGE ( 'NONE', *, *, #13, .T. ) ;
#83 = EDGE_CURVE ( 'NONE', #211, #301, #123, .T. ) ;
#84 = CARTESIAN_POINT ( 'NONE',  ( 2.939152317953648508E-18, 0.0000000000000000000, 0.02400000000000000050 ) ) ;
#85 = CIRCLE ( 'NONE', #63, 0.06250000000000000000 ) ;
#86 = DIRECTION ( 'NONE',  ( 0.0000000000000000000, 0.0000000000000000000, -1.000000000000000000 ) ) ;
#87 = ORIENTED_EDGE ( 'NONE', *, *, #177, .T. ) ;
#88 = VERTEX_POINT ( 'NONE', #149 ) ;
#89 = VECTOR ( 'NONE', #128, 39.37007874015747433 ) ;
#90 = CONICAL_SURFACE ( 'NONE', #239, 0.04750000000000064587, 0.7853981633974457255 ) ;
#91 = ORIENTED_EDGE ( 'NONE', *, *, #202, .T. ) ;
#92 =( NAMED_UNIT ( * ) SI_UNIT ( $, .STERADIAN. ) SOLID_ANGLE_UNIT ( ) );
#93 = SPHERICAL_SURFACE ( 'NONE', #174, 0.007992000000000000839 ) ;
#94 = COLOUR_RGB ( '',0.7921568627450980005, 0.8196078431372548767, 0.9333333333333333481 ) ;
#95 = APPLICATION_CONTEXT ( 'automotive_design' ) ;
#96 = CARTESIAN_POINT ( 'NONE',  ( 0.0000000000000000000, 0.0000000000000000000, 1.500000000000000222 ) ) ;
#97 = FACE_OUTER_BOUND ( 'NONE', #116, .T. ) ;
#98 = SPHERICAL_SURFACE ( 'NONE', #175, 0.007992000000000000839 ) ;
#99 = CIRCLE ( 'NONE', #255, 0.007992000000000000839 ) ;
#100 = CARTESIAN_POINT ( 'NONE',  ( 0.0000000000000000000, 0.0000000000000000000, 1.500000000000000222 ) ) ;
#101 = DIRECTION ( 'NONE',  ( -1.000000000000000000, 0.0000000000000000000, 0.0000000000000000000 ) ) ;
#102 = ADVANCED_FACE ( 'NONE', ( #263 ), #19, .T. ) ;
#103 = UNCERTAINTY_MEASURE_WITH_UNIT (LENGTH_MEASURE( 1.000000000000000082E-05 ), #10, 'distance_accuracy_value', 'NONE');
#104 = CARTESIAN_POINT ( 'NONE',  ( 0.0000000000000000000, 0.0000000000000000000, 1.500000000000000222 ) ) ;
#105 = DIRECTION ( 'NONE',  ( 1.000000000000000000, 0.0000000000000000000, 0.0000000000000000000 ) ) ;
#106 = VERTEX_POINT ( 'NONE', #241 ) ;
#107 = ORIENTED_EDGE ( 'NONE', *, *, #83, .T. ) ;
#108 =( NAMED_UNIT ( * ) PLANE_ANGLE_UNIT ( ) SI_UNIT ( $, .RADIAN. ) );
#109 = CARTESIAN_POINT ( 'NONE',  ( -0.007992000000000000839, 4.316390108274762150E-18, 0.02400000000000000050 ) ) ;
#110 = CIRCLE ( 'NONE', #235, 0.06250000000000000000 ) ;
#111 = ORIENTED_EDGE ( 'NONE', *, *, #18, .F. ) ;
#112 = EDGE_CURVE ( 'NONE', #232, #211, #147, .T. ) ;
#113 = DIRECTION ( 'NONE',  ( 1.000000000000000000, 0.0000000000000000000, 0.0000000000000000000 ) ) ;
#114 = ORIENTED_EDGE ( 'NONE', *, *, #165, .F. ) ;
#115 = DIRECTION ( 'NONE',  ( -0.0000000000000000000, -0.0000000000000000000, -1.000000000000000000 ) ) ;
#116 = EDGE_LOOP ( 'NONE', ( #79, #205, #55, #161 ) ) ;
#117 = CLOSED_SHELL ( 'NONE', ( #68, #133, #324, #227, #61, #102, #129, #299, #286, #81, #208 ) ) ;
#118 = EDGE_CURVE ( 'NONE', #211, #232, #238, .T. ) ;
#119 =( LENGTH_UNIT ( ) NAMED_UNIT ( * ) SI_UNIT ( $, .METRE. ) );
#120 = VERTEX_POINT ( 'NONE', #148 ) ;
#121 = AXIS2_PLACEMENT_3D ( 'NONE', #222, #47, #124 ) ;
#122 = AXIS2_PLACEMENT_3D ( 'NONE', #158, #86, #183 ) ;
#123 = LINE ( 'NONE', #20, #32 ) ;
#124 = DIRECTION ( 'NONE',  ( -1.000000000000000000, 0.0000000000000000000, 0.0000000000000000000 ) ) ;
#125 = PRODUCT_DEFINITION_SHAPE ( 'NONE', 'NONE',  #156 ) ;
#126 = COLOUR_RGB ( '',0.7921568627450980005, 0.8196078431372548767, 0.9333333333333333481 ) ;
#127 = CONICAL_SURFACE ( 'NONE', #122, 0.04750000000000064587, 0.7853981633974457255 ) ;
#128 = DIRECTION ( 'NONE',  ( -0.1736481776669311639, 2.126576849575783008E-17, 0.9848077530122080203 ) ) ;
#129 = ADVANCED_FACE ( 'NONE', ( #220 ), #321, .T. ) ;
#130 = LINE ( 'NONE', #295, #225 ) ;
#131 = UNCERTAINTY_MEASURE_WITH_UNIT (LENGTH_MEASURE( 1.000000000000000082E-05 ), #194, 'distance_accuracy_value', 'NONE');
#132 = APPLICATION_CONTEXT ( 'automotive_design' ) ;
#133 = ADVANCED_FACE ( 'NONE', ( #97 ), #76, .T. ) ;
#134 = VECTOR ( 'NONE', #151, 39.37007874015748143 ) ;
#135 = PRESENTATION_STYLE_ASSIGNMENT (( #52 ) ) ;
#136 = DIRECTION ( 'NONE',  ( 1.000000000000000000, 0.0000000000000000000, 0.0000000000000000000 ) ) ;
#137 = VERTEX_POINT ( 'NONE', #237 ) ;
#138 = DIRECTION ( 'NONE',  ( 0.0000000000000000000, 0.0000000000000000000, 1.000000000000000000 ) ) ;
#139 = VERTEX_POINT ( 'NONE', #267 ) ;
#140 = SHAPE_DEFINITION_REPRESENTATION ( #125, #233 ) ;
#141 = DIRECTION ( 'NONE',  ( 0.0000000000000000000, 0.0000000000000000000, -1.000000000000000000 ) ) ;
#142 = ORIENTED_EDGE ( 'NONE', *, *, #280, .T. ) ;
#143 = CARTESIAN_POINT ( 'NONE',  ( -0.04750000000000064587, 0.0000000000000000000, 1.500000000000000222 ) ) ;
#144 = DIRECTION ( 'NONE',  ( -0.0000000000000000000, -0.0000000000000000000, -1.000000000000000000 ) ) ;
#145 = LINE ( 'NONE', #143, #311 ) ;
#146 = DIRECTION ( 'NONE',  ( 1.000000000000000000, 0.0000000000000000000, 0.0000000000000000000 ) ) ;
#147 = CIRCLE ( 'NONE', #121, 0.007992000000000002574 ) ;
#148 = CARTESIAN_POINT ( 'NONE',  ( 0.06250000000000000000, 7.654042494670956004E-18, 1.485000000000000764 ) ) ;
#149 = CARTESIAN_POINT ( 'NONE',  ( 1.468106582817847438E-18, 0.0000000000000000000, 0.0000000000000000000 ) ) ;
#150 = EDGE_CURVE ( 'NONE', #232, #106, #49, .T. ) ;
#151 = DIRECTION ( 'NONE',  ( -0.0000000000000000000, -0.0000000000000000000, -1.000000000000000000 ) ) ;
#152 = CARTESIAN_POINT ( 'NONE',  ( -0.007992000000000000839, 9.787377218785650228E-19, 0.02400000000000000050 ) ) ;
#153 = CARTESIAN_POINT ( 'NONE',  ( -0.007992000000000002574, 0.0000000000000000000, 9.787377218785652154E-19 ) ) ;
#154 = EDGE_LOOP ( 'NONE', ( #289, #288, #111 ) ) ;
#155 = CARTESIAN_POINT ( 'NONE',  ( 9.787377218785650228E-19, 0.0000000000000000000, 0.007992000000000000839 ) ) ;
#156 = PRODUCT_DEFINITION ( 'UNKNOWN', '', #182, #290 ) ;
#157 =( NAMED_UNIT ( * ) PLANE_ANGLE_UNIT ( ) SI_UNIT ( $, .RADIAN. ) );
#158 = CARTESIAN_POINT ( 'NONE',  ( 0.0000000000000000000, 0.0000000000000000000, 1.500000000000000222 ) ) ;
#159 = AXIS2_PLACEMENT_3D ( 'NONE', #247, #298, #105 ) ;
#160 = ORIENTED_EDGE ( 'NONE', *, *, #280, .F. ) ;
#161 = ORIENTED_EDGE ( 'NONE', *, *, #304, .F. ) ;
#162 = ORIENTED_EDGE ( 'NONE', *, *, #13, .F. ) ;
#163 = FACE_OUTER_BOUND ( 'NONE', #9, .T. ) ;
#164 = CONICAL_SURFACE ( 'NONE', #317, 0.007992000000000002574, 0.1745329251994338637 ) ;
#165 = EDGE_CURVE ( 'NONE', #137, #106, #240, .T. ) ;
#166 = VERTEX_POINT ( 'NONE', #22 ) ;
#167 = CARTESIAN_POINT ( 'NONE',  ( 0.0000000000000000000, 0.0000000000000000000, 1.500000000000000222 ) ) ;
#168 = AXIS2_PLACEMENT_3D ( 'NONE', #28, #138, #229 ) ;
#169 = DIRECTION ( 'NONE',  ( 0.0000000000000000000, -1.000000000000000000, 0.0000000000000000000 ) ) ;
#170 = EDGE_CURVE ( 'NONE', #211, #31, #130, .T. ) ;
#171 = CARTESIAN_POINT ( 'NONE',  ( 0.0000000000000000000, 0.0000000000000000000, 1.485000000000000764 ) ) ;
#172 = CARTESIAN_POINT ( 'NONE',  ( 0.0000000000000000000, 0.0000000000000000000, 0.0000000000000000000 ) ) ;
#173 = DIMENSIONAL_EXPONENTS ( 1.000000000000000000, 0.0000000000000000000, 0.0000000000000000000, 0.0000000000000000000, 0.0000000000000000000, 0.0000000000000000000, 0.0000000000000000000 ) ;
#174 = AXIS2_PLACEMENT_3D ( 'NONE', #41, #258, #193 ) ;
#175 = AXIS2_PLACEMENT_3D ( 'NONE', #191, #292, #74 ) ;
#176 = FACE_OUTER_BOUND ( 'NONE', #53, .T. ) ;
#177 = EDGE_CURVE ( 'NONE', #71, #139, #21, .T. ) ;
#178 = SURFACE_STYLE_FILL_AREA ( #197 ) ;
#179 = DIRECTION ( 'NONE',  ( -1.224646799147353454E-16, -0.0000000000000000000, -1.000000000000000000 ) ) ;
#180 = PRODUCT_RELATED_PRODUCT_CATEGORY ( 'part', '', ( #270 ) ) ;
#181 = PRESENTATION_LAYER_ASSIGNMENT (  '', '', ( #196 ) ) ;
#182 = PRODUCT_DEFINITION_FORMATION_WITH_SPECIFIED_SOURCE ( 'ANY', '', #270, .NOT_KNOWN. ) ;
#183 = DIRECTION ( 'NONE',  ( -1.000000000000000000, 0.0000000000000000000, 0.0000000000000000000 ) ) ;
#184 = ORIENTED_EDGE ( 'NONE', *, *, #285, .T. ) ;
#185 = CIRCLE ( 'NONE', #274, 0.06250000000000000000 ) ;
#186 = ORIENTED_EDGE ( 'NONE', *, *, #118, .T. ) ;
#187 = DIRECTION ( 'NONE',  ( 0.0000000000000000000, 0.0000000000000000000, -1.000000000000000000 ) ) ;
#188 = DIRECTION ( 'NONE',  ( -1.000000000000000000, 1.224646799147353207E-16, 0.0000000000000000000 ) ) ;
#189 = ORIENTED_EDGE ( 'NONE', *, *, #165, .T. ) ;
#190 = DIRECTION ( 'NONE',  ( -0.0000000000000000000, -0.0000000000000000000, -1.000000000000000000 ) ) ;
#191 = CARTESIAN_POINT ( 'NONE',  ( 9.787377218785650228E-19, 0.0000000000000000000, 0.007992000000000000839 ) ) ;
#192 = CARTESIAN_POINT ( 'NONE',  ( 9.787377218785650228E-19, 0.0000000000000000000, 0.007992000000000000839 ) ) ;
#193 = DIRECTION ( 'NONE',  ( 1.000000000000000000, 0.0000000000000000000, 0.0000000000000000000 ) ) ;
#194 =( CONVERSION_BASED_UNIT ( 'INCH', #56 ) LENGTH_UNIT ( ) NAMED_UNIT ( #40 ) );
#195 = DIRECTION ( 'NONE',  ( 0.0000000000000000000, 0.0000000000000000000, 1.000000000000000000 ) ) ;
#196 = STYLED_ITEM ( 'NONE', ( #254 ), #38 ) ;
#197 = FILL_AREA_STYLE ('',( #302 ) ) ;
#198 = EDGE_LOOP ( 'NONE', ( #87, #91 ) ) ;
#199 = ORIENTED_EDGE ( 'NONE', *, *, #266, .T. ) ;
#200 = CARTESIAN_POINT ( 'NONE',  ( 0.06250000000000004163, 7.654042494670960626E-18, 0.3331302294237204475 ) ) ;
#201 = EDGE_LOOP ( 'NONE', ( #278, #29, #107, #142 ) ) ;
#202 = EDGE_CURVE ( 'NONE', #139, #71, #33, .T. ) ;
#203 = MECHANICAL_DESIGN_GEOMETRIC_PRESENTATION_REPRESENTATION (  '', ( #196 ), #316 ) ;
#204 = LINE ( 'NONE', #8, #78 ) ;
#205 = ORIENTED_EDGE ( 'NONE', *, *, #170, .T. ) ;
#206 =( NAMED_UNIT ( * ) SI_UNIT ( $, .STERADIAN. ) SOLID_ANGLE_UNIT ( ) );
#207 = ORIENTED_EDGE ( 'NONE', *, *, #285, .F. ) ;
#208 = ADVANCED_FACE ( 'NONE', ( #17 ), #98, .T. ) ;
#209 = FILL_AREA_STYLE_COLOUR ( '', #126 ) ;
#210 = CARTESIAN_POINT ( 'NONE',  ( 9.787377218785650228E-19, 0.0000000000000000000, 0.007992000000000000839 ) ) ;
#211 = VERTEX_POINT ( 'NONE', #217 ) ;
#212 = CYLINDRICAL_SURFACE ( 'NONE', #219, 0.06250000000000000000 ) ;
#213 =( NAMED_UNIT ( * ) PLANE_ANGLE_UNIT ( ) SI_UNIT ( $, .RADIAN. ) );
#214 = AXIS2_PLACEMENT_3D ( 'NONE', #294, #320, #51 ) ;
#215 = AXIS2_PLACEMENT_3D ( 'NONE', #104, #195, #216 ) ;
#216 = DIRECTION ( 'NONE',  ( 1.000000000000000000, 0.0000000000000000000, 0.0000000000000000000 ) ) ;
#217 = CARTESIAN_POINT ( 'NONE',  ( 0.007992000000000006044, 0.0000000000000000000, 0.02400000000000000050 ) ) ;
#218 = DIRECTION ( 'NONE',  ( -1.224646799147353454E-16, -0.0000000000000000000, -1.000000000000000000 ) ) ;
#219 = AXIS2_PLACEMENT_3D ( 'NONE', #96, #115, #284 ) ;
#220 = FACE_OUTER_BOUND ( 'NONE', #198, .T. ) ;
#221 = EDGE_CURVE ( 'NONE', #88, #31, #50, .T. ) ;
#222 = CARTESIAN_POINT ( 'NONE',  ( 2.939152317953648508E-18, 0.0000000000000000000, 0.02400000000000000050 ) ) ;
#223 = EDGE_CURVE ( 'NONE', #120, #137, #85, .T. ) ;
#224 = DIRECTION ( 'NONE',  ( 1.224646799147353454E-16, 0.0000000000000000000, 1.000000000000000000 ) ) ;
#225 = VECTOR ( 'NONE', #293, 39.37007874015748143 ) ;
#226 = CARTESIAN_POINT ( 'NONE',  ( 2.939152317953648508E-18, 0.0000000000000000000, 0.02400000000000000050 ) ) ;
#227 = ADVANCED_FACE ( 'NONE', ( #57 ), #90, .T. ) ;
#228 = ORIENTED_EDGE ( 'NONE', *, *, #223, .F. ) ;
#229 = DIRECTION ( 'NONE',  ( 1.000000000000000000, 0.0000000000000000000, 0.0000000000000000000 ) ) ;
#230 = ORIENTED_EDGE ( 'NONE', *, *, #7, .F. ) ;
#231 = CARTESIAN_POINT ( 'NONE',  ( 4.079668691629827701E-17, 0.0000000000000000000, 0.3331302294237204475 ) ) ;
#232 = VERTEX_POINT ( 'NONE', #109 ) ;
#233 = ADVANCED_BREP_SHAPE_REPRESENTATION ( 'Micro_BMS-016-2', ( #38, #168 ), #251 ) ;
#234 = ORIENTED_EDGE ( 'NONE', *, *, #112, .F. ) ;
#235 = AXIS2_PLACEMENT_3D ( 'NONE', #70, #187, #146 ) ;
#236 = SURFACE_STYLE_FILL_AREA ( #36 ) ;
#237 = CARTESIAN_POINT ( 'NONE',  ( -0.06250000000000000000, 0.0000000000000000000, 1.485000000000000764 ) ) ;
#238 = CIRCLE ( 'NONE', #3, 0.007992000000000002574 ) ;
#239 = AXIS2_PLACEMENT_3D ( 'NONE', #2, #141, #309 ) ;
#240 = LINE ( 'NONE', #325, #134 ) ;
#241 = CARTESIAN_POINT ( 'NONE',  ( -0.06249999999999995837, 0.0000000000000000000, 0.3331302294237204475 ) ) ;
#242 = DIRECTION ( 'NONE',  ( -1.224646799147353454E-16, -0.0000000000000000000, -1.000000000000000000 ) ) ;
#243 = CIRCLE ( 'NONE', #296, 0.007992000000000002574 ) ;
#244 = CIRCLE ( 'NONE', #15, 0.007992000000000002574 ) ;
#245 = DIRECTION ( 'NONE',  ( 1.000000000000000000, 0.0000000000000000000, -0.0000000000000000000 ) ) ;
#246 = DIRECTION ( 'NONE',  ( -1.224646799147353454E-16, -0.0000000000000000000, -1.000000000000000000 ) ) ;
#247 = CARTESIAN_POINT ( 'NONE',  ( 4.079668691629827701E-17, 0.0000000000000000000, 0.3331302294237204475 ) ) ;
#248 = ORIENTED_EDGE ( 'NONE', *, *, #7, .T. ) ;
#249 = ORIENTED_EDGE ( 'NONE', *, *, #221, .F. ) ;
#250 = LENGTH_MEASURE_WITH_UNIT ( LENGTH_MEASURE( 0.02539999999999999897 ), #277 );
#251 =( GEOMETRIC_REPRESENTATION_CONTEXT ( 3 ) GLOBAL_UNCERTAINTY_ASSIGNED_CONTEXT ( ( #306 ) ) GLOBAL_UNIT_ASSIGNED_CONTEXT ( ( #59, #157, #206 ) ) REPRESENTATION_CONTEXT ( 'NONE', 'WORKASPACE' ) );
#252 = ORIENTED_EDGE ( 'NONE', *, *, #23, .T. ) ;
#253 = DIRECTION ( 'NONE',  ( -1.000000000000000000, 0.0000000000000000000, 1.335245398554932983E-16 ) ) ;
#254 = PRESENTATION_STYLE_ASSIGNMENT (( #314 ) ) ;
#255 = AXIS2_PLACEMENT_3D ( 'NONE', #210, #313, #188 ) ;
#256 = SURFACE_SIDE_STYLE ('',( #236 ) ) ;
#257 = EDGE_LOOP ( 'NONE', ( #230, #58, #189, #160 ) ) ;
#258 = DIRECTION ( 'NONE',  ( 0.0000000000000000000, 1.000000000000000000, 0.0000000000000000000 ) ) ;
#259 = EDGE_CURVE ( 'NONE', #31, #166, #244, .T. ) ;
#260 = DIRECTION ( 'NONE',  ( -1.000000000000000000, 0.0000000000000000000, 0.0000000000000000000 ) ) ;
#261 = AXIS2_PLACEMENT_3D ( 'NONE', #172, #242, #46 ) ;
#262 = MECHANICAL_DESIGN_GEOMETRIC_PRESENTATION_REPRESENTATION (  '', ( #297 ), #312 ) ;
#263 = FACE_OUTER_BOUND ( 'NONE', #257, .T. ) ;
#264 = DIRECTION ( 'NONE',  ( 0.0000000000000000000, 0.0000000000000000000, -1.000000000000000000 ) ) ;
#265 = DIMENSIONAL_EXPONENTS ( 1.000000000000000000, 0.0000000000000000000, 0.0000000000000000000, 0.0000000000000000000, 0.0000000000000000000, 0.0000000000000000000, 0.0000000000000000000 ) ;
#266 = EDGE_CURVE ( 'NONE', #139, #120, #204, .T. ) ;
#267 = CARTESIAN_POINT ( 'NONE',  ( 0.04750000000000064587, 6.735557395310482421E-18, 1.500000000000000222 ) ) ;
#268 = CIRCLE ( 'NONE', #159, 0.06250000000000000000 ) ;
#269 = DIRECTION ( 'NONE',  ( 0.0000000000000000000, 0.0000000000000000000, 1.000000000000000000 ) ) ;
#270 = PRODUCT ( 'Micro_BMS-016-2', 'Micro_BMS-016-2', '', ( #5 ) ) ;
#271 = SURFACE_SIDE_STYLE ('',( #178 ) ) ;
#272 = DIRECTION ( 'NONE',  ( 1.000000000000000000, 0.0000000000000000000, 0.0000000000000000000 ) ) ;
#273 = EDGE_LOOP ( 'NONE', ( #249, #252, #308 ) ) ;
#274 = AXIS2_PLACEMENT_3D ( 'NONE', #231, #179, #272 ) ;
#275 = FACE_OUTER_BOUND ( 'NONE', #276, .T. ) ;
#276 = EDGE_LOOP ( 'NONE', ( #234, #27, #184, #43 ) ) ;
#277 =( LENGTH_UNIT ( ) NAMED_UNIT ( * ) SI_UNIT ( $, .METRE. ) );
#278 = ORIENTED_EDGE ( 'NONE', *, *, #150, .F. ) ;
#279 = DIRECTION ( 'NONE',  ( 0.7071067811865456854, 8.659560562354911904E-17, -0.7071067811865493491 ) ) ;
#280 = EDGE_CURVE ( 'NONE', #301, #106, #268, .T. ) ;
#281 = EDGE_LOOP ( 'NONE', ( #11, #199, #162, #65 ) ) ;
#282 = CONICAL_SURFACE ( 'NONE', #323, 0.007992000000000002574, 0.1745329251994338637 ) ;
#283 = CARTESIAN_POINT ( 'NONE',  ( 9.787377218785650228E-19, 0.0000000000000000000, 0.007992000000000000839 ) ) ;
#284 = DIRECTION ( 'NONE',  ( -1.000000000000000000, 0.0000000000000000000, 0.0000000000000000000 ) ) ;
#285 = EDGE_CURVE ( 'NONE', #106, #301, #185, .T. ) ;
#286 = ADVANCED_FACE ( 'NONE', ( #54 ), #282, .T. ) ;
#287 = AXIS2_PLACEMENT_3D ( 'NONE', #291, #319, #77 ) ;
#288 = ORIENTED_EDGE ( 'NONE', *, *, #221, .T. ) ;
#289 = ORIENTED_EDGE ( 'NONE', *, *, #23, .F. ) ;
#290 = PRODUCT_DEFINITION_CONTEXT ( 'detailed design', #95, 'design' ) ;
#291 = CARTESIAN_POINT ( 'NONE',  ( 0.0000000000000000000, 0.0000000000000000000, 1.500000000000000222 ) ) ;
#292 = DIRECTION ( 'NONE',  ( 0.0000000000000000000, 1.000000000000000000, 0.0000000000000000000 ) ) ;
#293 = DIRECTION ( 'NONE',  ( -1.224646799147353454E-16, -0.0000000000000000000, -1.000000000000000000 ) ) ;
#294 = CARTESIAN_POINT ( 'NONE',  ( 0.0000000000000000000, 0.0000000000000000000, 0.0000000000000000000 ) ) ;
#295 = CARTESIAN_POINT ( 'NONE',  ( 0.007992000000000002574, 9.787377218785648302E-19, -9.787377218785652154E-19 ) ) ;
#296 = AXIS2_PLACEMENT_3D ( 'NONE', #283, #14, #253 ) ;
#297 = STYLED_ITEM ( 'NONE', ( #135 ), #233 ) ;
#298 = DIRECTION ( 'NONE',  ( -1.224646799147353454E-16, -0.0000000000000000000, -1.000000000000000000 ) ) ;
#299 = ADVANCED_FACE ( 'NONE', ( #307 ), #127, .T. ) ;
#300 = DIRECTION ( 'NONE',  ( 1.224646799147353454E-16, 0.0000000000000000000, 1.000000000000000000 ) ) ;
#301 = VERTEX_POINT ( 'NONE', #200 ) ;
#302 = FILL_AREA_STYLE_COLOUR ( '', #94 ) ;
#303 = ORIENTED_EDGE ( 'NONE', *, *, #304, .T. ) ;
#304 = EDGE_CURVE ( 'NONE', #232, #166, #4, .T. ) ;
#305 = VECTOR ( 'NONE', #246, 39.37007874015748143 ) ;
#306 = UNCERTAINTY_MEASURE_WITH_UNIT (LENGTH_MEASURE( 1.000000000000000082E-05 ), #59, 'distance_accuracy_value', 'NONE');
#307 = FACE_OUTER_BOUND ( 'NONE', #6, .T. ) ;
#308 = ORIENTED_EDGE ( 'NONE', *, *, #259, .F. ) ;
#309 = DIRECTION ( 'NONE',  ( -1.000000000000000000, 0.0000000000000000000, 0.0000000000000000000 ) ) ;
#310 = ORIENTED_EDGE ( 'NONE', *, *, #170, .F. ) ;
#311 = VECTOR ( 'NONE', #42, 39.37007874015748143 ) ;
#312 =( GEOMETRIC_REPRESENTATION_CONTEXT ( 3 ) GLOBAL_UNCERTAINTY_ASSIGNED_CONTEXT ( ( #131 ) ) GLOBAL_UNIT_ASSIGNED_CONTEXT ( ( #194, #108, #30 ) ) REPRESENTATION_CONTEXT ( 'NONE', 'WORKASPACE' ) );
#313 = DIRECTION ( 'NONE',  ( 1.224646799147353207E-16, 1.000000000000000000, -0.0000000000000000000 ) ) ;
#314 = SURFACE_STYLE_USAGE ( .BOTH. , #256 ) ;
#315 = CARTESIAN_POINT ( 'NONE',  ( -0.04750000000000064587, 0.0000000000000000000, 1.500000000000000222 ) ) ;
#316 =( GEOMETRIC_REPRESENTATION_CONTEXT ( 3 ) GLOBAL_UNCERTAINTY_ASSIGNED_CONTEXT ( ( #103 ) ) GLOBAL_UNIT_ASSIGNED_CONTEXT ( ( #10, #213, #92 ) ) REPRESENTATION_CONTEXT ( 'NONE', 'WORKASPACE' ) );
#317 = AXIS2_PLACEMENT_3D ( 'NONE', #84, #224, #136 ) ;
#318 = LINE ( 'NONE', #66, #322 ) ;
#319 = DIRECTION ( 'NONE',  ( 0.0000000000000000000, 0.0000000000000000000, 1.000000000000000000 ) ) ;
#320 = DIRECTION ( 'NONE',  ( -1.224646799147353454E-16, -0.0000000000000000000, -1.000000000000000000 ) ) ;
#321 = PLANE ( 'NONE',  #44 ) ;
#322 = VECTOR ( 'NONE', #144, 39.37007874015748143 ) ;
#323 = AXIS2_PLACEMENT_3D ( 'NONE', #226, #26, #113 ) ;
#324 = ADVANCED_FACE ( 'NONE', ( #275 ), #164, .T. ) ;
#325 = CARTESIAN_POINT ( 'NONE',  ( -0.06250000000000000000, 0.0000000000000000000, 1.500000000000000222 ) ) ;
ENDSEC;
END-ISO-10303-21;
