ISO-10303-21;
HEADER;
FILE_DESCRIPTION (( 'STEP AP214' ),
    '1' );
FILE_NAME ('86035.STEP',
    '2023-06-23T15:49:31',
    ( '' ),
    ( '' ),
    'SwSTEP 2.0',
    'SolidWorks 2023',
    '' );
FILE_SCHEMA (( 'AUTOMOTIVE_DESIGN' ));
ENDSEC;

DATA;
#1 = DIRECTION ( 'NONE',  ( 0.000000000000000000, 0.000000000000000000, -1.000000000000000000 ) ) ;
#2 = DIRECTION ( 'NONE',  ( -9.797174393178823685E-17, 1.000000000000000000, -0.000000000000000000 ) ) ;
#3 = MECHANICAL_DESIGN_GEOMETRIC_PRESENTATION_REPRESENTATION (  '', ( #138 ), #222 ) ;
#4 = DIMENSIONAL_EXPONENTS ( 1.000000000000000000, 0.000000000000000000, 0.000000000000000000, 0.000000000000000000, 0.000000000000000000, 0.000000000000000000, 0.000000000000000000 ) ;
#5 = DIRECTION ( 'NONE',  ( -1.000000000000000000, 0.000000000000000000, 0.000000000000000000 ) ) ;
#6 = DIRECTION ( 'NONE',  ( -1.000000000000000000, 0.000000000000000000, 0.000000000000000000 ) ) ;
#7 = VECTOR ( 'NONE', #41, 39.37007874015748143 ) ;
#8 =( GEOMETRIC_REPRESENTATION_CONTEXT ( 3 ) GLOBAL_UNCERTAINTY_ASSIGNED_CONTEXT ( ( #299 ) ) GLOBAL_UNIT_ASSIGNED_CONTEXT ( ( #270, #267, #31 ) ) REPRESENTATION_CONTEXT ( 'NONE', 'WORKASPACE' ) );
#9 =( CONVERSION_BASED_UNIT ( 'INCH', #205 ) LENGTH_UNIT ( ) NAMED_UNIT ( #74 ) );
#10 = CYLINDRICAL_SURFACE ( 'NONE', #160, 0.2500000000000000000 ) ;
#11 = EDGE_CURVE ( 'NONE', #276, #255, #148, .T. ) ;
#12 = PRESENTATION_LAYER_ASSIGNMENT (  '', '', ( #302 ) ) ;
#13 = ORIENTED_EDGE ( 'NONE', *, *, #107, .F. ) ;
#14 = DIRECTION ( 'NONE',  ( 0.000000000000000000, -0.000000000000000000, 1.000000000000000000 ) ) ;
#15 = ORIENTED_EDGE ( 'NONE', *, *, #261, .T. ) ;
#16 = COLOUR_RGB ( '',1.000000000000000000, 0.000000000000000000, 0.000000000000000000 ) ;
#17 = EDGE_LOOP ( 'NONE', ( #153, #184, #178, #156 ) ) ;
#18 =( NAMED_UNIT ( * ) SI_UNIT ( $, .STERADIAN. ) SOLID_ANGLE_UNIT ( ) );
#19 = EDGE_CURVE ( 'NONE', #221, #180, #170, .T. ) ;
#20 = PRODUCT ( '86035', '86035', '', ( #266 ) ) ;
#21 = STYLED_ITEM ( 'NONE', ( #83 ), #95 ) ;
#22 = DIRECTION ( 'NONE',  ( -9.797174393178823685E-17, 1.000000000000000000, -0.000000000000000000 ) ) ;
#23 =( NAMED_UNIT ( * ) PLANE_ANGLE_UNIT ( ) SI_UNIT ( $, .RADIAN. ) );
#24 = LINE ( 'NONE', #125, #134 ) ;
#25 = DIMENSIONAL_EXPONENTS ( 1.000000000000000000, 0.000000000000000000, 0.000000000000000000, 0.000000000000000000, 0.000000000000000000, 0.000000000000000000, 0.000000000000000000 ) ;
#26 = PRESENTATION_LAYER_ASSIGNMENT (  '', '', ( #56 ) ) ;
#27 = CYLINDRICAL_SURFACE ( 'NONE', #44, 0.2500000000000001110 ) ;
#28 =( CONVERSION_BASED_UNIT ( 'INCH', #58 ) LENGTH_UNIT ( ) NAMED_UNIT ( #226 ) );
#29 = EDGE_CURVE ( 'NONE', #296, #42, #143, .T. ) ;
#30 = SURFACE_STYLE_USAGE ( .BOTH. , #144 ) ;
#31 =( NAMED_UNIT ( * ) SI_UNIT ( $, .STERADIAN. ) SOLID_ANGLE_UNIT ( ) );
#32 = DIRECTION ( 'NONE',  ( -9.797174393178823685E-17, 1.000000000000000000, -0.000000000000000000 ) ) ;
#33 = DIRECTION ( 'NONE',  ( 9.797174393178823685E-17, -1.000000000000000000, 0.000000000000000000 ) ) ;
#34 = MANIFOLD_SOLID_BREP ( 'Revolve - Cutting Edge', #61 ) ;
#35 = DIRECTION ( 'NONE',  ( 0.000000000000000000, 0.000000000000000000, 1.000000000000000000 ) ) ;
#36 = LINE ( 'NONE', #243, #48 ) ;
#37 = AXIS2_PLACEMENT_3D ( 'NONE', #264, #177, #6 ) ;
#38 =( CONVERSION_BASED_UNIT ( 'INCH', #304 ) LENGTH_UNIT ( ) NAMED_UNIT ( #25 ) );
#39 = ORIENTED_EDGE ( 'NONE', *, *, #107, .T. ) ;
#40 = FILL_AREA_STYLE_COLOUR ( '', #268 ) ;
#41 = DIRECTION ( 'NONE',  ( -0.000000000000000000, -1.000000000000000000, -0.000000000000000000 ) ) ;
#42 = VERTEX_POINT ( 'NONE', #116 ) ;
#43 = ORIENTED_EDGE ( 'NONE', *, *, #235, .F. ) ;
#44 = AXIS2_PLACEMENT_3D ( 'NONE', #204, #32, #85 ) ;
#45 = AXIS2_PLACEMENT_3D ( 'NONE', #201, #35, #290 ) ;
#46 = CARTESIAN_POINT ( 'NONE',  ( 0.000000000000000000, 2.500000000000000000, 0.000000000000000000 ) ) ;
#47 = ADVANCED_FACE ( 'NONE', ( #133 ), #306, .T. ) ;
#48 = VECTOR ( 'NONE', #219, 39.37007874015748143 ) ;
#49 = STYLED_ITEM ( 'NONE', ( #98 ), #224 ) ;
#50 = DIRECTION ( 'NONE',  ( -0.000000000000000000, -1.000000000000000000, -0.000000000000000000 ) ) ;
#51 = APPLICATION_CONTEXT ( 'automotive_design' ) ;
#52 = DIRECTION ( 'NONE',  ( 0.000000000000000000, 0.000000000000000000, -1.000000000000000000 ) ) ;
#53 = DIMENSIONAL_EXPONENTS ( 1.000000000000000000, 0.000000000000000000, 0.000000000000000000, 0.000000000000000000, 0.000000000000000000, 0.000000000000000000, 0.000000000000000000 ) ;
#54 = CARTESIAN_POINT ( 'NONE',  ( 0.000000000000000000, 0.000000000000000000, 0.000000000000000000 ) ) ;
#55 = STYLED_ITEM ( 'NONE', ( #106 ), #172 ) ;
#56 = STYLED_ITEM ( 'NONE', ( #286 ), #34 ) ;
#57 = SURFACE_STYLE_FILL_AREA ( #78 ) ;
#58 = LENGTH_MEASURE_WITH_UNIT ( LENGTH_MEASURE( 0.02539999999999999897 ), #150 );
#59 = FILL_AREA_STYLE ('',( #173 ) ) ;
#60 = LENGTH_MEASURE_WITH_UNIT ( LENGTH_MEASURE( 0.02539999999999999897 ), #174 );
#61 = CLOSED_SHELL ( 'NONE', ( #292, #172, #216, #95 ) ) ;
#62 = CARTESIAN_POINT ( 'NONE',  ( -0.2500000000000000000, 2.500000000000000000, 0.000000000000000000 ) ) ;
#63 = CARTESIAN_POINT ( 'NONE',  ( 0.000000000000000000, 2.500000000000000000, -0.2500000000000000000 ) ) ;
#64 = SURFACE_SIDE_STYLE ('',( #271 ) ) ;
#65 = PLANE ( 'NONE',  #278 ) ;
#66 =( NAMED_UNIT ( * ) PLANE_ANGLE_UNIT ( ) SI_UNIT ( $, .RADIAN. ) );
#67 = ORIENTED_EDGE ( 'NONE', *, *, #19, .T. ) ;
#68 = DIRECTION ( 'NONE',  ( -1.000000000000000000, -9.797174393178823685E-17, 0.000000000000000000 ) ) ;
#69 =( NAMED_UNIT ( * ) PLANE_ANGLE_UNIT ( ) SI_UNIT ( $, .RADIAN. ) );
#70 = ORIENTED_EDGE ( 'NONE', *, *, #121, .T. ) ;
#71 =( LENGTH_UNIT ( ) NAMED_UNIT ( * ) SI_UNIT ( $, .METRE. ) );
#72 = EDGE_LOOP ( 'NONE', ( #67, #303 ) ) ;
#73 = EDGE_CURVE ( 'NONE', #180, #221, #101, .T. ) ;
#74 = DIMENSIONAL_EXPONENTS ( 1.000000000000000000, 0.000000000000000000, 0.000000000000000000, 0.000000000000000000, 0.000000000000000000, 0.000000000000000000, 0.000000000000000000 ) ;
#75 = SURFACE_STYLE_USAGE ( .BOTH. , #212 ) ;
#76 =( GEOMETRIC_REPRESENTATION_CONTEXT ( 3 ) GLOBAL_UNCERTAINTY_ASSIGNED_CONTEXT ( ( #109 ) ) GLOBAL_UNIT_ASSIGNED_CONTEXT ( ( #192, #23, #123 ) ) REPRESENTATION_CONTEXT ( 'NONE', 'WORKASPACE' ) );
#77 = DIRECTION ( 'NONE',  ( -0.000000000000000000, -1.000000000000000000, -0.000000000000000000 ) ) ;
#78 = FILL_AREA_STYLE ('',( #189 ) ) ;
#79 = ADVANCED_FACE ( 'NONE', ( #279 ), #241, .F. ) ;
#80 = AXIS2_PLACEMENT_3D ( 'NONE', #214, #2, #5 ) ;
#81 = PRODUCT_DEFINITION_SHAPE ( 'NONE', 'NONE',  #140 ) ;
#82 = PLANE ( 'NONE',  #225 ) ;
#83 = PRESENTATION_STYLE_ASSIGNMENT (( #283 ) ) ;
#84 = ORIENTED_EDGE ( 'NONE', *, *, #73, .F. ) ;
#85 = DIRECTION ( 'NONE',  ( -1.000000000000000000, 0.000000000000000000, 0.000000000000000000 ) ) ;
#86 = ORIENTED_EDGE ( 'NONE', *, *, #274, .T. ) ;
#87 = LENGTH_MEASURE_WITH_UNIT ( LENGTH_MEASURE( 0.02539999999999999897 ), #114 );
#88 = DIRECTION ( 'NONE',  ( 0.000000000000000000, 0.000000000000000000, -1.000000000000000000 ) ) ;
#89 = AXIS2_PLACEMENT_3D ( 'NONE', #210, #179, #308 ) ;
#90 =( CONVERSION_BASED_UNIT ( 'INCH', #87 ) LENGTH_UNIT ( ) NAMED_UNIT ( #124 ) );
#91 =( NAMED_UNIT ( * ) PLANE_ANGLE_UNIT ( ) SI_UNIT ( $, .RADIAN. ) );
#92 = AXIS2_PLACEMENT_3D ( 'NONE', #209, #22, #122 ) ;
#93 =( NAMED_UNIT ( * ) SI_UNIT ( $, .STERADIAN. ) SOLID_ANGLE_UNIT ( ) );
#94 = PRESENTATION_LAYER_ASSIGNMENT (  '', '', ( #49 ) ) ;
#95 = ADVANCED_FACE ( 'NONE', ( #149 ), #65, .T. ) ;
#96 = CARTESIAN_POINT ( 'NONE',  ( 3.032960542342103792E-32, 2.500000000000000000, 0.000000000000000000 ) ) ;
#97 =( GEOMETRIC_REPRESENTATION_CONTEXT ( 3 ) GLOBAL_UNCERTAINTY_ASSIGNED_CONTEXT ( ( #155 ) ) GLOBAL_UNIT_ASSIGNED_CONTEXT ( ( #9, #69, #108 ) ) REPRESENTATION_CONTEXT ( 'NONE', 'WORKASPACE' ) );
#98 = PRESENTATION_STYLE_ASSIGNMENT (( #75 ) ) ;
#99 =( NAMED_UNIT ( * ) PLANE_ANGLE_UNIT ( ) SI_UNIT ( $, .RADIAN. ) );
#100 = FACE_OUTER_BOUND ( 'NONE', #158, .T. ) ;
#101 = CIRCLE ( 'NONE', #89, 0.2500000000000000000 ) ;
#102 = PRESENTATION_STYLE_ASSIGNMENT (( #130 ) ) ;
#103 =( GEOMETRIC_REPRESENTATION_CONTEXT ( 3 ) GLOBAL_UNCERTAINTY_ASSIGNED_CONTEXT ( ( #239 ) ) GLOBAL_UNIT_ASSIGNED_CONTEXT ( ( #167, #275, #18 ) ) REPRESENTATION_CONTEXT ( 'NONE', 'WORKASPACE' ) );
#104 = EDGE_LOOP ( 'NONE', ( #176, #43 ) ) ;
#105 = ORIENTED_EDGE ( 'NONE', *, *, #127, .F. ) ;
#106 = PRESENTATION_STYLE_ASSIGNMENT (( #242 ) ) ;
#107 = EDGE_CURVE ( 'NONE', #42, #180, #157, .T. ) ;
#108 =( NAMED_UNIT ( * ) SI_UNIT ( $, .STERADIAN. ) SOLID_ANGLE_UNIT ( ) );
#109 = UNCERTAINTY_MEASURE_WITH_UNIT (LENGTH_MEASURE( 1.000000000000000082E-05 ), #192, 'distance_accuracy_value', 'NONE');
#110 = VERTEX_POINT ( 'NONE', #62 ) ;
#111 = CYLINDRICAL_SURFACE ( 'NONE', #227, 0.2500000000000000000 ) ;
#112 = EDGE_LOOP ( 'NONE', ( #13, #280, #70, #84 ) ) ;
#113 = ORIENTED_EDGE ( 'NONE', *, *, #121, .F. ) ;
#114 =( LENGTH_UNIT ( ) NAMED_UNIT ( * ) SI_UNIT ( $, .METRE. ) );
#115 = FILL_AREA_STYLE ('',( #40 ) ) ;
#116 = CARTESIAN_POINT ( 'NONE',  ( 3.061616997868383018E-17, 2.500000000000000000, 0.2500000000000000000 ) ) ;
#117 = SURFACE_STYLE_FILL_AREA ( #282 ) ;
#118 = PRODUCT_DEFINITION_FORMATION_WITH_SPECIFIED_SOURCE ( 'ANY', '', #20, .NOT_KNOWN. ) ;
#119 = CARTESIAN_POINT ( 'NONE',  ( 0.000000000000000000, 2.500000000000000000, 0.000000000000000000 ) ) ;
#120 = FILL_AREA_STYLE_COLOUR ( '', #183 ) ;
#121 = EDGE_CURVE ( 'NONE', #296, #221, #231, .T. ) ;
#122 = DIRECTION ( 'NONE',  ( -1.000000000000000000, 0.000000000000000000, 0.000000000000000000 ) ) ;
#123 =( NAMED_UNIT ( * ) SI_UNIT ( $, .STERADIAN. ) SOLID_ANGLE_UNIT ( ) );
#124 = DIMENSIONAL_EXPONENTS ( 1.000000000000000000, 0.000000000000000000, 0.000000000000000000, 0.000000000000000000, 0.000000000000000000, 0.000000000000000000, 0.000000000000000000 ) ;
#125 = CARTESIAN_POINT ( 'NONE',  ( 0.2499999999999998890, 5.000000000000000000, 3.061616997868384251E-17 ) ) ;
#126 = CIRCLE ( 'NONE', #259, 0.2500000000000000000 ) ;
#127 = EDGE_CURVE ( 'NONE', #110, #276, #36, .T. ) ;
#128 = PRESENTATION_LAYER_ASSIGNMENT (  '', '', ( #21 ) ) ;
#129 = SURFACE_STYLE_FILL_AREA ( #206 ) ;
#130 = SURFACE_STYLE_USAGE ( .BOTH. , #287 ) ;
#131 = CARTESIAN_POINT ( 'NONE',  ( -2.449293598294705921E-16, 5.000000000000000000, 0.000000000000000000 ) ) ;
#132 = FACE_OUTER_BOUND ( 'NONE', #207, .T. ) ;
#133 = FACE_OUTER_BOUND ( 'NONE', #17, .T. ) ;
#134 = VECTOR ( 'NONE', #142, 39.37007874015748143 ) ;
#135 = DIRECTION ( 'NONE',  ( -9.797174393178823685E-17, 1.000000000000000000, 0.000000000000000000 ) ) ;
#136 = FILL_AREA_STYLE_COLOUR ( '', #288 ) ;
#137 = FACE_OUTER_BOUND ( 'NONE', #159, .T. ) ;
#138 = STYLED_ITEM ( 'NONE', ( #301 ), #216 ) ;
#139 = CARTESIAN_POINT ( 'NONE',  ( 0.2500000000000000000, 5.000000000000000000, 0.000000000000000000 ) ) ;
#140 = PRODUCT_DEFINITION ( 'UNKNOWN', '', #118, #252 ) ;
#141 = DIRECTION ( 'NONE',  ( 0.000000000000000000, 0.000000000000000000, -1.000000000000000000 ) ) ;
#142 = DIRECTION ( 'NONE',  ( -9.797174393178823685E-17, 1.000000000000000000, -0.000000000000000000 ) ) ;
#143 = CIRCLE ( 'NONE', #245, 0.2500000000000000000 ) ;
#144 = SURFACE_SIDE_STYLE ('',( #57 ) ) ;
#145 = FILL_AREA_STYLE_COLOUR ( '', #191 ) ;
#146 = UNCERTAINTY_MEASURE_WITH_UNIT (LENGTH_MEASURE( 1.000000000000000082E-05 ), #90, 'distance_accuracy_value', 'NONE');
#147 = SURFACE_STYLE_FILL_AREA ( #196 ) ;
#148 = CIRCLE ( 'NONE', #92, 0.2500000000000002220 ) ;
#149 = FACE_OUTER_BOUND ( 'NONE', #72, .T. ) ;
#150 =( LENGTH_UNIT ( ) NAMED_UNIT ( * ) SI_UNIT ( $, .METRE. ) );
#151 = ADVANCED_FACE ( 'NONE', ( #132 ), #27, .T. ) ;
#152 = DIRECTION ( 'NONE',  ( 0.000000000000000000, -1.000000000000000000, -0.000000000000000000 ) ) ;
#153 = ORIENTED_EDGE ( 'NONE', *, *, #261, .F. ) ;
#154 = CIRCLE ( 'NONE', #37, 0.2500000000000002220 ) ;
#155 = UNCERTAINTY_MEASURE_WITH_UNIT (LENGTH_MEASURE( 1.000000000000000082E-05 ), #9, 'distance_accuracy_value', 'NONE');
#156 = ORIENTED_EDGE ( 'NONE', *, *, #162, .F. ) ;
#157 = LINE ( 'NONE', #251, #7 ) ;
#158 = EDGE_LOOP ( 'NONE', ( #297, #39, #300, #113 ) ) ;
#159 = EDGE_LOOP ( 'NONE', ( #294, #273 ) ) ;
#160 = AXIS2_PLACEMENT_3D ( 'NONE', #171, #236, #202 ) ;
#161 = LENGTH_MEASURE_WITH_UNIT ( LENGTH_MEASURE( 0.02539999999999999897 ), #234 );
#162 = EDGE_CURVE ( 'NONE', #255, #276, #154, .T. ) ;
#163 = PRESENTATION_LAYER_ASSIGNMENT (  '', '', ( #55 ) ) ;
#164 = CARTESIAN_POINT ( 'NONE',  ( 0.000000000000000000, 2.500000000000000000, 0.000000000000000000 ) ) ;
#165 = DIRECTION ( 'NONE',  ( 0.000000000000000000, 0.000000000000000000, -1.000000000000000000 ) ) ;
#166 = DIMENSIONAL_EXPONENTS ( 1.000000000000000000, 0.000000000000000000, 0.000000000000000000, 0.000000000000000000, 0.000000000000000000, 0.000000000000000000, 0.000000000000000000 ) ;
#167 =( CONVERSION_BASED_UNIT ( 'INCH', #60 ) LENGTH_UNIT ( ) NAMED_UNIT ( #4 ) );
#168 = CARTESIAN_POINT ( 'NONE',  ( -0.2500000000000004996, 5.000000000000000000, 0.000000000000000000 ) ) ;
#169 =( LENGTH_UNIT ( ) NAMED_UNIT ( * ) SI_UNIT ( $, .METRE. ) );
#170 = CIRCLE ( 'NONE', #190, 0.2500000000000000000 ) ;
#171 = CARTESIAN_POINT ( 'NONE',  ( 0.000000000000000000, 0.000000000000000000, 0.000000000000000000 ) ) ;
#172 = ADVANCED_FACE ( 'NONE', ( #291 ), #82, .T. ) ;
#173 = FILL_AREA_STYLE_COLOUR ( '', #16 ) ;
#174 =( LENGTH_UNIT ( ) NAMED_UNIT ( * ) SI_UNIT ( $, .METRE. ) );
#175 = PRESENTATION_LAYER_ASSIGNMENT (  '', '', ( #138 ) ) ;
#176 = ORIENTED_EDGE ( 'NONE', *, *, #29, .F. ) ;
#177 = DIRECTION ( 'NONE',  ( -9.797174393178823685E-17, 1.000000000000000000, -0.000000000000000000 ) ) ;
#178 = ORIENTED_EDGE ( 'NONE', *, *, #127, .T. ) ;
#179 = DIRECTION ( 'NONE',  ( -0.000000000000000000, -1.000000000000000000, -0.000000000000000000 ) ) ;
#180 = VERTEX_POINT ( 'NONE', #305 ) ;
#181 = VECTOR ( 'NONE', #293, 39.37007874015748143 ) ;
#182 = UNCERTAINTY_MEASURE_WITH_UNIT (LENGTH_MEASURE( 1.000000000000000082E-05 ), #28, 'distance_accuracy_value', 'NONE');
#183 = COLOUR_RGB ( '',0.7921568627450980005, 0.8196078431372548767, 0.9333333333333333481 ) ;
#184 = ORIENTED_EDGE ( 'NONE', *, *, #249, .T. ) ;
#185 = EDGE_LOOP ( 'NONE', ( #228, #253 ) ) ;
#186 = SURFACE_STYLE_FILL_AREA ( #115 ) ;
#187 = APPLICATION_CONTEXT ( 'automotive_design' ) ;
#188 = MECHANICAL_DESIGN_GEOMETRIC_PRESENTATION_REPRESENTATION (  '', ( #21 ), #97 ) ;
#189 = FILL_AREA_STYLE_COLOUR ( '', #258 ) ;
#190 = AXIS2_PLACEMENT_3D ( 'NONE', #285, #77, #165 ) ;
#191 = COLOUR_RGB ( '',1.000000000000000000, 0.000000000000000000, 0.000000000000000000 ) ;
#192 =( CONVERSION_BASED_UNIT ( 'INCH', #161 ) LENGTH_UNIT ( ) NAMED_UNIT ( #166 ) );
#193 = DIRECTION ( 'NONE',  ( 1.000000000000000000, 9.797174393178823685E-17, 0.000000000000000000 ) ) ;
#194 = CLOSED_SHELL ( 'NONE', ( #151, #200, #47, #79 ) ) ;
#195 = DIRECTION ( 'NONE',  ( -9.797174393178823685E-17, 1.000000000000000000, -0.000000000000000000 ) ) ;
#196 = FILL_AREA_STYLE ('',( #145 ) ) ;
#197 = ADVANCED_BREP_SHAPE_REPRESENTATION ( '86035', ( #34, #224, #45 ), #208 ) ;
#198 =( GEOMETRIC_REPRESENTATION_CONTEXT ( 3 ) GLOBAL_UNCERTAINTY_ASSIGNED_CONTEXT ( ( #146 ) ) GLOBAL_UNIT_ASSIGNED_CONTEXT ( ( #90, #66, #256 ) ) REPRESENTATION_CONTEXT ( 'NONE', 'WORKASPACE' ) );
#199 = CIRCLE ( 'NONE', #211, 0.2500000000000000000 ) ;
#200 = ADVANCED_FACE ( 'NONE', ( #137 ), #230, .F. ) ;
#201 = CARTESIAN_POINT ( 'NONE',  ( 0.000000000000000000, 0.000000000000000000, 0.000000000000000000 ) ) ;
#202 = DIRECTION ( 'NONE',  ( 0.000000000000000000, 0.000000000000000000, -1.000000000000000000 ) ) ;
#203 = CARTESIAN_POINT ( 'NONE',  ( 0.000000000000000000, 0.000000000000000000, -0.2500000000000000000 ) ) ;
#204 = CARTESIAN_POINT ( 'NONE',  ( -2.449293598294705921E-16, 5.000000000000000000, 0.000000000000000000 ) ) ;
#205 = LENGTH_MEASURE_WITH_UNIT ( LENGTH_MEASURE( 0.02539999999999999897 ), #218 );
#206 = FILL_AREA_STYLE ('',( #136 ) ) ;
#207 = EDGE_LOOP ( 'NONE', ( #86, #15, #248, #105 ) ) ;
#208 =( GEOMETRIC_REPRESENTATION_CONTEXT ( 3 ) GLOBAL_UNCERTAINTY_ASSIGNED_CONTEXT ( ( #182 ) ) GLOBAL_UNIT_ASSIGNED_CONTEXT ( ( #28, #99, #265 ) ) REPRESENTATION_CONTEXT ( 'NONE', 'WORKASPACE' ) );
#209 = CARTESIAN_POINT ( 'NONE',  ( -2.449293598294705921E-16, 5.000000000000000000, 0.000000000000000000 ) ) ;
#210 = CARTESIAN_POINT ( 'NONE',  ( 0.000000000000000000, 0.000000000000000000, 0.000000000000000000 ) ) ;
#211 = AXIS2_PLACEMENT_3D ( 'NONE', #164, #50, #141 ) ;
#212 = SURFACE_SIDE_STYLE ('',( #117 ) ) ;
#213 = DIRECTION ( 'NONE',  ( -0.000000000000000000, -1.000000000000000000, -0.000000000000000000 ) ) ;
#214 = CARTESIAN_POINT ( 'NONE',  ( 3.032960542342103792E-32, 2.500000000000000000, 0.000000000000000000 ) ) ;
#215 = DIRECTION ( 'NONE',  ( -1.000000000000000000, 0.000000000000000000, 0.000000000000000000 ) ) ;
#216 = ADVANCED_FACE ( 'NONE', ( #250 ), #111, .T. ) ;
#217 = MECHANICAL_DESIGN_GEOMETRIC_PRESENTATION_REPRESENTATION (  '', ( #49 ), #76 ) ;
#218 =( LENGTH_UNIT ( ) NAMED_UNIT ( * ) SI_UNIT ( $, .METRE. ) );
#219 = DIRECTION ( 'NONE',  ( -9.797174393178823685E-17, 1.000000000000000000, -0.000000000000000000 ) ) ;
#220 = DIRECTION ( 'NONE',  ( -1.000000000000000000, 0.000000000000000000, 0.000000000000000000 ) ) ;
#221 = VERTEX_POINT ( 'NONE', #307 ) ;
#222 =( GEOMETRIC_REPRESENTATION_CONTEXT ( 3 ) GLOBAL_UNCERTAINTY_ASSIGNED_CONTEXT ( ( #223 ) ) GLOBAL_UNIT_ASSIGNED_CONTEXT ( ( #38, #91, #93 ) ) REPRESENTATION_CONTEXT ( 'NONE', 'WORKASPACE' ) );
#223 = UNCERTAINTY_MEASURE_WITH_UNIT (LENGTH_MEASURE( 1.000000000000000082E-05 ), #38, 'distance_accuracy_value', 'NONE');
#224 = MANIFOLD_SOLID_BREP ( 'Revolve - Tool Body (Straight Shanked)', #194 ) ;
#225 = AXIS2_PLACEMENT_3D ( 'NONE', #46, #277, #14 ) ;
#226 = DIMENSIONAL_EXPONENTS ( 1.000000000000000000, 0.000000000000000000, 0.000000000000000000, 0.000000000000000000, 0.000000000000000000, 0.000000000000000000, 0.000000000000000000 ) ;
#227 = AXIS2_PLACEMENT_3D ( 'NONE', #54, #213, #52 ) ;
#228 = ORIENTED_EDGE ( 'NONE', *, *, #11, .T. ) ;
#229 = DIRECTION ( 'NONE',  ( -0.000000000000000000, -1.000000000000000000, -0.000000000000000000 ) ) ;
#230 = PLANE ( 'NONE',  #237 ) ;
#231 = LINE ( 'NONE', #203, #181 ) ;
#232 = AXIS2_PLACEMENT_3D ( 'NONE', #139, #33, #193 ) ;
#233 = CARTESIAN_POINT ( 'NONE',  ( 0.2500000000000000000, 2.500000000000000000, 3.061616997868385483E-17 ) ) ;
#234 =( LENGTH_UNIT ( ) NAMED_UNIT ( * ) SI_UNIT ( $, .METRE. ) );
#235 = EDGE_CURVE ( 'NONE', #42, #296, #199, .T. ) ;
#236 = DIRECTION ( 'NONE',  ( -0.000000000000000000, -1.000000000000000000, -0.000000000000000000 ) ) ;
#237 = AXIS2_PLACEMENT_3D ( 'NONE', #281, #135, #68 ) ;
#238 = CIRCLE ( 'NONE', #80, 0.2500000000000000000 ) ;
#239 = UNCERTAINTY_MEASURE_WITH_UNIT (LENGTH_MEASURE( 1.000000000000000082E-05 ), #167, 'distance_accuracy_value', 'NONE');
#240 = APPLICATION_PROTOCOL_DEFINITION ( 'draft international standard', 'automotive_design', 1998, #187 ) ;
#241 = PLANE ( 'NONE',  #232 ) ;
#242 = SURFACE_STYLE_USAGE ( .BOTH. , #64 ) ;
#243 = CARTESIAN_POINT ( 'NONE',  ( -0.2500000000000003886, 5.000000000000000000, 0.000000000000000000 ) ) ;
#244 = SURFACE_SIDE_STYLE ('',( #186 ) ) ;
#245 = AXIS2_PLACEMENT_3D ( 'NONE', #119, #229, #1 ) ;
#246 = MECHANICAL_DESIGN_GEOMETRIC_PRESENTATION_REPRESENTATION (  '', ( #302 ), #8 ) ;
#247 = SURFACE_SIDE_STYLE ('',( #129 ) ) ;
#248 = ORIENTED_EDGE ( 'NONE', *, *, #11, .F. ) ;
#249 = EDGE_CURVE ( 'NONE', #269, #110, #238, .T. ) ;
#250 = FACE_OUTER_BOUND ( 'NONE', #112, .T. ) ;
#251 = CARTESIAN_POINT ( 'NONE',  ( 3.061616997868383018E-17, 0.000000000000000000, 0.2500000000000000000 ) ) ;
#252 = PRODUCT_DEFINITION_CONTEXT ( 'detailed design', #51, 'design' ) ;
#253 = ORIENTED_EDGE ( 'NONE', *, *, #162, .T. ) ;
#254 = SURFACE_STYLE_USAGE ( .BOTH. , #244 ) ;
#255 = VERTEX_POINT ( 'NONE', #260 ) ;
#256 =( NAMED_UNIT ( * ) SI_UNIT ( $, .STERADIAN. ) SOLID_ANGLE_UNIT ( ) );
#257 = MECHANICAL_DESIGN_GEOMETRIC_PRESENTATION_REPRESENTATION (  '', ( #56 ), #103 ) ;
#258 = COLOUR_RGB ( '',0.7921568627450980005, 0.8196078431372548767, 0.9333333333333333481 ) ;
#259 = AXIS2_PLACEMENT_3D ( 'NONE', #96, #195, #215 ) ;
#260 = CARTESIAN_POINT ( 'NONE',  ( 0.2500000000000000000, 5.000000000000000000, 3.061616997868385483E-17 ) ) ;
#261 = EDGE_CURVE ( 'NONE', #269, #255, #24, .T. ) ;
#262 = AXIS2_PLACEMENT_3D ( 'NONE', #131, #298, #220 ) ;
#263 = SHAPE_DEFINITION_REPRESENTATION ( #81, #197 ) ;
#264 = CARTESIAN_POINT ( 'NONE',  ( -2.449293598294705921E-16, 5.000000000000000000, 0.000000000000000000 ) ) ;
#265 =( NAMED_UNIT ( * ) SI_UNIT ( $, .STERADIAN. ) SOLID_ANGLE_UNIT ( ) );
#266 = PRODUCT_CONTEXT ( 'NONE', #187, 'mechanical' ) ;
#267 =( NAMED_UNIT ( * ) PLANE_ANGLE_UNIT ( ) SI_UNIT ( $, .RADIAN. ) );
#268 = COLOUR_RGB ( '',1.000000000000000000, 0.000000000000000000, 0.000000000000000000 ) ;
#269 = VERTEX_POINT ( 'NONE', #233 ) ;
#270 =( CONVERSION_BASED_UNIT ( 'INCH', #289 ) LENGTH_UNIT ( ) NAMED_UNIT ( #53 ) );
#271 = SURFACE_STYLE_FILL_AREA ( #59 ) ;
#272 = CARTESIAN_POINT ( 'NONE',  ( 0.000000000000000000, 0.000000000000000000, 0.000000000000000000 ) ) ;
#273 = ORIENTED_EDGE ( 'NONE', *, *, #249, .F. ) ;
#274 = EDGE_CURVE ( 'NONE', #110, #269, #126, .T. ) ;
#275 =( NAMED_UNIT ( * ) PLANE_ANGLE_UNIT ( ) SI_UNIT ( $, .RADIAN. ) );
#276 = VERTEX_POINT ( 'NONE', #168 ) ;
#277 = DIRECTION ( 'NONE',  ( 0.000000000000000000, 1.000000000000000000, 0.000000000000000000 ) ) ;
#278 = AXIS2_PLACEMENT_3D ( 'NONE', #272, #152, #88 ) ;
#279 = FACE_OUTER_BOUND ( 'NONE', #185, .T. ) ;
#280 = ORIENTED_EDGE ( 'NONE', *, *, #235, .T. ) ;
#281 = CARTESIAN_POINT ( 'NONE',  ( 1.199807826129485607E-33, 2.500000000000000000, 0.000000000000000000 ) ) ;
#282 = FILL_AREA_STYLE ('',( #120 ) ) ;
#283 = SURFACE_STYLE_USAGE ( .BOTH. , #247 ) ;
#284 = PRODUCT_RELATED_PRODUCT_CATEGORY ( 'part', '', ( #20 ) ) ;
#285 = CARTESIAN_POINT ( 'NONE',  ( 0.000000000000000000, 0.000000000000000000, 0.000000000000000000 ) ) ;
#286 = PRESENTATION_STYLE_ASSIGNMENT (( #30 ) ) ;
#287 = SURFACE_SIDE_STYLE ('',( #147 ) ) ;
#288 = COLOUR_RGB ( '',1.000000000000000000, 0.000000000000000000, 0.000000000000000000 ) ;
#289 = LENGTH_MEASURE_WITH_UNIT ( LENGTH_MEASURE( 0.02539999999999999897 ), #169 );
#290 = DIRECTION ( 'NONE',  ( 1.000000000000000000, 0.000000000000000000, 0.000000000000000000 ) ) ;
#291 = FACE_OUTER_BOUND ( 'NONE', #104, .T. ) ;
#292 = ADVANCED_FACE ( 'NONE', ( #100 ), #10, .T. ) ;
#293 = DIRECTION ( 'NONE',  ( -0.000000000000000000, -1.000000000000000000, -0.000000000000000000 ) ) ;
#294 = ORIENTED_EDGE ( 'NONE', *, *, #274, .F. ) ;
#295 = APPLICATION_PROTOCOL_DEFINITION ( 'draft international standard', 'automotive_design', 1998, #51 ) ;
#296 = VERTEX_POINT ( 'NONE', #63 ) ;
#297 = ORIENTED_EDGE ( 'NONE', *, *, #29, .T. ) ;
#298 = DIRECTION ( 'NONE',  ( -9.797174393178823685E-17, 1.000000000000000000, -0.000000000000000000 ) ) ;
#299 = UNCERTAINTY_MEASURE_WITH_UNIT (LENGTH_MEASURE( 1.000000000000000082E-05 ), #270, 'distance_accuracy_value', 'NONE');
#300 = ORIENTED_EDGE ( 'NONE', *, *, #19, .F. ) ;
#301 = PRESENTATION_STYLE_ASSIGNMENT (( #254 ) ) ;
#302 = STYLED_ITEM ( 'NONE', ( #102 ), #292 ) ;
#303 = ORIENTED_EDGE ( 'NONE', *, *, #73, .T. ) ;
#304 = LENGTH_MEASURE_WITH_UNIT ( LENGTH_MEASURE( 0.02539999999999999897 ), #71 );
#305 = CARTESIAN_POINT ( 'NONE',  ( 3.061616997868383018E-17, 0.000000000000000000, 0.2500000000000000000 ) ) ;
#306 = CYLINDRICAL_SURFACE ( 'NONE', #262, 0.2500000000000001110 ) ;
#307 = CARTESIAN_POINT ( 'NONE',  ( 0.000000000000000000, 0.000000000000000000, -0.2500000000000000000 ) ) ;
#308 = DIRECTION ( 'NONE',  ( 0.000000000000000000, 0.000000000000000000, -1.000000000000000000 ) ) ;
#309 = MECHANICAL_DESIGN_GEOMETRIC_PRESENTATION_REPRESENTATION (  '', ( #55 ), #198 ) ;
ENDSEC;
END-ISO-10303-21;
