ISO-10303-21;
HEADER;
FILE_DESCRIPTION (( 'STEP AP214' ),
    '1' );
FILE_NAME ('Micro_EMS-750-2.STEP',
    '2021-09-01T18:05:51',
    ( '' ),
    ( '' ),
    'SwSTEP 2.0',
    'SolidWorks 2020',
    '' );
FILE_SCHEMA (( 'AUTOMOTIVE_DESIGN' ));
ENDSEC;

DATA;
#1 = CARTESIAN_POINT ( 'NONE',  ( 0.0000000000000000000, 0.0000000000000000000, 0.0000000000000000000 ) ) ;
#2 = EDGE_CURVE ( 'NONE', #254, #6, #100, .T. ) ;
#3 = DIRECTION ( 'NONE',  ( -1.224646799147353207E-16, -0.0000000000000000000, -1.000000000000000000 ) ) ;
#4 = ORIENTED_EDGE ( 'NONE', *, *, #81, .T. ) ;
#5 = AXIS2_PLACEMENT_3D ( 'NONE', #178, #290, #15 ) ;
#6 = VERTEX_POINT ( 'NONE', #75 ) ;
#7 = EDGE_LOOP ( 'NONE', ( #50, #72, #98, #77 ) ) ;
#8 = ORIENTED_EDGE ( 'NONE', *, *, #272, .F. ) ;
#9 = AXIS2_PLACEMENT_3D ( 'NONE', #203, #242, #85 ) ;
#10 = ORIENTED_EDGE ( 'NONE', *, *, #263, .T. ) ;
#11 = FACE_OUTER_BOUND ( 'NONE', #277, .T. ) ;
#12 = CARTESIAN_POINT ( 'NONE',  ( 1.839574692643826673E-16, 0.0000000000000000000, 1.502126730682356914 ) ) ;
#13 =( CONVERSION_BASED_UNIT ( 'INCH', #227 ) LENGTH_UNIT ( ) NAMED_UNIT ( #129 ) );
#14 = CYLINDRICAL_SURFACE ( 'NONE', #261, 0.3746249999999999858 ) ;
#15 = DIRECTION ( 'NONE',  ( 1.000000000000000000, 0.0000000000000000000, -0.0000000000000000000 ) ) ;
#16 = DIMENSIONAL_EXPONENTS ( 1.000000000000000000, 0.0000000000000000000, 0.0000000000000000000, 0.0000000000000000000, 0.0000000000000000000, 0.0000000000000000000, 0.0000000000000000000 ) ;
#17 = EDGE_CURVE ( 'NONE', #99, #254, #228, .T. ) ;
#18 = DIRECTION ( 'NONE',  ( 1.000000000000000000, 0.0000000000000000000, 0.0000000000000000000 ) ) ;
#19 = DIRECTION ( 'NONE',  ( -0.0000000000000000000, -0.0000000000000000000, -1.000000000000000000 ) ) ;
#20 = MECHANICAL_DESIGN_GEOMETRIC_PRESENTATION_REPRESENTATION (  '', ( #145 ), #165 ) ;
#21 = UNCERTAINTY_MEASURE_WITH_UNIT (LENGTH_MEASURE( 1.000000000000000082E-05 ), #47, 'distance_accuracy_value', 'NONE');
#22 = ADVANCED_FACE ( 'NONE', ( #198 ), #28, .T. ) ;
#23 = CARTESIAN_POINT ( 'NONE',  ( 5.618475085796983064E-33, 0.0000000000000000000, 4.587833071305771192E-17 ) ) ;
#24 = DIRECTION ( 'NONE',  ( 0.0000000000000000000, 0.0000000000000000000, 1.000000000000000000 ) ) ;
#25 = CIRCLE ( 'NONE', #130, 0.3750000000000000555 ) ;
#26 = CARTESIAN_POINT ( 'NONE',  ( 0.3599999999999994316, 4.500576986866520466E-17, 4.000000000000000000 ) ) ;
#27 = ORIENTED_EDGE ( 'NONE', *, *, #297, .F. ) ;
#28 = CONICAL_SURFACE ( 'NONE', #283, 0.3746250000000000413, 0.1745329251994339192 ) ;
#29 = AXIS2_PLACEMENT_3D ( 'NONE', #36, #218, #103 ) ;
#30 = EDGE_CURVE ( 'NONE', #139, #117, #247, .T. ) ;
#31 = EDGE_LOOP ( 'NONE', ( #235, #163 ) ) ;
#32 = EDGE_LOOP ( 'NONE', ( #8, #210, #217, #167 ) ) ;
#33 = ORIENTED_EDGE ( 'NONE', *, *, #215, .F. ) ;
#34 = VECTOR ( 'NONE', #224, 39.37007874015748143 ) ;
#35 = DIRECTION ( 'NONE',  ( 0.0000000000000000000, 0.0000000000000000000, -1.000000000000000000 ) ) ;
#36 = CARTESIAN_POINT ( 'NONE',  ( 0.0000000000000000000, 0.0000000000000000000, 4.000000000000000000 ) ) ;
#37 = DIRECTION ( 'NONE',  ( 1.000000000000000000, 0.0000000000000000000, 0.0000000000000000000 ) ) ;
#38 = DIRECTION ( 'NONE',  ( 1.000000000000000000, 0.0000000000000000000, -0.0000000000000000000 ) ) ;
#39 = CARTESIAN_POINT ( 'NONE',  ( 1.836970198721030181E-16, 0.0000000000000000000, 1.500000000000000222 ) ) ;
#40 = CARTESIAN_POINT ( 'NONE',  ( 0.3746250000000002633, 0.0000000000000000000, 1.500000000000000222 ) ) ;
#41 =( NAMED_UNIT ( * ) SI_UNIT ( $, .STERADIAN. ) SOLID_ANGLE_UNIT ( ) );
#42 = LINE ( 'NONE', #226, #101 ) ;
#43 = VECTOR ( 'NONE', #266, 39.37007874015747433 ) ;
#44 = AXIS2_PLACEMENT_3D ( 'NONE', #229, #250, #88 ) ;
#45 =( NAMED_UNIT ( * ) PLANE_ANGLE_UNIT ( ) SI_UNIT ( $, .RADIAN. ) );
#46 = CARTESIAN_POINT ( 'NONE',  ( 0.3599999999999994316, 4.408728476930464865E-17, 4.000000000000000000 ) ) ;
#47 =( CONVERSION_BASED_UNIT ( 'INCH', #185 ) LENGTH_UNIT ( ) NAMED_UNIT ( #152 ) );
#48 = LINE ( 'NONE', #136, #194 ) ;
#49 = EDGE_CURVE ( 'NONE', #55, #193, #160, .T. ) ;
#50 = ORIENTED_EDGE ( 'NONE', *, *, #104, .F. ) ;
#51 = ADVANCED_FACE ( 'NONE', ( #122 ), #89, .T. ) ;
#52 = ORIENTED_EDGE ( 'NONE', *, *, #274, .T. ) ;
#53 = STYLED_ITEM ( 'NONE', ( #245 ), #184 ) ;
#54 = FILL_AREA_STYLE ('',( #278 ) ) ;
#55 = VERTEX_POINT ( 'NONE', #80 ) ;
#56 = ORIENTED_EDGE ( 'NONE', *, *, #81, .F. ) ;
#57 = EDGE_CURVE ( 'NONE', #99, #139, #244, .T. ) ;
#58 = EDGE_LOOP ( 'NONE', ( #71, #259, #116, #73 ) ) ;
#59 = VECTOR ( 'NONE', #149, 39.37007874015748143 ) ;
#60 = LINE ( 'NONE', #264, #43 ) ;
#61 = CARTESIAN_POINT ( 'NONE',  ( 0.0000000000000000000, 0.0000000000000000000, 3.984999999999998987 ) ) ;
#62 = CLOSED_SHELL ( 'NONE', ( #180, #92, #159, #192, #196, #119, #51, #22, #212, #137 ) ) ;
#63 = DIRECTION ( 'NONE',  ( 1.000000000000000000, 0.0000000000000000000, 0.0000000000000000000 ) ) ;
#64 = AXIS2_PLACEMENT_3D ( 'NONE', #23, #69, #158 ) ;
#65 = PLANE ( 'NONE',  #5 ) ;
#66 = FACE_OUTER_BOUND ( 'NONE', #31, .T. ) ;
#67 =( LENGTH_UNIT ( ) NAMED_UNIT ( * ) SI_UNIT ( $, .METRE. ) );
#68 = DIRECTION ( 'NONE',  ( -1.000000000000000000, 0.0000000000000000000, 1.224646799147352961E-16 ) ) ;
#69 = DIRECTION ( 'NONE',  ( -1.224646799147353207E-16, -0.0000000000000000000, -1.000000000000000000 ) ) ;
#70 = DIRECTION ( 'NONE',  ( -1.000000000000000000, 0.0000000000000000000, 1.224646799147352961E-16 ) ) ;
#71 = ORIENTED_EDGE ( 'NONE', *, *, #132, .F. ) ;
#72 = ORIENTED_EDGE ( 'NONE', *, *, #17, .F. ) ;
#73 = ORIENTED_EDGE ( 'NONE', *, *, #57, .F. ) ;
#74 = AXIS2_PLACEMENT_3D ( 'NONE', #241, #262, #173 ) ;
#75 = CARTESIAN_POINT ( 'NONE',  ( -0.3746249999999999858, 0.0000000000000000000, 9.175666142611542384E-17 ) ) ;
#76 = PRODUCT_DEFINITION ( 'UNKNOWN', '', #188, #110 ) ;
#77 = ORIENTED_EDGE ( 'NONE', *, *, #30, .T. ) ;
#78 = CARTESIAN_POINT ( 'NONE',  ( -0.3749999999999998335, 0.0000000000000000000, 1.502126730682356914 ) ) ;
#79 = CONICAL_SURFACE ( 'NONE', #9, 0.3746250000000000413, 0.1745329251994339192 ) ;
#80 = CARTESIAN_POINT ( 'NONE',  ( -0.3599999999999994316, 0.0000000000000000000, 4.000000000000000000 ) ) ;
#81 = EDGE_CURVE ( 'NONE', #55, #113, #292, .T. ) ;
#82 = CARTESIAN_POINT ( 'NONE',  ( 0.0000000000000000000, 0.0000000000000000000, 0.0000000000000000000 ) ) ;
#83 = DIRECTION ( 'NONE',  ( 0.0000000000000000000, 0.0000000000000000000, 1.000000000000000000 ) ) ;
#84 = DIRECTION ( 'NONE',  ( -1.224646799147353207E-16, -0.0000000000000000000, -1.000000000000000000 ) ) ;
#85 = DIRECTION ( 'NONE',  ( 1.000000000000000000, 0.0000000000000000000, 0.0000000000000000000 ) ) ;
#86 = DIRECTION ( 'NONE',  ( -1.224646799147353207E-16, -0.0000000000000000000, -1.000000000000000000 ) ) ;
#87 = UNCERTAINTY_MEASURE_WITH_UNIT (LENGTH_MEASURE( 1.000000000000000082E-05 ), #13, 'distance_accuracy_value', 'NONE');
#88 = DIRECTION ( 'NONE',  ( -1.000000000000000000, 0.0000000000000000000, 0.0000000000000000000 ) ) ;
#89 = CONICAL_SURFACE ( 'NONE', #95, 0.3599999999999994316, 0.7853981633974415066 ) ;
#90 = AXIS2_PLACEMENT_3D ( 'NONE', #176, #83, #37 ) ;
#91 = SURFACE_STYLE_USAGE ( .BOTH. , #299 ) ;
#92 = ADVANCED_FACE ( 'NONE', ( #289 ), #79, .T. ) ;
#93 = CARTESIAN_POINT ( 'NONE',  ( 0.3746249999999999858, 4.587833071305771192E-17, 0.0000000000000000000 ) ) ;
#94 = CARTESIAN_POINT ( 'NONE',  ( 5.618475085796983064E-33, 0.0000000000000000000, 4.587833071305771192E-17 ) ) ;
#95 = AXIS2_PLACEMENT_3D ( 'NONE', #265, #269, #219 ) ;
#96 = CARTESIAN_POINT ( 'NONE',  ( -0.3746249999999999858, 0.0000000000000000000, 4.587833071305771192E-17 ) ) ;
#97 = AXIS2_PLACEMENT_3D ( 'NONE', #201, #105, #38 ) ;
#98 = ORIENTED_EDGE ( 'NONE', *, *, #57, .T. ) ;
#99 = VERTEX_POINT ( 'NONE', #124 ) ;
#100 = LINE ( 'NONE', #96, #127 ) ;
#101 = VECTOR ( 'NONE', #19, 39.37007874015748143 ) ;
#102 = PLANE ( 'NONE',  #97 ) ;
#103 = DIRECTION ( 'NONE',  ( -1.000000000000000000, 0.0000000000000000000, 0.0000000000000000000 ) ) ;
#104 = EDGE_CURVE ( 'NONE', #254, #117, #60, .T. ) ;
#105 = DIRECTION ( 'NONE',  ( 0.0000000000000000000, 0.0000000000000000000, 1.000000000000000000 ) ) ;
#106 = DIRECTION ( 'NONE',  ( 0.0000000000000000000, 0.0000000000000000000, 1.000000000000000000 ) ) ;
#107 = CARTESIAN_POINT ( 'NONE',  ( 0.3750000000000001665, 4.592425496802577300E-17, 1.502126730682356914 ) ) ;
#108 = CIRCLE ( 'NONE', #112, 0.3599999999999994316 ) ;
#109 = DIRECTION ( 'NONE',  ( -1.224646799147353207E-16, -0.0000000000000000000, -1.000000000000000000 ) ) ;
#110 = PRODUCT_DEFINITION_CONTEXT ( 'detailed design', #174, 'design' ) ;
#111 =( NAMED_UNIT ( * ) SI_UNIT ( $, .STERADIAN. ) SOLID_ANGLE_UNIT ( ) );
#112 = AXIS2_PLACEMENT_3D ( 'NONE', #155, #24, #246 ) ;
#113 = VERTEX_POINT ( 'NONE', #126 ) ;
#114 = EDGE_CURVE ( 'NONE', #214, #113, #25, .T. ) ;
#115 = ORIENTED_EDGE ( 'NONE', *, *, #2, .F. ) ;
#116 = ORIENTED_EDGE ( 'NONE', *, *, #258, .T. ) ;
#117 = VERTEX_POINT ( 'NONE', #78 ) ;
#118 = ORIENTED_EDGE ( 'NONE', *, *, #297, .T. ) ;
#119 = ADVANCED_FACE ( 'NONE', ( #66 ), #102, .T. ) ;
#120 = DIRECTION ( 'NONE',  ( 1.000000000000000000, 0.0000000000000000000, 0.0000000000000000000 ) ) ;
#121 = EDGE_CURVE ( 'NONE', #214, #139, #240, .T. ) ;
#122 = FACE_OUTER_BOUND ( 'NONE', #166, .T. ) ;
#123 = APPLICATION_PROTOCOL_DEFINITION ( 'draft international standard', 'automotive_design', 1998, #174 ) ;
#124 = CARTESIAN_POINT ( 'NONE',  ( 0.3746250000000002633, 0.0000000000000000000, 1.500000000000000222 ) ) ;
#125 = DIRECTION ( 'NONE',  ( -1.000000000000000000, 0.0000000000000000000, 0.0000000000000000000 ) ) ;
#126 = CARTESIAN_POINT ( 'NONE',  ( -0.3750000000000000555, 0.0000000000000000000, 3.984999999999998987 ) ) ;
#127 = VECTOR ( 'NONE', #195, 39.37007874015748143 ) ;
#128 = LINE ( 'NONE', #46, #252 ) ;
#129 = DIMENSIONAL_EXPONENTS ( 1.000000000000000000, 0.0000000000000000000, 0.0000000000000000000, 0.0000000000000000000, 0.0000000000000000000, 0.0000000000000000000, 0.0000000000000000000 ) ;
#130 = AXIS2_PLACEMENT_3D ( 'NONE', #61, #148, #18 ) ;
#131 = CARTESIAN_POINT ( 'NONE',  ( 0.3750000000000000555, 4.592425496802575451E-17, 3.984999999999998987 ) ) ;
#132 = EDGE_CURVE ( 'NONE', #254, #99, #234, .T. ) ;
#133 = CARTESIAN_POINT ( 'NONE',  ( 1.839574692643826673E-16, 0.0000000000000000000, 1.502126730682356914 ) ) ;
#134 = FILL_AREA_STYLE ('',( #206 ) ) ;
#135 = CIRCLE ( 'NONE', #171, 0.3750000000000000555 ) ;
#136 = CARTESIAN_POINT ( 'NONE',  ( 0.3746249999999999858, 4.587833071305771192E-17, -4.587833071305771192E-17 ) ) ;
#137 = ADVANCED_FACE ( 'NONE', ( #146 ), #65, .F. ) ;
#138 =( NAMED_UNIT ( * ) SI_UNIT ( $, .STERADIAN. ) SOLID_ANGLE_UNIT ( ) );
#139 = VERTEX_POINT ( 'NONE', #107 ) ;
#140 = AXIS2_PLACEMENT_3D ( 'NONE', #153, #35, #120 ) ;
#141 = EDGE_LOOP ( 'NONE', ( #282, #257, #143, #27 ) ) ;
#142 = ORIENTED_EDGE ( 'NONE', *, *, #114, .F. ) ;
#143 = ORIENTED_EDGE ( 'NONE', *, *, #258, .F. ) ;
#144 = ORIENTED_EDGE ( 'NONE', *, *, #154, .F. ) ;
#145 = STYLED_ITEM ( 'NONE', ( #223 ), #220 ) ;
#146 = FACE_OUTER_BOUND ( 'NONE', #279, .T. ) ;
#147 = APPLICATION_CONTEXT ( 'automotive_design' ) ;
#148 = DIRECTION ( 'NONE',  ( 0.0000000000000000000, 0.0000000000000000000, -1.000000000000000000 ) ) ;
#149 = DIRECTION ( 'NONE',  ( -0.7071067811865426878, 0.0000000000000000000, -0.7071067811865523467 ) ) ;
#150 = AXIS2_PLACEMENT_3D ( 'NONE', #39, #84, #125 ) ;
#151 = DIRECTION ( 'NONE',  ( 1.224646799147353207E-16, 0.0000000000000000000, 1.000000000000000000 ) ) ;
#152 = DIMENSIONAL_EXPONENTS ( 1.000000000000000000, 0.0000000000000000000, 0.0000000000000000000, 0.0000000000000000000, 0.0000000000000000000, 0.0000000000000000000, 0.0000000000000000000 ) ;
#153 = CARTESIAN_POINT ( 'NONE',  ( 0.0000000000000000000, 0.0000000000000000000, 3.984999999999998987 ) ) ;
#154 = EDGE_CURVE ( 'NONE', #113, #214, #161, .T. ) ;
#155 = CARTESIAN_POINT ( 'NONE',  ( 0.0000000000000000000, 0.0000000000000000000, 4.000000000000000000 ) ) ;
#156 = PRODUCT_DEFINITION_SHAPE ( 'NONE', 'NONE',  #76 ) ;
#157 = CYLINDRICAL_SURFACE ( 'NONE', #44, 0.3750000000000000555 ) ;
#158 = DIRECTION ( 'NONE',  ( -1.000000000000000000, 0.0000000000000000000, 1.224646799147352961E-16 ) ) ;
#159 = ADVANCED_FACE ( 'NONE', ( #200 ), #238, .T. ) ;
#160 = CIRCLE ( 'NONE', #275, 0.3599999999999994316 ) ;
#161 = CIRCLE ( 'NONE', #140, 0.3750000000000000555 ) ;
#162 =( CONVERSION_BASED_UNIT ( 'INCH', #255 ) LENGTH_UNIT ( ) NAMED_UNIT ( #16 ) );
#163 = ORIENTED_EDGE ( 'NONE', *, *, #208, .T. ) ;
#164 = ORIENTED_EDGE ( 'NONE', *, *, #49, .F. ) ;
#165 =( GEOMETRIC_REPRESENTATION_CONTEXT ( 3 ) GLOBAL_UNCERTAINTY_ASSIGNED_CONTEXT ( ( #87 ) ) GLOBAL_UNIT_ASSIGNED_CONTEXT ( ( #13, #202, #41 ) ) REPRESENTATION_CONTEXT ( 'NONE', 'WORKASPACE' ) );
#166 = EDGE_LOOP ( 'NONE', ( #33, #164, #4, #142 ) ) ;
#167 = ORIENTED_EDGE ( 'NONE', *, *, #274, .F. ) ;
#168 = ORIENTED_EDGE ( 'NONE', *, *, #30, .F. ) ;
#169 = VECTOR ( 'NONE', #287, 39.37007874015748143 ) ;
#170 = CARTESIAN_POINT ( 'NONE',  ( 0.3750000000000000555, 4.592425496802575451E-17, 4.000000000000000000 ) ) ;
#171 = AXIS2_PLACEMENT_3D ( 'NONE', #133, #186, #230 ) ;
#172 = CARTESIAN_POINT ( 'NONE',  ( -0.3599999999999994316, 0.0000000000000000000, 4.000000000000000000 ) ) ;
#173 = DIRECTION ( 'NONE',  ( -1.000000000000000000, 0.0000000000000000000, 0.0000000000000000000 ) ) ;
#174 = APPLICATION_CONTEXT ( 'automotive_design' ) ;
#175 = CARTESIAN_POINT ( 'NONE',  ( 1.836970198721030181E-16, 0.0000000000000000000, 1.500000000000000222 ) ) ;
#176 = CARTESIAN_POINT ( 'NONE',  ( 0.0000000000000000000, 0.0000000000000000000, 0.0000000000000000000 ) ) ;
#177 = PRODUCT_RELATED_PRODUCT_CATEGORY ( 'part', '', ( #298 ) ) ;
#178 = CARTESIAN_POINT ( 'NONE',  ( 0.0000000000000000000, 0.0000000000000000000, 0.0000000000000000000 ) ) ;
#179 = FACE_OUTER_BOUND ( 'NONE', #239, .T. ) ;
#180 = ADVANCED_FACE ( 'NONE', ( #11 ), #14, .T. ) ;
#181 = DIRECTION ( 'NONE',  ( 0.7071067811865426878, 8.659560562354873694E-17, -0.7071067811865523467 ) ) ;
#182 = SURFACE_SIDE_STYLE ('',( #237 ) ) ;
#183 = PRESENTATION_LAYER_ASSIGNMENT (  '', '', ( #145 ) ) ;
#184 = MANIFOLD_SOLID_BREP ( 'Cut-Revolve1', #62 ) ;
#185 = LENGTH_MEASURE_WITH_UNIT ( LENGTH_MEASURE( 0.02539999999999999897 ), #67 );
#186 = DIRECTION ( 'NONE',  ( -1.224646799147353207E-16, -0.0000000000000000000, -1.000000000000000000 ) ) ;
#187 = DIRECTION ( 'NONE',  ( -0.0000000000000000000, -0.0000000000000000000, -1.000000000000000000 ) ) ;
#188 = PRODUCT_DEFINITION_FORMATION_WITH_SPECIFIED_SOURCE ( 'ANY', '', #298, .NOT_KNOWN. ) ;
#189 = ORIENTED_EDGE ( 'NONE', *, *, #272, .T. ) ;
#190 = APPLICATION_PROTOCOL_DEFINITION ( 'draft international standard', 'automotive_design', 1998, #147 ) ;
#191 = ORIENTED_EDGE ( 'NONE', *, *, #215, .T. ) ;
#192 = ADVANCED_FACE ( 'NONE', ( #251 ), #157, .T. ) ;
#193 = VERTEX_POINT ( 'NONE', #26 ) ;
#194 = VECTOR ( 'NONE', #3, 39.37007874015748143 ) ;
#195 = DIRECTION ( 'NONE',  ( -1.224646799147353207E-16, -0.0000000000000000000, -1.000000000000000000 ) ) ;
#196 = ADVANCED_FACE ( 'NONE', ( #179 ), #295, .T. ) ;
#197 = CARTESIAN_POINT ( 'NONE',  ( 0.0000000000000000000, 0.0000000000000000000, 4.000000000000000000 ) ) ;
#198 = FACE_OUTER_BOUND ( 'NONE', #7, .T. ) ;
#199 =( GEOMETRIC_REPRESENTATION_CONTEXT ( 3 ) GLOBAL_UNCERTAINTY_ASSIGNED_CONTEXT ( ( #21 ) ) GLOBAL_UNIT_ASSIGNED_CONTEXT ( ( #47, #45, #111 ) ) REPRESENTATION_CONTEXT ( 'NONE', 'WORKASPACE' ) );
#200 = FACE_OUTER_BOUND ( 'NONE', #285, .T. ) ;
#201 = CARTESIAN_POINT ( 'NONE',  ( 0.0000000000000000000, 0.0000000000000000000, 4.000000000000000000 ) ) ;
#202 =( NAMED_UNIT ( * ) PLANE_ANGLE_UNIT ( ) SI_UNIT ( $, .RADIAN. ) );
#203 = CARTESIAN_POINT ( 'NONE',  ( 1.836970198721030181E-16, 0.0000000000000000000, 1.500000000000000222 ) ) ;
#204 = COLOUR_RGB ( '',0.7921568627450980005, 0.8196078431372548767, 0.9333333333333333481 ) ;
#205 = UNCERTAINTY_MEASURE_WITH_UNIT (LENGTH_MEASURE( 1.000000000000000082E-05 ), #162, 'distance_accuracy_value', 'NONE');
#206 = FILL_AREA_STYLE_COLOUR ( '', #204 ) ;
#207 = FACE_OUTER_BOUND ( 'NONE', #32, .T. ) ;
#208 = EDGE_CURVE ( 'NONE', #193, #55, #108, .T. ) ;
#209 = DIRECTION ( 'NONE',  ( -1.000000000000000000, 0.0000000000000000000, 1.224646799147352961E-16 ) ) ;
#210 = ORIENTED_EDGE ( 'NONE', *, *, #17, .T. ) ;
#211 = CIRCLE ( 'NONE', #64, 0.3746249999999999858 ) ;
#212 = ADVANCED_FACE ( 'NONE', ( #207 ), #249, .T. ) ;
#213 = ORIENTED_EDGE ( 'NONE', *, *, #132, .T. ) ;
#214 = VERTEX_POINT ( 'NONE', #131 ) ;
#215 = EDGE_CURVE ( 'NONE', #193, #214, #128, .T. ) ;
#216 =( GEOMETRIC_REPRESENTATION_CONTEXT ( 3 ) GLOBAL_UNCERTAINTY_ASSIGNED_CONTEXT ( ( #205 ) ) GLOBAL_UNIT_ASSIGNED_CONTEXT ( ( #162, #281, #138 ) ) REPRESENTATION_CONTEXT ( 'NONE', 'WORKASPACE' ) );
#217 = ORIENTED_EDGE ( 'NONE', *, *, #2, .T. ) ;
#218 = DIRECTION ( 'NONE',  ( 0.0000000000000000000, 0.0000000000000000000, -1.000000000000000000 ) ) ;
#219 = DIRECTION ( 'NONE',  ( -1.000000000000000000, 0.0000000000000000000, 0.0000000000000000000 ) ) ;
#220 = ADVANCED_BREP_SHAPE_REPRESENTATION ( 'Micro_EMS-750-2', ( #184, #90 ), #216 ) ;
#221 = DIRECTION ( 'NONE',  ( -1.224646799147353207E-16, -0.0000000000000000000, -1.000000000000000000 ) ) ;
#222 = DIRECTION ( 'NONE',  ( 1.000000000000000000, 0.0000000000000000000, 0.0000000000000000000 ) ) ;
#223 = PRESENTATION_STYLE_ASSIGNMENT (( #280 ) ) ;
#224 = DIRECTION ( 'NONE',  ( -0.0000000000000000000, -0.0000000000000000000, -1.000000000000000000 ) ) ;
#225 = SHAPE_DEFINITION_REPRESENTATION ( #156, #220 ) ;
#226 = CARTESIAN_POINT ( 'NONE',  ( -0.3750000000000000555, 0.0000000000000000000, 4.000000000000000000 ) ) ;
#227 = LENGTH_MEASURE_WITH_UNIT ( LENGTH_MEASURE( 0.02539999999999999897 ), #293 );
#228 = CIRCLE ( 'NONE', #74, 0.3746250000000000413 ) ;
#229 = CARTESIAN_POINT ( 'NONE',  ( 0.0000000000000000000, 0.0000000000000000000, 4.000000000000000000 ) ) ;
#230 = DIRECTION ( 'NONE',  ( 1.000000000000000000, 0.0000000000000000000, 0.0000000000000000000 ) ) ;
#231 = PRESENTATION_LAYER_ASSIGNMENT (  '', '', ( #53 ) ) ;
#232 = SURFACE_STYLE_FILL_AREA ( #134 ) ;
#233 = ORIENTED_EDGE ( 'NONE', *, *, #114, .T. ) ;
#234 = CIRCLE ( 'NONE', #150, 0.3746250000000000413 ) ;
#235 = ORIENTED_EDGE ( 'NONE', *, *, #49, .T. ) ;
#236 = VERTEX_POINT ( 'NONE', #93 ) ;
#237 = SURFACE_STYLE_FILL_AREA ( #54 ) ;
#238 = CONICAL_SURFACE ( 'NONE', #29, 0.3599999999999994316, 0.7853981633974415066 ) ;
#239 = EDGE_LOOP ( 'NONE', ( #256, #233, #118, #168 ) ) ;
#240 = LINE ( 'NONE', #170, #34 ) ;
#241 = CARTESIAN_POINT ( 'NONE',  ( 1.836970198721030181E-16, 0.0000000000000000000, 1.500000000000000222 ) ) ;
#242 = DIRECTION ( 'NONE',  ( 1.224646799147353207E-16, 0.0000000000000000000, 1.000000000000000000 ) ) ;
#243 = CIRCLE ( 'NONE', #294, 0.3746249999999999858 ) ;
#244 = LINE ( 'NONE', #40, #169 ) ;
#245 = PRESENTATION_STYLE_ASSIGNMENT (( #91 ) ) ;
#246 = DIRECTION ( 'NONE',  ( 1.000000000000000000, 0.0000000000000000000, 0.0000000000000000000 ) ) ;
#247 = CIRCLE ( 'NONE', #291, 0.3750000000000000555 ) ;
#248 = COLOUR_RGB ( '',0.7921568627450980005, 0.8196078431372548767, 0.9333333333333333481 ) ;
#249 = CYLINDRICAL_SURFACE ( 'NONE', #276, 0.3746249999999999858 ) ;
#250 = DIRECTION ( 'NONE',  ( -0.0000000000000000000, -0.0000000000000000000, -1.000000000000000000 ) ) ;
#251 = FACE_OUTER_BOUND ( 'NONE', #141, .T. ) ;
#252 = VECTOR ( 'NONE', #181, 39.37007874015748143 ) ;
#253 =( LENGTH_UNIT ( ) NAMED_UNIT ( * ) SI_UNIT ( $, .METRE. ) );
#254 = VERTEX_POINT ( 'NONE', #271 ) ;
#255 = LENGTH_MEASURE_WITH_UNIT ( LENGTH_MEASURE( 0.02539999999999999897 ), #253 );
#256 = ORIENTED_EDGE ( 'NONE', *, *, #121, .F. ) ;
#257 = ORIENTED_EDGE ( 'NONE', *, *, #121, .T. ) ;
#258 = EDGE_CURVE ( 'NONE', #117, #139, #135, .T. ) ;
#259 = ORIENTED_EDGE ( 'NONE', *, *, #104, .T. ) ;
#260 = ORIENTED_EDGE ( 'NONE', *, *, #208, .F. ) ;
#261 = AXIS2_PLACEMENT_3D ( 'NONE', #82, #86, #68 ) ;
#262 = DIRECTION ( 'NONE',  ( -1.224646799147353207E-16, -0.0000000000000000000, -1.000000000000000000 ) ) ;
#263 = EDGE_CURVE ( 'NONE', #6, #236, #211, .T. ) ;
#264 = CARTESIAN_POINT ( 'NONE',  ( -0.3746249999999998193, 4.587833071305771808E-17, 1.500000000000000222 ) ) ;
#265 = CARTESIAN_POINT ( 'NONE',  ( 0.0000000000000000000, 0.0000000000000000000, 4.000000000000000000 ) ) ;
#266 = DIRECTION ( 'NONE',  ( -0.1736481776669312194, 2.126576849575783625E-17, 0.9848077530122080203 ) ) ;
#267 = PRODUCT_CONTEXT ( 'NONE', #147, 'mechanical' ) ;
#268 = MECHANICAL_DESIGN_GEOMETRIC_PRESENTATION_REPRESENTATION (  '', ( #53 ), #199 ) ;
#269 = DIRECTION ( 'NONE',  ( 0.0000000000000000000, 0.0000000000000000000, -1.000000000000000000 ) ) ;
#270 = CARTESIAN_POINT ( 'NONE',  ( 0.0000000000000000000, 0.0000000000000000000, 4.000000000000000000 ) ) ;
#271 = CARTESIAN_POINT ( 'NONE',  ( -0.3746249999999998193, 4.590129284054174246E-17, 1.500000000000000222 ) ) ;
#272 = EDGE_CURVE ( 'NONE', #99, #236, #48, .T. ) ;
#273 = DIRECTION ( 'NONE',  ( -1.224646799147353207E-16, -0.0000000000000000000, -1.000000000000000000 ) ) ;
#274 = EDGE_CURVE ( 'NONE', #236, #6, #243, .T. ) ;
#275 = AXIS2_PLACEMENT_3D ( 'NONE', #197, #106, #288 ) ;
#276 = AXIS2_PLACEMENT_3D ( 'NONE', #1, #109, #209 ) ;
#277 = EDGE_LOOP ( 'NONE', ( #213, #189, #286, #115 ) ) ;
#278 = FILL_AREA_STYLE_COLOUR ( '', #248 ) ;
#279 = EDGE_LOOP ( 'NONE', ( #10, #52 ) ) ;
#280 = SURFACE_STYLE_USAGE ( .BOTH. , #182 ) ;
#281 =( NAMED_UNIT ( * ) PLANE_ANGLE_UNIT ( ) SI_UNIT ( $, .RADIAN. ) );
#282 = ORIENTED_EDGE ( 'NONE', *, *, #154, .T. ) ;
#283 = AXIS2_PLACEMENT_3D ( 'NONE', #175, #151, #222 ) ;
#284 = AXIS2_PLACEMENT_3D ( 'NONE', #270, #187, #296 ) ;
#285 = EDGE_LOOP ( 'NONE', ( #260, #191, #144, #56 ) ) ;
#286 = ORIENTED_EDGE ( 'NONE', *, *, #263, .F. ) ;
#287 = DIRECTION ( 'NONE',  ( 0.1736481776669314137, 0.0000000000000000000, 0.9848077530122077983 ) ) ;
#288 = DIRECTION ( 'NONE',  ( 1.000000000000000000, 0.0000000000000000000, 0.0000000000000000000 ) ) ;
#289 = FACE_OUTER_BOUND ( 'NONE', #58, .T. ) ;
#290 = DIRECTION ( 'NONE',  ( 0.0000000000000000000, 0.0000000000000000000, 1.000000000000000000 ) ) ;
#291 = AXIS2_PLACEMENT_3D ( 'NONE', #12, #221, #63 ) ;
#292 = LINE ( 'NONE', #172, #59 ) ;
#293 =( LENGTH_UNIT ( ) NAMED_UNIT ( * ) SI_UNIT ( $, .METRE. ) );
#294 = AXIS2_PLACEMENT_3D ( 'NONE', #94, #273, #70 ) ;
#295 = CYLINDRICAL_SURFACE ( 'NONE', #284, 0.3750000000000000555 ) ;
#296 = DIRECTION ( 'NONE',  ( -1.000000000000000000, 0.0000000000000000000, 0.0000000000000000000 ) ) ;
#297 = EDGE_CURVE ( 'NONE', #113, #117, #42, .T. ) ;
#298 = PRODUCT ( 'Micro_EMS-750-2', 'Micro_EMS-750-2', '', ( #267 ) ) ;
#299 = SURFACE_SIDE_STYLE ('',( #232 ) ) ;
ENDSEC;
END-ISO-10303-21;
