ISO-10303-21;
HEADER;
FILE_DESCRIPTION (( 'STEP AP214' ),
    '1' );
FILE_NAME ('59626.STEP',
    '2023-07-24T15:50:52',
    ( '' ),
    ( '' ),
    'SwSTEP 2.0',
    'SolidWorks 2023',
    '' );
FILE_SCHEMA (( 'AUTOMOTIVE_DESIGN' ));
ENDSEC;

DATA;
#1 = DIRECTION ( 'NONE',  ( -0.000000000000000000, -1.000000000000000000, -0.000000000000000000 ) ) ;
#2 = SURFACE_SIDE_STYLE ('',( #248 ) ) ;
#3 = AXIS2_PLACEMENT_3D ( 'NONE', #238, #84, #104 ) ;
#4 = DIRECTION ( 'NONE',  ( 1.687291145491908606E-16, 1.000000000000000000, -0.000000000000000000 ) ) ;
#5 = PLANE ( 'NONE',  #81 ) ;
#6 = ADVANCED_FACE ( 'NONE', ( #286 ), #5, .T. ) ;
#7 =( LENGTH_UNIT ( ) NAMED_UNIT ( * ) SI_UNIT ( .MILLI., .METRE. ) );
#8 = CARTESIAN_POINT ( 'NONE',  ( 7.592810154713587074E-15, 63.00000000000000000, 0.000000000000000000 ) ) ;
#9 =( GEOMETRIC_REPRESENTATION_CONTEXT ( 3 ) GLOBAL_UNCERTAINTY_ASSIGNED_CONTEXT ( ( #204 ) ) GLOBAL_UNIT_ASSIGNED_CONTEXT ( ( #196, #17, #151 ) ) REPRESENTATION_CONTEXT ( 'NONE', 'WORKASPACE' ) );
#10 = CARTESIAN_POINT ( 'NONE',  ( -1.540743955509788682E-30, 18.00000000000000355, 0.000000000000000000 ) ) ;
#11 = CARTESIAN_POINT ( 'NONE',  ( 3.673940397442058882E-16, 0.000000000000000000, 2.999999999999999112 ) ) ;
#12 = PRODUCT_DEFINITION_SHAPE ( 'NONE', 'NONE',  #222 ) ;
#13 = ORIENTED_EDGE ( 'NONE', *, *, #209, .T. ) ;
#14 = DIRECTION ( 'NONE',  ( -1.000000000000000000, 0.000000000000000000, 0.000000000000000000 ) ) ;
#15 = STYLED_ITEM ( 'NONE', ( #27 ), #32 ) ;
#16 =( NAMED_UNIT ( * ) PLANE_ANGLE_UNIT ( ) SI_UNIT ( $, .RADIAN. ) );
#17 =( NAMED_UNIT ( * ) PLANE_ANGLE_UNIT ( ) SI_UNIT ( $, .RADIAN. ) );
#18 = PRESENTATION_STYLE_ASSIGNMENT (( #102 ) ) ;
#19 = MECHANICAL_DESIGN_GEOMETRIC_PRESENTATION_REPRESENTATION (  '', ( #64 ), #272 ) ;
#20 = ORIENTED_EDGE ( 'NONE', *, *, #244, .F. ) ;
#21 = UNCERTAINTY_MEASURE_WITH_UNIT (LENGTH_MEASURE( 1.000000000000000082E-05 ), #245, 'distance_accuracy_value', 'NONE');
#22 =( NAMED_UNIT ( * ) PLANE_ANGLE_UNIT ( ) SI_UNIT ( $, .RADIAN. ) );
#23 = FILL_AREA_STYLE ('',( #72 ) ) ;
#24 = PRODUCT_DEFINITION_CONTEXT ( 'detailed design', #63, 'design' ) ;
#25 = CLOSED_SHELL ( 'NONE', ( #137, #127, #76, #239 ) ) ;
#26 = DIRECTION ( 'NONE',  ( -0.000000000000000000, -1.000000000000000000, -0.000000000000000000 ) ) ;
#27 = PRESENTATION_STYLE_ASSIGNMENT (( #49 ) ) ;
#28 = DIRECTION ( 'NONE',  ( -0.000000000000000000, -1.000000000000000000, -0.000000000000000000 ) ) ;
#29 = EDGE_CURVE ( 'NONE', #83, #201, #58, .T. ) ;
#30 = AXIS2_PLACEMENT_3D ( 'NONE', #48, #93, #51 ) ;
#31 = EDGE_CURVE ( 'NONE', #266, #246, #226, .T. ) ;
#32 = MANIFOLD_SOLID_BREP ( 'Revolve - Tool Body (Straight Shanked)', #25 ) ;
#33 = STYLED_ITEM ( 'NONE', ( #220 ), #131 ) ;
#34 = EDGE_LOOP ( 'NONE', ( #265, #107, #128, #189 ) ) ;
#35 = DIRECTION ( 'NONE',  ( 0.000000000000000000, 0.000000000000000000, 1.000000000000000000 ) ) ;
#36 = CYLINDRICAL_SURFACE ( 'NONE', #97, 2.999999999999999112 ) ;
#37 = ORIENTED_EDGE ( 'NONE', *, *, #31, .T. ) ;
#38 = COLOUR_RGB ( '',1.000000000000000000, 0.000000000000000000, 0.000000000000000000 ) ;
#39 = PRODUCT ( '59626', '59626', '', ( #281 ) ) ;
#40 = COLOUR_RGB ( '',1.000000000000000000, 0.000000000000000000, 0.000000000000000000 ) ;
#41 = DIRECTION ( 'NONE',  ( 1.687291145491908606E-16, 1.000000000000000000, -0.000000000000000000 ) ) ;
#42 =( NAMED_UNIT ( * ) SI_UNIT ( $, .STERADIAN. ) SOLID_ANGLE_UNIT ( ) );
#43 = CYLINDRICAL_SURFACE ( 'NONE', #133, 2.999999999999995115 ) ;
#44 = CARTESIAN_POINT ( 'NONE',  ( 0.000000000000000000, 18.00000000000000355, 0.000000000000000000 ) ) ;
#45 = DIRECTION ( 'NONE',  ( -1.687291145491908606E-16, -1.000000000000000000, 0.000000000000000000 ) ) ;
#46 = CYLINDRICAL_SURFACE ( 'NONE', #109, 2.999999999999995115 ) ;
#47 =( GEOMETRIC_REPRESENTATION_CONTEXT ( 3 ) GLOBAL_UNCERTAINTY_ASSIGNED_CONTEXT ( ( #66 ) ) GLOBAL_UNIT_ASSIGNED_CONTEXT ( ( #160, #224, #42 ) ) REPRESENTATION_CONTEXT ( 'NONE', 'WORKASPACE' ) );
#48 = CARTESIAN_POINT ( 'NONE',  ( -1.540743955509788682E-30, 18.00000000000000355, 0.000000000000000000 ) ) ;
#49 = SURFACE_STYLE_USAGE ( .BOTH. , #163 ) ;
#50 = SURFACE_STYLE_USAGE ( .BOTH. , #77 ) ;
#51 = DIRECTION ( 'NONE',  ( -1.000000000000000000, 0.000000000000000000, 0.000000000000000000 ) ) ;
#52 = AXIS2_PLACEMENT_3D ( 'NONE', #80, #35, #260 ) ;
#53 = SHAPE_DEFINITION_REPRESENTATION ( #12, #108 ) ;
#54 = ORIENTED_EDGE ( 'NONE', *, *, #87, .T. ) ;
#55 = EDGE_CURVE ( 'NONE', #123, #106, #62, .T. ) ;
#56 = AXIS2_PLACEMENT_3D ( 'NONE', #101, #212, #170 ) ;
#57 =( NAMED_UNIT ( * ) SI_UNIT ( $, .STERADIAN. ) SOLID_ANGLE_UNIT ( ) );
#58 = CIRCLE ( 'NONE', #125, 2.999999999999999112 ) ;
#59 = COLOUR_RGB ( '',1.000000000000000000, 0.000000000000000000, 0.000000000000000000 ) ;
#60 = UNCERTAINTY_MEASURE_WITH_UNIT (LENGTH_MEASURE( 1.000000000000000082E-05 ), #180, 'distance_accuracy_value', 'NONE');
#61 = SURFACE_STYLE_USAGE ( .BOTH. , #89 ) ;
#62 = LINE ( 'NONE', #202, #114 ) ;
#63 = APPLICATION_CONTEXT ( 'automotive_design' ) ;
#64 = STYLED_ITEM ( 'NONE', ( #145 ), #213 ) ;
#65 = CIRCLE ( 'NONE', #3, 2.999999999999999112 ) ;
#66 = UNCERTAINTY_MEASURE_WITH_UNIT (LENGTH_MEASURE( 1.000000000000000082E-05 ), #160, 'distance_accuracy_value', 'NONE');
#67 =( LENGTH_UNIT ( ) NAMED_UNIT ( * ) SI_UNIT ( .MILLI., .METRE. ) );
#68 = SURFACE_SIDE_STYLE ('',( #208 ) ) ;
#69 = EDGE_CURVE ( 'NONE', #201, #219, #157, .T. ) ;
#70 = CARTESIAN_POINT ( 'NONE',  ( 0.000000000000000000, 0.000000000000000000, -2.999999999999999112 ) ) ;
#71 = LINE ( 'NONE', #142, #176 ) ;
#72 = FILL_AREA_STYLE_COLOUR ( '', #164 ) ;
#73 = MECHANICAL_DESIGN_GEOMETRIC_PRESENTATION_REPRESENTATION (  '', ( #190 ), #47 ) ;
#74 = PLANE ( 'NONE',  #185 ) ;
#75 = DIRECTION ( 'NONE',  ( 1.687291145491908606E-16, 1.000000000000000000, -0.000000000000000000 ) ) ;
#76 = ADVANCED_FACE ( 'NONE', ( #273 ), #46, .T. ) ;
#77 = SURFACE_SIDE_STYLE ('',( #276 ) ) ;
#78 =( LENGTH_UNIT ( ) NAMED_UNIT ( * ) SI_UNIT ( .MILLI., .METRE. ) );
#79 = EDGE_LOOP ( 'NONE', ( #241, #13, #37, #171 ) ) ;
#80 = CARTESIAN_POINT ( 'NONE',  ( 0.000000000000000000, 0.000000000000000000, 0.000000000000000000 ) ) ;
#81 = AXIS2_PLACEMENT_3D ( 'NONE', #44, #181, #96 ) ;
#82 = AXIS2_PLACEMENT_3D ( 'NONE', #253, #45, #141 ) ;
#83 = VERTEX_POINT ( 'NONE', #229 ) ;
#84 = DIRECTION ( 'NONE',  ( -0.000000000000000000, -1.000000000000000000, -0.000000000000000000 ) ) ;
#85 =( GEOMETRIC_REPRESENTATION_CONTEXT ( 3 ) GLOBAL_UNCERTAINTY_ASSIGNED_CONTEXT ( ( #287 ) ) GLOBAL_UNIT_ASSIGNED_CONTEXT ( ( #7, #138, #143 ) ) REPRESENTATION_CONTEXT ( 'NONE', 'WORKASPACE' ) );
#86 = ORIENTED_EDGE ( 'NONE', *, *, #31, .F. ) ;
#87 = EDGE_CURVE ( 'NONE', #266, #123, #268, .T. ) ;
#88 = DIRECTION ( 'NONE',  ( 0.000000000000000000, 0.000000000000000000, -1.000000000000000000 ) ) ;
#89 = SURFACE_SIDE_STYLE ('',( #283 ) ) ;
#90 = FILL_AREA_STYLE ('',( #91 ) ) ;
#91 = FILL_AREA_STYLE_COLOUR ( '', #38 ) ;
#92 = PRODUCT_RELATED_PRODUCT_CATEGORY ( 'part', '', ( #39 ) ) ;
#93 = DIRECTION ( 'NONE',  ( 1.687291145491908606E-16, 1.000000000000000000, -0.000000000000000000 ) ) ;
#94 = CARTESIAN_POINT ( 'NONE',  ( -2.999999999999987566, 63.00000000000000000, 0.000000000000000000 ) ) ;
#95 = ORIENTED_EDGE ( 'NONE', *, *, #278, .F. ) ;
#96 = DIRECTION ( 'NONE',  ( 0.000000000000000000, -0.000000000000000000, 1.000000000000000000 ) ) ;
#97 = AXIS2_PLACEMENT_3D ( 'NONE', #223, #200, #88 ) ;
#98 = CIRCLE ( 'NONE', #257, 2.999999999999999112 ) ;
#99 = SURFACE_STYLE_FILL_AREA ( #218 ) ;
#100 = FILL_AREA_STYLE_COLOUR ( '', #59 ) ;
#101 = CARTESIAN_POINT ( 'NONE',  ( 0.000000000000000000, 0.000000000000000000, 0.000000000000000000 ) ) ;
#102 = SURFACE_STYLE_USAGE ( .BOTH. , #267 ) ;
#103 = EDGE_LOOP ( 'NONE', ( #198, #221 ) ) ;
#104 = DIRECTION ( 'NONE',  ( 0.000000000000000000, 0.000000000000000000, -1.000000000000000000 ) ) ;
#105 = PRESENTATION_LAYER_ASSIGNMENT (  '', '', ( #64 ) ) ;
#106 = VERTEX_POINT ( 'NONE', #215 ) ;
#107 = ORIENTED_EDGE ( 'NONE', *, *, #249, .T. ) ;
#108 = ADVANCED_BREP_SHAPE_REPRESENTATION ( '59626', ( #131, #32, #52 ), #9 ) ;
#109 = AXIS2_PLACEMENT_3D ( 'NONE', #205, #4, #254 ) ;
#110 = DIRECTION ( 'NONE',  ( 1.687291145491908606E-16, 1.000000000000000000, -0.000000000000000000 ) ) ;
#111 = DIRECTION ( 'NONE',  ( -1.000000000000000000, 1.687291145491908606E-16, 0.000000000000000000 ) ) ;
#112 = SURFACE_STYLE_USAGE ( .BOTH. , #68 ) ;
#113 = CARTESIAN_POINT ( 'NONE',  ( 4.270427114483094353E-32, 18.00000000000000355, 0.000000000000000000 ) ) ;
#114 = VECTOR ( 'NONE', #183, 1000.000000000000000 ) ;
#115 = DIRECTION ( 'NONE',  ( 0.000000000000000000, 0.000000000000000000, -1.000000000000000000 ) ) ;
#116 = DIRECTION ( 'NONE',  ( -0.000000000000000000, -1.000000000000000000, -0.000000000000000000 ) ) ;
#117 = CARTESIAN_POINT ( 'NONE',  ( 0.000000000000000000, 18.00000000000000355, -2.999999999999999112 ) ) ;
#118 = DIRECTION ( 'NONE',  ( -1.000000000000000000, 0.000000000000000000, 0.000000000000000000 ) ) ;
#119 = AXIS2_PLACEMENT_3D ( 'NONE', #277, #28, #121 ) ;
#120 = AXIS2_PLACEMENT_3D ( 'NONE', #129, #193, #14 ) ;
#121 = DIRECTION ( 'NONE',  ( 0.000000000000000000, 0.000000000000000000, -1.000000000000000000 ) ) ;
#122 = ADVANCED_FACE ( 'NONE', ( #242 ), #36, .T. ) ;
#123 = VERTEX_POINT ( 'NONE', #156 ) ;
#124 = CYLINDRICAL_SURFACE ( 'NONE', #56, 2.999999999999999112 ) ;
#125 = AXIS2_PLACEMENT_3D ( 'NONE', #250, #116, #231 ) ;
#126 = MECHANICAL_DESIGN_GEOMETRIC_PRESENTATION_REPRESENTATION (  '', ( #264 ), #159 ) ;
#127 = ADVANCED_FACE ( 'NONE', ( #252 ), #251, .F. ) ;
#128 = ORIENTED_EDGE ( 'NONE', *, *, #167, .F. ) ;
#129 = CARTESIAN_POINT ( 'NONE',  ( 7.592810154713587074E-15, 63.00000000000000000, 0.000000000000000000 ) ) ;
#130 = EDGE_LOOP ( 'NONE', ( #280, #284 ) ) ;
#131 = MANIFOLD_SOLID_BREP ( 'Revolve - Cutting Edge', #168 ) ;
#132 = ORIENTED_EDGE ( 'NONE', *, *, #249, .F. ) ;
#133 = AXIS2_PLACEMENT_3D ( 'NONE', #162, #255, #118 ) ;
#134 = ORIENTED_EDGE ( 'NONE', *, *, #187, .F. ) ;
#135 = SURFACE_STYLE_USAGE ( .BOTH. , #2 ) ;
#136 = ORIENTED_EDGE ( 'NONE', *, *, #29, .F. ) ;
#137 = ADVANCED_FACE ( 'NONE', ( #166 ), #43, .T. ) ;
#138 =( NAMED_UNIT ( * ) PLANE_ANGLE_UNIT ( ) SI_UNIT ( $, .RADIAN. ) );
#139 = AXIS2_PLACEMENT_3D ( 'NONE', #10, #75, #232 ) ;
#140 = FILL_AREA_STYLE_COLOUR ( '', #247 ) ;
#141 = DIRECTION ( 'NONE',  ( 1.000000000000000000, -1.687291145491908606E-16, 0.000000000000000000 ) ) ;
#142 = CARTESIAN_POINT ( 'NONE',  ( 3.673940397442058882E-16, 0.000000000000000000, 2.999999999999999112 ) ) ;
#143 =( NAMED_UNIT ( * ) SI_UNIT ( $, .STERADIAN. ) SOLID_ANGLE_UNIT ( ) );
#144 = FILL_AREA_STYLE ('',( #207 ) ) ;
#145 = PRESENTATION_STYLE_ASSIGNMENT (( #50 ) ) ;
#146 = PRESENTATION_LAYER_ASSIGNMENT (  '', '', ( #15 ) ) ;
#147 = DIRECTION ( 'NONE',  ( 0.000000000000000000, 0.000000000000000000, -1.000000000000000000 ) ) ;
#148 = EDGE_LOOP ( 'NONE', ( #169, #174 ) ) ;
#149 = APPLICATION_PROTOCOL_DEFINITION ( 'draft international standard', 'automotive_design', 1998, #63 ) ;
#150 = EDGE_LOOP ( 'NONE', ( #54, #243, #134, #86 ) ) ;
#151 =( NAMED_UNIT ( * ) SI_UNIT ( $, .STERADIAN. ) SOLID_ANGLE_UNIT ( ) );
#152 = ORIENTED_EDGE ( 'NONE', *, *, #69, .T. ) ;
#153 =( NAMED_UNIT ( * ) SI_UNIT ( $, .STERADIAN. ) SOLID_ANGLE_UNIT ( ) );
#154 = STYLED_ITEM ( 'NONE', ( #288 ), #122 ) ;
#155 = SURFACE_STYLE_FILL_AREA ( #23 ) ;
#156 = CARTESIAN_POINT ( 'NONE',  ( 2.999999999999999556, 18.00000000000000355, 3.673940397442056417E-16 ) ) ;
#157 = LINE ( 'NONE', #203, #172 ) ;
#158 = CIRCLE ( 'NONE', #30, 2.999999999999999112 ) ;
#159 =( GEOMETRIC_REPRESENTATION_CONTEXT ( 3 ) GLOBAL_UNCERTAINTY_ASSIGNED_CONTEXT ( ( #21 ) ) GLOBAL_UNIT_ASSIGNED_CONTEXT ( ( #245, #16, #153 ) ) REPRESENTATION_CONTEXT ( 'NONE', 'WORKASPACE' ) );
#160 =( LENGTH_UNIT ( ) NAMED_UNIT ( * ) SI_UNIT ( .MILLI., .METRE. ) );
#161 = FACE_OUTER_BOUND ( 'NONE', #103, .T. ) ;
#162 = CARTESIAN_POINT ( 'NONE',  ( 7.592810154713587074E-15, 63.00000000000000000, 0.000000000000000000 ) ) ;
#163 = SURFACE_SIDE_STYLE ('',( #155 ) ) ;
#164 = COLOUR_RGB ( '',0.7921568627450980005, 0.8196078431372548767, 0.9333333333333333481 ) ;
#165 = DIRECTION ( 'NONE',  ( 0.000000000000000000, -1.000000000000000000, -0.000000000000000000 ) ) ;
#166 = FACE_OUTER_BOUND ( 'NONE', #150, .T. ) ;
#167 = EDGE_CURVE ( 'NONE', #219, #177, #184, .T. ) ;
#168 = CLOSED_SHELL ( 'NONE', ( #122, #6, #274, #213 ) ) ;
#169 = ORIENTED_EDGE ( 'NONE', *, *, #87, .F. ) ;
#170 = DIRECTION ( 'NONE',  ( 0.000000000000000000, 0.000000000000000000, -1.000000000000000000 ) ) ;
#171 = ORIENTED_EDGE ( 'NONE', *, *, #262, .F. ) ;
#172 = VECTOR ( 'NONE', #1, 1000.000000000000000 ) ;
#173 = DIRECTION ( 'NONE',  ( -0.000000000000000000, -1.000000000000000000, -0.000000000000000000 ) ) ;
#174 = ORIENTED_EDGE ( 'NONE', *, *, #209, .F. ) ;
#175 = MECHANICAL_DESIGN_GEOMETRIC_PRESENTATION_REPRESENTATION (  '', ( #154 ), #256 ) ;
#176 = VECTOR ( 'NONE', #173, 1000.000000000000000 ) ;
#177 = VERTEX_POINT ( 'NONE', #11 ) ;
#178 = PRESENTATION_LAYER_ASSIGNMENT (  '', '', ( #33 ) ) ;
#179 = CIRCLE ( 'NONE', #120, 2.999999999999991562 ) ;
#180 =( LENGTH_UNIT ( ) NAMED_UNIT ( * ) SI_UNIT ( .MILLI., .METRE. ) );
#181 = DIRECTION ( 'NONE',  ( 0.000000000000000000, 1.000000000000000000, 0.000000000000000000 ) ) ;
#182 = FACE_OUTER_BOUND ( 'NONE', #130, .T. ) ;
#183 = DIRECTION ( 'NONE',  ( 1.687291145491908606E-16, 1.000000000000000000, -0.000000000000000000 ) ) ;
#184 = CIRCLE ( 'NONE', #119, 2.999999999999999112 ) ;
#185 = AXIS2_PLACEMENT_3D ( 'NONE', #211, #165, #147 ) ;
#186 = DIRECTION ( 'NONE',  ( 1.687291145491908606E-16, 1.000000000000000000, -0.000000000000000000 ) ) ;
#187 = EDGE_CURVE ( 'NONE', #246, #106, #271, .T. ) ;
#188 =( NAMED_UNIT ( * ) SI_UNIT ( $, .STERADIAN. ) SOLID_ANGLE_UNIT ( ) );
#189 = ORIENTED_EDGE ( 'NONE', *, *, #69, .F. ) ;
#190 = STYLED_ITEM ( 'NONE', ( #270 ), #6 ) ;
#191 = PRODUCT_DEFINITION_FORMATION_WITH_SPECIFIED_SOURCE ( 'ANY', '', #39, .NOT_KNOWN. ) ;
#192 = CARTESIAN_POINT ( 'NONE',  ( -2.999999999999999112, 18.00000000000000355, 0.000000000000000000 ) ) ;
#193 = DIRECTION ( 'NONE',  ( 1.687291145491908606E-16, 1.000000000000000000, -0.000000000000000000 ) ) ;
#194 = APPLICATION_PROTOCOL_DEFINITION ( 'draft international standard', 'automotive_design', 1998, #227 ) ;
#195 = COLOUR_RGB ( '',1.000000000000000000, 0.000000000000000000, 0.000000000000000000 ) ;
#196 =( LENGTH_UNIT ( ) NAMED_UNIT ( * ) SI_UNIT ( .MILLI., .METRE. ) );
#197 = FILL_AREA_STYLE ('',( #217 ) ) ;
#198 = ORIENTED_EDGE ( 'NONE', *, *, #187, .T. ) ;
#199 = ORIENTED_EDGE ( 'NONE', *, *, #29, .T. ) ;
#200 = DIRECTION ( 'NONE',  ( -0.000000000000000000, -1.000000000000000000, -0.000000000000000000 ) ) ;
#201 = VERTEX_POINT ( 'NONE', #117 ) ;
#202 = CARTESIAN_POINT ( 'NONE',  ( 3.000000000000003109, 63.00000000000000000, 3.673940397442053952E-16 ) ) ;
#203 = CARTESIAN_POINT ( 'NONE',  ( 0.000000000000000000, 0.000000000000000000, -2.999999999999999112 ) ) ;
#204 = UNCERTAINTY_MEASURE_WITH_UNIT (LENGTH_MEASURE( 1.000000000000000082E-05 ), #196, 'distance_accuracy_value', 'NONE');
#205 = CARTESIAN_POINT ( 'NONE',  ( 7.592810154713587074E-15, 63.00000000000000000, 0.000000000000000000 ) ) ;
#206 = CARTESIAN_POINT ( 'NONE',  ( -2.999999999999983569, 63.00000000000000000, 0.000000000000000000 ) ) ;
#207 = FILL_AREA_STYLE_COLOUR ( '', #195 ) ;
#208 = SURFACE_STYLE_FILL_AREA ( #90 ) ;
#209 = EDGE_CURVE ( 'NONE', #123, #266, #158, .T. ) ;
#210 =( GEOMETRIC_REPRESENTATION_CONTEXT ( 3 ) GLOBAL_UNCERTAINTY_ASSIGNED_CONTEXT ( ( #60 ) ) GLOBAL_UNIT_ASSIGNED_CONTEXT ( ( #180, #234, #188 ) ) REPRESENTATION_CONTEXT ( 'NONE', 'WORKASPACE' ) );
#211 = CARTESIAN_POINT ( 'NONE',  ( 0.000000000000000000, 0.000000000000000000, 0.000000000000000000 ) ) ;
#212 = DIRECTION ( 'NONE',  ( -0.000000000000000000, -1.000000000000000000, -0.000000000000000000 ) ) ;
#213 = ADVANCED_FACE ( 'NONE', ( #182 ), #74, .T. ) ;
#214 = PRESENTATION_LAYER_ASSIGNMENT (  '', '', ( #264 ) ) ;
#215 = CARTESIAN_POINT ( 'NONE',  ( 2.999999999999999556, 63.00000000000000000, 3.673940397442056417E-16 ) ) ;
#216 = FACE_OUTER_BOUND ( 'NONE', #279, .T. ) ;
#217 = FILL_AREA_STYLE_COLOUR ( '', #40 ) ;
#218 = FILL_AREA_STYLE ('',( #100 ) ) ;
#219 = VERTEX_POINT ( 'NONE', #70 ) ;
#220 = PRESENTATION_STYLE_ASSIGNMENT (( #135 ) ) ;
#221 = ORIENTED_EDGE ( 'NONE', *, *, #262, .T. ) ;
#222 = PRODUCT_DEFINITION ( 'UNKNOWN', '', #191, #24 ) ;
#223 = CARTESIAN_POINT ( 'NONE',  ( 0.000000000000000000, 0.000000000000000000, 0.000000000000000000 ) ) ;
#224 =( NAMED_UNIT ( * ) PLANE_ANGLE_UNIT ( ) SI_UNIT ( $, .RADIAN. ) );
#225 = FILL_AREA_STYLE ('',( #140 ) ) ;
#226 = LINE ( 'NONE', #94, #230 ) ;
#227 = APPLICATION_CONTEXT ( 'automotive_design' ) ;
#228 = CARTESIAN_POINT ( 'NONE',  ( 0.000000000000000000, 18.00000000000000355, 0.000000000000000000 ) ) ;
#229 = CARTESIAN_POINT ( 'NONE',  ( 3.673940397442058882E-16, 18.00000000000000355, 2.999999999999999112 ) ) ;
#230 = VECTOR ( 'NONE', #110, 1000.000000000000000 ) ;
#231 = DIRECTION ( 'NONE',  ( 0.000000000000000000, 0.000000000000000000, -1.000000000000000000 ) ) ;
#232 = DIRECTION ( 'NONE',  ( -1.000000000000000000, 0.000000000000000000, 0.000000000000000000 ) ) ;
#233 = UNCERTAINTY_MEASURE_WITH_UNIT (LENGTH_MEASURE( 1.000000000000000082E-05 ), #67, 'distance_accuracy_value', 'NONE');
#234 =( NAMED_UNIT ( * ) PLANE_ANGLE_UNIT ( ) SI_UNIT ( $, .RADIAN. ) );
#235 =( NAMED_UNIT ( * ) PLANE_ANGLE_UNIT ( ) SI_UNIT ( $, .RADIAN. ) );
#236 = PRESENTATION_LAYER_ASSIGNMENT (  '', '', ( #154 ) ) ;
#237 =( NAMED_UNIT ( * ) SI_UNIT ( $, .STERADIAN. ) SOLID_ANGLE_UNIT ( ) );
#238 = CARTESIAN_POINT ( 'NONE',  ( 0.000000000000000000, 0.000000000000000000, 0.000000000000000000 ) ) ;
#239 = ADVANCED_FACE ( 'NONE', ( #161 ), #258, .F. ) ;
#240 = MECHANICAL_DESIGN_GEOMETRIC_PRESENTATION_REPRESENTATION (  '', ( #15 ), #85 ) ;
#241 = ORIENTED_EDGE ( 'NONE', *, *, #55, .F. ) ;
#242 = FACE_OUTER_BOUND ( 'NONE', #34, .T. ) ;
#243 = ORIENTED_EDGE ( 'NONE', *, *, #55, .T. ) ;
#244 = EDGE_CURVE ( 'NONE', #201, #83, #98, .T. ) ;
#245 =( LENGTH_UNIT ( ) NAMED_UNIT ( * ) SI_UNIT ( .MILLI., .METRE. ) );
#246 = VERTEX_POINT ( 'NONE', #206 ) ;
#247 = COLOUR_RGB ( '',0.7921568627450980005, 0.8196078431372548767, 0.9333333333333333481 ) ;
#248 = SURFACE_STYLE_FILL_AREA ( #225 ) ;
#249 = EDGE_CURVE ( 'NONE', #83, #177, #71, .T. ) ;
#250 = CARTESIAN_POINT ( 'NONE',  ( 0.000000000000000000, 18.00000000000000355, 0.000000000000000000 ) ) ;
#251 = PLANE ( 'NONE',  #285 ) ;
#252 = FACE_OUTER_BOUND ( 'NONE', #148, .T. ) ;
#253 = CARTESIAN_POINT ( 'NONE',  ( 2.999999999999999112, 63.00000000000000000, 0.000000000000000000 ) ) ;
#254 = DIRECTION ( 'NONE',  ( -1.000000000000000000, 0.000000000000000000, 0.000000000000000000 ) ) ;
#255 = DIRECTION ( 'NONE',  ( 1.687291145491908606E-16, 1.000000000000000000, -0.000000000000000000 ) ) ;
#256 =( GEOMETRIC_REPRESENTATION_CONTEXT ( 3 ) GLOBAL_UNCERTAINTY_ASSIGNED_CONTEXT ( ( #233 ) ) GLOBAL_UNIT_ASSIGNED_CONTEXT ( ( #67, #22, #57 ) ) REPRESENTATION_CONTEXT ( 'NONE', 'WORKASPACE' ) );
#257 = AXIS2_PLACEMENT_3D ( 'NONE', #228, #26, #115 ) ;
#258 = PLANE ( 'NONE',  #82 ) ;
#259 = DIRECTION ( 'NONE',  ( -1.000000000000000000, 0.000000000000000000, 0.000000000000000000 ) ) ;
#260 = DIRECTION ( 'NONE',  ( 1.000000000000000000, 0.000000000000000000, 0.000000000000000000 ) ) ;
#261 = EDGE_LOOP ( 'NONE', ( #20, #136 ) ) ;
#262 = EDGE_CURVE ( 'NONE', #106, #246, #179, .T. ) ;
#263 = PRESENTATION_LAYER_ASSIGNMENT (  '', '', ( #190 ) ) ;
#264 = STYLED_ITEM ( 'NONE', ( #18 ), #274 ) ;
#265 = ORIENTED_EDGE ( 'NONE', *, *, #244, .T. ) ;
#266 = VERTEX_POINT ( 'NONE', #192 ) ;
#267 = SURFACE_SIDE_STYLE ('',( #99 ) ) ;
#268 = CIRCLE ( 'NONE', #139, 2.999999999999999112 ) ;
#269 = UNCERTAINTY_MEASURE_WITH_UNIT (LENGTH_MEASURE( 1.000000000000000082E-05 ), #78, 'distance_accuracy_value', 'NONE');
#270 = PRESENTATION_STYLE_ASSIGNMENT (( #112 ) ) ;
#271 = CIRCLE ( 'NONE', #282, 2.999999999999991562 ) ;
#272 =( GEOMETRIC_REPRESENTATION_CONTEXT ( 3 ) GLOBAL_UNCERTAINTY_ASSIGNED_CONTEXT ( ( #269 ) ) GLOBAL_UNIT_ASSIGNED_CONTEXT ( ( #78, #235, #237 ) ) REPRESENTATION_CONTEXT ( 'NONE', 'WORKASPACE' ) );
#273 = FACE_OUTER_BOUND ( 'NONE', #79, .T. ) ;
#274 = ADVANCED_FACE ( 'NONE', ( #216 ), #124, .T. ) ;
#275 = MECHANICAL_DESIGN_GEOMETRIC_PRESENTATION_REPRESENTATION (  '', ( #33 ), #210 ) ;
#276 = SURFACE_STYLE_FILL_AREA ( #144 ) ;
#277 = CARTESIAN_POINT ( 'NONE',  ( 0.000000000000000000, 0.000000000000000000, 0.000000000000000000 ) ) ;
#278 = EDGE_CURVE ( 'NONE', #177, #219, #65, .T. ) ;
#279 = EDGE_LOOP ( 'NONE', ( #132, #199, #152, #95 ) ) ;
#280 = ORIENTED_EDGE ( 'NONE', *, *, #167, .T. ) ;
#281 = PRODUCT_CONTEXT ( 'NONE', #227, 'mechanical' ) ;
#282 = AXIS2_PLACEMENT_3D ( 'NONE', #8, #186, #259 ) ;
#283 = SURFACE_STYLE_FILL_AREA ( #197 ) ;
#284 = ORIENTED_EDGE ( 'NONE', *, *, #278, .T. ) ;
#285 = AXIS2_PLACEMENT_3D ( 'NONE', #113, #41, #111 ) ;
#286 = FACE_OUTER_BOUND ( 'NONE', #261, .T. ) ;
#287 = UNCERTAINTY_MEASURE_WITH_UNIT (LENGTH_MEASURE( 1.000000000000000082E-05 ), #7, 'distance_accuracy_value', 'NONE');
#288 = PRESENTATION_STYLE_ASSIGNMENT (( #61 ) ) ;
ENDSEC;
END-ISO-10303-21;
