ISO-10303-21;
HEADER;
FILE_DESCRIPTION (( 'STEP AP214' ),
    '1' );
FILE_NAME ('Micro_EMSM-200-4.STEP',
    '2022-03-15T14:40:47',
    ( '' ),
    ( '' ),
    'SwSTEP 2.0',
    'SolidWorks 2022',
    '' );
FILE_SCHEMA (( 'AUTOMOTIVE_DESIGN' ));
ENDSEC;

DATA;
#1 = FILL_AREA_STYLE ('',( #282 ) ) ;
#2 = AXIS2_PLACEMENT_3D ( 'NONE', #228, #185, #114 ) ;
#3 = AXIS2_PLACEMENT_3D ( 'NONE', #279, #280, #134 ) ;
#4 = AXIS2_PLACEMENT_3D ( 'NONE', #77, #192, #11 ) ;
#5 = VERTEX_POINT ( 'NONE', #225 ) ;
#6 = ORIENTED_EDGE ( 'NONE', *, *, #113, .T. ) ;
#7 = DIRECTION ( 'NONE',  ( -0.000000000000000000, -0.000000000000000000, -1.000000000000000000 ) ) ;
#8 =( NAMED_UNIT ( * ) PLANE_ANGLE_UNIT ( ) SI_UNIT ( $, .RADIAN. ) );
#9 = PRODUCT_DEFINITION ( 'UNKNOWN', '', #30, #123 ) ;
#10 = CARTESIAN_POINT ( 'NONE',  ( 0.000000000000000000, 0.000000000000000000, 4.094488000000000127 ) ) ;
#11 = DIRECTION ( 'NONE',  ( -1.000000000000000000, 0.000000000000000000, 0.000000000000000000 ) ) ;
#12 = CIRCLE ( 'NONE', #40, 0.3933072989999999991 ) ;
#13 = VECTOR ( 'NONE', #97, 39.37007874015748143 ) ;
#14 = DIRECTION ( 'NONE',  ( 0.000000000000000000, 0.000000000000000000, 1.000000000000000000 ) ) ;
#15 = EDGE_CURVE ( 'NONE', #216, #5, #70, .T. ) ;
#16 =( GEOMETRIC_REPRESENTATION_CONTEXT ( 3 ) GLOBAL_UNCERTAINTY_ASSIGNED_CONTEXT ( ( #141 ) ) GLOBAL_UNIT_ASSIGNED_CONTEXT ( ( #79, #8, #167 ) ) REPRESENTATION_CONTEXT ( 'NONE', 'WORKASPACE' ) );
#17 = FILL_AREA_STYLE ('',( #274 ) ) ;
#18 = LENGTH_MEASURE_WITH_UNIT ( LENGTH_MEASURE( 0.02539999999999999897 ), #82 );
#19 = ORIENTED_EDGE ( 'NONE', *, *, #113, .F. ) ;
#20 = MECHANICAL_DESIGN_GEOMETRIC_PRESENTATION_REPRESENTATION (  '', ( #213 ), #16 ) ;
#21 = ADVANCED_FACE ( 'NONE', ( #50 ), #110, .T. ) ;
#22 = VERTEX_POINT ( 'NONE', #182 ) ;
#23 = DIRECTION ( 'NONE',  ( -1.224646799147353207E-16, -0.000000000000000000, -1.000000000000000000 ) ) ;
#24 = CARTESIAN_POINT ( 'NONE',  ( 5.898664692675622805E-33, 0.000000000000000000, 4.816625248016410340E-17 ) ) ;
#25 = EDGE_CURVE ( 'NONE', #5, #243, #54, .T. ) ;
#26 = CARTESIAN_POINT ( 'NONE',  ( 0.000000000000000000, 0.000000000000000000, 4.094488000000000127 ) ) ;
#27 = CARTESIAN_POINT ( 'NONE',  ( -0.3937009999999998011, 0.000000000000000000, 1.773886789323665392 ) ) ;
#28 = ORIENTED_EDGE ( 'NONE', *, *, #25, .T. ) ;
#29 = DIRECTION ( 'NONE',  ( -1.224646799147353207E-16, -0.000000000000000000, -1.000000000000000000 ) ) ;
#30 = PRODUCT_DEFINITION_FORMATION_WITH_SPECIFIED_SOURCE ( 'ANY', '', #187, .NOT_KNOWN. ) ;
#31 = DIRECTION ( 'NONE',  ( 0.000000000000000000, 0.000000000000000000, -1.000000000000000000 ) ) ;
#32 = CARTESIAN_POINT ( 'NONE',  ( 0.3933072989999999991, 4.816625248016410340E-17, 0.000000000000000000 ) ) ;
#33 = ADVANCED_FACE ( 'NONE', ( #53 ), #218, .T. ) ;
#34 = CARTESIAN_POINT ( 'NONE',  ( -0.3933072989999999991, 0.000000000000000000, 4.816625248016410340E-17 ) ) ;
#35 = AXIS2_PLACEMENT_3D ( 'NONE', #287, #259, #55 ) ;
#36 = LINE ( 'NONE', #288, #184 ) ;
#37 = ORIENTED_EDGE ( 'NONE', *, *, #100, .T. ) ;
#38 = ORIENTED_EDGE ( 'NONE', *, *, #211, .T. ) ;
#39 = ADVANCED_FACE ( 'NONE', ( #138 ), #198, .T. ) ;
#40 = AXIS2_PLACEMENT_3D ( 'NONE', #24, #181, #68 ) ;
#41 =( GEOMETRIC_REPRESENTATION_CONTEXT ( 3 ) GLOBAL_UNCERTAINTY_ASSIGNED_CONTEXT ( ( #95 ) ) GLOBAL_UNIT_ASSIGNED_CONTEXT ( ( #83, #85, #221 ) ) REPRESENTATION_CONTEXT ( 'NONE', 'WORKASPACE' ) );
#42 = SURFACE_STYLE_USAGE ( .BOTH. , #135 ) ;
#43 = DIRECTION ( 'NONE',  ( 1.000000000000000000, 0.000000000000000000, 0.000000000000000000 ) ) ;
#44 = EDGE_CURVE ( 'NONE', #243, #124, #159, .T. ) ;
#45 = ORIENTED_EDGE ( 'NONE', *, *, #25, .F. ) ;
#46 = CARTESIAN_POINT ( 'NONE',  ( 0.3937009999999999676, 4.821446694711121291E-17, 4.079488000000000447 ) ) ;
#47 = CARTESIAN_POINT ( 'NONE',  ( 0.000000000000000000, 0.000000000000000000, 4.079488000000000447 ) ) ;
#48 = AXIS2_PLACEMENT_3D ( 'NONE', #145, #237, #286 ) ;
#49 =( NAMED_UNIT ( * ) PLANE_ANGLE_UNIT ( ) SI_UNIT ( $, .RADIAN. ) );
#50 = FACE_OUTER_BOUND ( 'NONE', #99, .T. ) ;
#51 = EDGE_LOOP ( 'NONE', ( #299, #37, #125, #105 ) ) ;
#52 = EDGE_CURVE ( 'NONE', #64, #151, #12, .T. ) ;
#53 = FACE_OUTER_BOUND ( 'NONE', #268, .T. ) ;
#54 = LINE ( 'NONE', #90, #137 ) ;
#55 = DIRECTION ( 'NONE',  ( 1.000000000000000000, 0.000000000000000000, 0.000000000000000000 ) ) ;
#56 = DIRECTION ( 'NONE',  ( -1.000000000000000000, 0.000000000000000000, 1.224646799147353207E-16 ) ) ;
#57 = AXIS2_PLACEMENT_3D ( 'NONE', #119, #14, #212 ) ;
#58 = APPLICATION_CONTEXT ( 'automotive_design' ) ;
#59 = ADVANCED_FACE ( 'NONE', ( #157 ), #247, .T. ) ;
#60 = DIRECTION ( 'NONE',  ( 1.000000000000000000, 0.000000000000000000, 0.000000000000000000 ) ) ;
#61 = FACE_OUTER_BOUND ( 'NONE', #186, .T. ) ;
#62 = ORIENTED_EDGE ( 'NONE', *, *, #257, .F. ) ;
#63 = ORIENTED_EDGE ( 'NONE', *, *, #172, .T. ) ;
#64 = VERTEX_POINT ( 'NONE', #229 ) ;
#65 = CARTESIAN_POINT ( 'NONE',  ( 0.000000000000000000, 0.000000000000000000, 0.000000000000000000 ) ) ;
#66 = DIRECTION ( 'NONE',  ( 1.224646799147353207E-16, 0.000000000000000000, 1.000000000000000000 ) ) ;
#67 = ORIENTED_EDGE ( 'NONE', *, *, #160, .T. ) ;
#68 = DIRECTION ( 'NONE',  ( -1.000000000000000000, 0.000000000000000000, 1.224646799147353207E-16 ) ) ;
#69 = DIRECTION ( 'NONE',  ( 1.000000000000000000, 0.000000000000000000, 0.000000000000000000 ) ) ;
#70 = CIRCLE ( 'NONE', #232, 0.3787010000000002319 ) ;
#71 = APPLICATION_PROTOCOL_DEFINITION ( 'draft international standard', 'automotive_design', 1998, #58 ) ;
#72 = DIRECTION ( 'NONE',  ( -1.000000000000000000, 0.000000000000000000, 0.000000000000000000 ) ) ;
#73 = DIRECTION ( 'NONE',  ( 1.000000000000000000, 0.000000000000000000, 0.000000000000000000 ) ) ;
#74 = VERTEX_POINT ( 'NONE', #27 ) ;
#75 = CIRCLE ( 'NONE', #163, 0.3933072989999999991 ) ;
#76 = CARTESIAN_POINT ( 'NONE',  ( -0.3933072989999998326, 4.816625248016410340E-17, 1.771654000000000062 ) ) ;
#77 = CARTESIAN_POINT ( 'NONE',  ( 2.169650400296604887E-16, 0.000000000000000000, 1.771654000000000062 ) ) ;
#78 = FACE_OUTER_BOUND ( 'NONE', #196, .T. ) ;
#79 =( CONVERSION_BASED_UNIT ( 'INCH', #116 ) LENGTH_UNIT ( ) NAMED_UNIT ( #191 ) );
#80 = LINE ( 'NONE', #267, #249 ) ;
#81 = EDGE_LOOP ( 'NONE', ( #174, #28, #294, #242 ) ) ;
#82 =( LENGTH_UNIT ( ) NAMED_UNIT ( * ) SI_UNIT ( $, .METRE. ) );
#83 =( CONVERSION_BASED_UNIT ( 'INCH', #152 ) LENGTH_UNIT ( ) NAMED_UNIT ( #144 ) );
#84 = AXIS2_PLACEMENT_3D ( 'NONE', #133, #87, #271 ) ;
#85 =( NAMED_UNIT ( * ) PLANE_ANGLE_UNIT ( ) SI_UNIT ( $, .RADIAN. ) );
#86 = ORIENTED_EDGE ( 'NONE', *, *, #270, .T. ) ;
#87 = DIRECTION ( 'NONE',  ( -1.224646799147353207E-16, -0.000000000000000000, -1.000000000000000000 ) ) ;
#88 = PRESENTATION_STYLE_ASSIGNMENT (( #202 ) ) ;
#89 = AXIS2_PLACEMENT_3D ( 'NONE', #194, #156, #107 ) ;
#90 = CARTESIAN_POINT ( 'NONE',  ( 0.3787010000000002319, 4.637749674839021182E-17, 4.094488000000000127 ) ) ;
#91 = DIRECTION ( 'NONE',  ( -0.000000000000000000, -0.000000000000000000, -1.000000000000000000 ) ) ;
#92 = PLANE ( 'NONE',  #139 ) ;
#93 = CARTESIAN_POINT ( 'NONE',  ( 5.898664692675622805E-33, 0.000000000000000000, 4.816625248016410340E-17 ) ) ;
#94 = DIRECTION ( 'NONE',  ( -0.000000000000000000, -0.000000000000000000, -1.000000000000000000 ) ) ;
#95 = UNCERTAINTY_MEASURE_WITH_UNIT (LENGTH_MEASURE( 1.000000000000000082E-05 ), #83, 'distance_accuracy_value', 'NONE');
#96 = DIRECTION ( 'NONE',  ( -1.224646799147353207E-16, -0.000000000000000000, -1.000000000000000000 ) ) ;
#97 = DIRECTION ( 'NONE',  ( 0.1736481776669314137, 0.000000000000000000, 0.9848077530122077983 ) ) ;
#98 = CLOSED_SHELL ( 'NONE', ( #283, #241, #39, #223, #59, #220, #21, #33, #275, #108 ) ) ;
#99 = EDGE_LOOP ( 'NONE', ( #45, #246, #206, #272 ) ) ;
#100 = EDGE_CURVE ( 'NONE', #243, #208, #244, .T. ) ;
#101 = MANIFOLD_SOLID_BREP ( 'Cut-Revolve1', #98 ) ;
#102 = ORIENTED_EDGE ( 'NONE', *, *, #205, .F. ) ;
#103 = CYLINDRICAL_SURFACE ( 'NONE', #203, 0.3933072989999999991 ) ;
#104 = CIRCLE ( 'NONE', #4, 0.3933072989999999991 ) ;
#105 = ORIENTED_EDGE ( 'NONE', *, *, #270, .F. ) ;
#106 = CARTESIAN_POINT ( 'NONE',  ( 0.000000000000000000, 0.000000000000000000, 4.094488000000000127 ) ) ;
#107 = DIRECTION ( 'NONE',  ( 1.000000000000000000, 0.000000000000000000, 0.000000000000000000 ) ) ;
#108 = ADVANCED_FACE ( 'NONE', ( #120 ), #158, .F. ) ;
#109 = CARTESIAN_POINT ( 'NONE',  ( 0.000000000000000000, 0.000000000000000000, 4.094488000000000127 ) ) ;
#110 = CONICAL_SURFACE ( 'NONE', #285, 0.3787010000000002319, 0.7853981633974506105 ) ;
#111 = ORIENTED_EDGE ( 'NONE', *, *, #211, .F. ) ;
#112 = DIRECTION ( 'NONE',  ( 0.000000000000000000, 0.000000000000000000, -1.000000000000000000 ) ) ;
#113 = EDGE_CURVE ( 'NONE', #151, #64, #75, .T. ) ;
#114 = DIRECTION ( 'NONE',  ( -1.000000000000000000, 0.000000000000000000, 0.000000000000000000 ) ) ;
#115 = EDGE_CURVE ( 'NONE', #208, #243, #148, .T. ) ;
#116 = LENGTH_MEASURE_WITH_UNIT ( LENGTH_MEASURE( 0.02539999999999999897 ), #136 );
#117 = CIRCLE ( 'NONE', #84, 0.3937009999999999676 ) ;
#118 = CYLINDRICAL_SURFACE ( 'NONE', #121, 0.3937009999999999676 ) ;
#119 = CARTESIAN_POINT ( 'NONE',  ( 0.000000000000000000, 0.000000000000000000, 4.094488000000000127 ) ) ;
#120 = FACE_OUTER_BOUND ( 'NONE', #177, .T. ) ;
#121 = AXIS2_PLACEMENT_3D ( 'NONE', #10, #94, #189 ) ;
#122 = LINE ( 'NONE', #34, #168 ) ;
#123 = PRODUCT_DEFINITION_CONTEXT ( 'detailed design', #166, 'design' ) ;
#124 = VERTEX_POINT ( 'NONE', #236 ) ;
#125 = ORIENTED_EDGE ( 'NONE', *, *, #146, .T. ) ;
#126 = VECTOR ( 'NONE', #293, 39.37007874015747433 ) ;
#127 =( LENGTH_UNIT ( ) NAMED_UNIT ( * ) SI_UNIT ( $, .METRE. ) );
#128 = VERTEX_POINT ( 'NONE', #266 ) ;
#129 = CARTESIAN_POINT ( 'NONE',  ( 0.3933072990000002211, 0.000000000000000000, 1.771654000000000062 ) ) ;
#130 = CONICAL_SURFACE ( 'NONE', #173, 0.3933072989999999991, 0.1745329251994339192 ) ;
#131 = ORIENTED_EDGE ( 'NONE', *, *, #197, .F. ) ;
#132 = PRODUCT_RELATED_PRODUCT_CATEGORY ( 'part', '', ( #187 ) ) ;
#133 = CARTESIAN_POINT ( 'NONE',  ( 2.172384778595001935E-16, 0.000000000000000000, 1.773886789323665392 ) ) ;
#134 = DIRECTION ( 'NONE',  ( 1.000000000000000000, 0.000000000000000000, 0.000000000000000000 ) ) ;
#135 = SURFACE_SIDE_STYLE ('',( #180 ) ) ;
#136 =( LENGTH_UNIT ( ) NAMED_UNIT ( * ) SI_UNIT ( $, .METRE. ) );
#137 = VECTOR ( 'NONE', #277, 39.37007874015748143 ) ;
#138 = FACE_OUTER_BOUND ( 'NONE', #81, .T. ) ;
#139 = AXIS2_PLACEMENT_3D ( 'NONE', #260, #261, #233 ) ;
#140 = ORIENTED_EDGE ( 'NONE', *, *, #278, .F. ) ;
#141 = UNCERTAINTY_MEASURE_WITH_UNIT (LENGTH_MEASURE( 1.000000000000000082E-05 ), #79, 'distance_accuracy_value', 'NONE');
#142 = DIRECTION ( 'NONE',  ( -0.000000000000000000, -0.000000000000000000, -1.000000000000000000 ) ) ;
#143 = CARTESIAN_POINT ( 'NONE',  ( 0.000000000000000000, 0.000000000000000000, 0.000000000000000000 ) ) ;
#144 = DIMENSIONAL_EXPONENTS ( 1.000000000000000000, 0.000000000000000000, 0.000000000000000000, 0.000000000000000000, 0.000000000000000000, 0.000000000000000000, 0.000000000000000000 ) ;
#145 = CARTESIAN_POINT ( 'NONE',  ( 2.169650400296604887E-16, 0.000000000000000000, 1.771654000000000062 ) ) ;
#146 = EDGE_CURVE ( 'NONE', #208, #74, #36, .T. ) ;
#147 = PRESENTATION_LAYER_ASSIGNMENT (  '', '', ( #213 ) ) ;
#148 = CIRCLE ( 'NONE', #265, 0.3937009999999999676 ) ;
#149 = ORIENTED_EDGE ( 'NONE', *, *, #197, .T. ) ;
#150 = ORIENTED_EDGE ( 'NONE', *, *, #115, .T. ) ;
#151 = VERTEX_POINT ( 'NONE', #32 ) ;
#152 = LENGTH_MEASURE_WITH_UNIT ( LENGTH_MEASURE( 0.02539999999999999897 ), #127 );
#153 = ORIENTED_EDGE ( 'NONE', *, *, #146, .F. ) ;
#154 = FACE_OUTER_BOUND ( 'NONE', #161, .T. ) ;
#155 = ORIENTED_EDGE ( 'NONE', *, *, #44, .T. ) ;
#156 = DIRECTION ( 'NONE',  ( -1.224646799147353207E-16, -0.000000000000000000, -1.000000000000000000 ) ) ;
#157 = FACE_OUTER_BOUND ( 'NONE', #51, .T. ) ;
#158 = PLANE ( 'NONE',  #234 ) ;
#159 = LINE ( 'NONE', #200, #263 ) ;
#160 = EDGE_CURVE ( 'NONE', #22, #128, #296, .T. ) ;
#161 = EDGE_LOOP ( 'NONE', ( #149, #38, #193, #269 ) ) ;
#162 = EDGE_LOOP ( 'NONE', ( #111, #67, #63, #19 ) ) ;
#163 = AXIS2_PLACEMENT_3D ( 'NONE', #93, #190, #56 ) ;
#164 = CARTESIAN_POINT ( 'NONE',  ( -0.3787010000000002319, 0.000000000000000000, 4.094488000000000127 ) ) ;
#165 = CARTESIAN_POINT ( 'NONE',  ( -0.3787010000000002319, 0.000000000000000000, 4.094488000000000127 ) ) ;
#166 = APPLICATION_CONTEXT ( 'automotive_design' ) ;
#167 =( NAMED_UNIT ( * ) SI_UNIT ( $, .STERADIAN. ) SOLID_ANGLE_UNIT ( ) );
#168 = VECTOR ( 'NONE', #96, 39.37007874015748143 ) ;
#169 = CARTESIAN_POINT ( 'NONE',  ( 0.000000000000000000, 0.000000000000000000, 4.079488000000000447 ) ) ;
#170 = DIRECTION ( 'NONE',  ( -0.7071067811865491270, 0.000000000000000000, -0.7071067811865459074 ) ) ;
#171 = UNCERTAINTY_MEASURE_WITH_UNIT (LENGTH_MEASURE( 1.000000000000000082E-05 ), #248, 'distance_accuracy_value', 'NONE');
#172 = EDGE_CURVE ( 'NONE', #128, #64, #122, .T. ) ;
#173 = AXIS2_PLACEMENT_3D ( 'NONE', #264, #66, #43 ) ;
#174 = ORIENTED_EDGE ( 'NONE', *, *, #188, .F. ) ;
#175 = ORIENTED_EDGE ( 'NONE', *, *, #257, .T. ) ;
#176 = EDGE_CURVE ( 'NONE', #216, #208, #292, .T. ) ;
#177 = EDGE_LOOP ( 'NONE', ( #245, #6 ) ) ;
#178 = COLOUR_RGB ( '',0.7921568627450980005, 0.8196078431372548767, 0.9333333333333333481 ) ;
#179 = DIRECTION ( 'NONE',  ( -1.000000000000000000, 0.000000000000000000, 1.224646799147353207E-16 ) ) ;
#180 = SURFACE_STYLE_FILL_AREA ( #17 ) ;
#181 = DIRECTION ( 'NONE',  ( -1.224646799147353207E-16, -0.000000000000000000, -1.000000000000000000 ) ) ;
#182 = CARTESIAN_POINT ( 'NONE',  ( 0.3933072990000002211, 0.000000000000000000, 1.771654000000000062 ) ) ;
#183 = DIRECTION ( 'NONE',  ( -1.000000000000000000, 0.000000000000000000, 1.224646799147353207E-16 ) ) ;
#184 = VECTOR ( 'NONE', #142, 39.37007874015748143 ) ;
#185 = DIRECTION ( 'NONE',  ( 0.000000000000000000, 0.000000000000000000, -1.000000000000000000 ) ) ;
#186 = EDGE_LOOP ( 'NONE', ( #217, #295 ) ) ;
#187 = PRODUCT ( 'Micro_EMSM-200-4', 'Micro_EMSM-200-4', '', ( #262 ) ) ;
#188 = EDGE_CURVE ( 'NONE', #5, #216, #209, .T. ) ;
#189 = DIRECTION ( 'NONE',  ( -1.000000000000000000, 0.000000000000000000, 0.000000000000000000 ) ) ;
#190 = DIRECTION ( 'NONE',  ( -1.224646799147353207E-16, -0.000000000000000000, -1.000000000000000000 ) ) ;
#191 = DIMENSIONAL_EXPONENTS ( 1.000000000000000000, 0.000000000000000000, 0.000000000000000000, 0.000000000000000000, 0.000000000000000000, 0.000000000000000000, 0.000000000000000000 ) ;
#192 = DIRECTION ( 'NONE',  ( -1.224646799147353207E-16, -0.000000000000000000, -1.000000000000000000 ) ) ;
#193 = ORIENTED_EDGE ( 'NONE', *, *, #52, .F. ) ;
#194 = CARTESIAN_POINT ( 'NONE',  ( 2.172384778595001935E-16, 0.000000000000000000, 1.773886789323665392 ) ) ;
#195 =( NAMED_UNIT ( * ) SI_UNIT ( $, .STERADIAN. ) SOLID_ANGLE_UNIT ( ) );
#196 = EDGE_LOOP ( 'NONE', ( #150, #155, #62, #153 ) ) ;
#197 = EDGE_CURVE ( 'NONE', #128, #22, #104, .T. ) ;
#198 = CONICAL_SURFACE ( 'NONE', #2, 0.3787010000000002319, 0.7853981633974506105 ) ;
#199 = CARTESIAN_POINT ( 'NONE',  ( 0.000000000000000000, 0.000000000000000000, 0.000000000000000000 ) ) ;
#200 = CARTESIAN_POINT ( 'NONE',  ( 0.3937009999999999676, 4.821446694711121291E-17, 4.094488000000000127 ) ) ;
#201 = LINE ( 'NONE', #129, #13 ) ;
#202 = SURFACE_STYLE_USAGE ( .BOTH. , #253 ) ;
#203 = AXIS2_PLACEMENT_3D ( 'NONE', #65, #23, #179 ) ;
#204 = AXIS2_PLACEMENT_3D ( 'NONE', #199, #226, #183 ) ;
#205 = EDGE_CURVE ( 'NONE', #128, #74, #231, .T. ) ;
#206 = ORIENTED_EDGE ( 'NONE', *, *, #176, .T. ) ;
#207 = APPLICATION_PROTOCOL_DEFINITION ( 'draft international standard', 'automotive_design', 1998, #166 ) ;
#208 = VERTEX_POINT ( 'NONE', #215 ) ;
#209 = CIRCLE ( 'NONE', #57, 0.3787010000000002319 ) ;
#210 = DIRECTION ( 'NONE',  ( 1.000000000000000000, 0.000000000000000000, -0.000000000000000000 ) ) ;
#211 = EDGE_CURVE ( 'NONE', #22, #151, #80, .T. ) ;
#212 = DIRECTION ( 'NONE',  ( 1.000000000000000000, 0.000000000000000000, 0.000000000000000000 ) ) ;
#213 = STYLED_ITEM ( 'NONE', ( #88 ), #101 ) ;
#214 = VECTOR ( 'NONE', #170, 39.37007874015748143 ) ;
#215 = CARTESIAN_POINT ( 'NONE',  ( -0.3937009999999999676, 0.000000000000000000, 4.079488000000000447 ) ) ;
#216 = VERTEX_POINT ( 'NONE', #164 ) ;
#217 = ORIENTED_EDGE ( 'NONE', *, *, #15, .T. ) ;
#218 = CONICAL_SURFACE ( 'NONE', #3, 0.3933072989999999991, 0.1745329251994339192 ) ;
#219 = CIRCLE ( 'NONE', #89, 0.3937009999999999676 ) ;
#220 = ADVANCED_FACE ( 'NONE', ( #61 ), #92, .T. ) ;
#221 =( NAMED_UNIT ( * ) SI_UNIT ( $, .STERADIAN. ) SOLID_ANGLE_UNIT ( ) );
#222 = ORIENTED_EDGE ( 'NONE', *, *, #205, .T. ) ;
#223 = ADVANCED_FACE ( 'NONE', ( #78 ), #118, .T. ) ;
#224 = MECHANICAL_DESIGN_GEOMETRIC_PRESENTATION_REPRESENTATION (  '', ( #256 ), #291 ) ;
#225 = CARTESIAN_POINT ( 'NONE',  ( 0.3787010000000002319, 4.729598184775070620E-17, 4.094488000000000127 ) ) ;
#226 = DIRECTION ( 'NONE',  ( -1.224646799147353207E-16, -0.000000000000000000, -1.000000000000000000 ) ) ;
#227 = ORIENTED_EDGE ( 'NONE', *, *, #160, .F. ) ;
#228 = CARTESIAN_POINT ( 'NONE',  ( 0.000000000000000000, 0.000000000000000000, 4.094488000000000127 ) ) ;
#229 = CARTESIAN_POINT ( 'NONE',  ( -0.3933072989999999991, 0.000000000000000000, 9.633250496032820680E-17 ) ) ;
#230 = DIRECTION ( 'NONE',  ( 0.000000000000000000, 0.000000000000000000, -1.000000000000000000 ) ) ;
#231 = LINE ( 'NONE', #76, #126 ) ;
#232 = AXIS2_PLACEMENT_3D ( 'NONE', #106, #284, #73 ) ;
#233 = DIRECTION ( 'NONE',  ( 1.000000000000000000, 0.000000000000000000, -0.000000000000000000 ) ) ;
#234 = AXIS2_PLACEMENT_3D ( 'NONE', #143, #238, #210 ) ;
#235 = DIMENSIONAL_EXPONENTS ( 1.000000000000000000, 0.000000000000000000, 0.000000000000000000, 0.000000000000000000, 0.000000000000000000, 0.000000000000000000, 0.000000000000000000 ) ;
#236 = CARTESIAN_POINT ( 'NONE',  ( 0.3937010000000001897, 4.821446694711123140E-17, 1.773886789323665392 ) ) ;
#237 = DIRECTION ( 'NONE',  ( -1.224646799147353207E-16, -0.000000000000000000, -1.000000000000000000 ) ) ;
#238 = DIRECTION ( 'NONE',  ( 0.000000000000000000, 0.000000000000000000, 1.000000000000000000 ) ) ;
#239 = AXIS2_PLACEMENT_3D ( 'NONE', #26, #91, #72 ) ;
#240 = PRESENTATION_LAYER_ASSIGNMENT (  '', '', ( #256 ) ) ;
#241 = ADVANCED_FACE ( 'NONE', ( #289 ), #130, .T. ) ;
#242 = ORIENTED_EDGE ( 'NONE', *, *, #176, .F. ) ;
#243 = VERTEX_POINT ( 'NONE', #46 ) ;
#244 = CIRCLE ( 'NONE', #290, 0.3937009999999999676 ) ;
#245 = ORIENTED_EDGE ( 'NONE', *, *, #52, .T. ) ;
#246 = ORIENTED_EDGE ( 'NONE', *, *, #15, .F. ) ;
#247 = CYLINDRICAL_SURFACE ( 'NONE', #239, 0.3937009999999999676 ) ;
#248 =( CONVERSION_BASED_UNIT ( 'INCH', #18 ) LENGTH_UNIT ( ) NAMED_UNIT ( #235 ) );
#249 = VECTOR ( 'NONE', #29, 39.37007874015748143 ) ;
#250 = ADVANCED_BREP_SHAPE_REPRESENTATION ( 'Micro_EMSM-200-4', ( #101, #35 ), #41 ) ;
#251 = SURFACE_STYLE_FILL_AREA ( #1 ) ;
#252 = FACE_OUTER_BOUND ( 'NONE', #162, .T. ) ;
#253 = SURFACE_SIDE_STYLE ('',( #251 ) ) ;
#254 = SHAPE_DEFINITION_REPRESENTATION ( #281, #250 ) ;
#255 = DIRECTION ( 'NONE',  ( -1.000000000000000000, 0.000000000000000000, 0.000000000000000000 ) ) ;
#256 = STYLED_ITEM ( 'NONE', ( #276 ), #250 ) ;
#257 = EDGE_CURVE ( 'NONE', #74, #124, #117, .T. ) ;
#258 = ORIENTED_EDGE ( 'NONE', *, *, #278, .T. ) ;
#259 = DIRECTION ( 'NONE',  ( 0.000000000000000000, 0.000000000000000000, 1.000000000000000000 ) ) ;
#260 = CARTESIAN_POINT ( 'NONE',  ( 0.000000000000000000, 0.000000000000000000, 4.094488000000000127 ) ) ;
#261 = DIRECTION ( 'NONE',  ( 0.000000000000000000, 0.000000000000000000, 1.000000000000000000 ) ) ;
#262 = PRODUCT_CONTEXT ( 'NONE', #58, 'mechanical' ) ;
#263 = VECTOR ( 'NONE', #7, 39.37007874015748143 ) ;
#264 = CARTESIAN_POINT ( 'NONE',  ( 2.169650400296604887E-16, 0.000000000000000000, 1.771654000000000062 ) ) ;
#265 = AXIS2_PLACEMENT_3D ( 'NONE', #169, #31, #60 ) ;
#266 = CARTESIAN_POINT ( 'NONE',  ( -0.3933072989999998326, 4.819035971363765199E-17, 1.771654000000000062 ) ) ;
#267 = CARTESIAN_POINT ( 'NONE',  ( 0.3933072989999999991, 4.816625248016410340E-17, -4.816625248016410340E-17 ) ) ;
#268 = EDGE_LOOP ( 'NONE', ( #102, #227, #258, #86 ) ) ;
#269 = ORIENTED_EDGE ( 'NONE', *, *, #172, .F. ) ;
#270 = EDGE_CURVE ( 'NONE', #124, #74, #219, .T. ) ;
#271 = DIRECTION ( 'NONE',  ( 1.000000000000000000, 0.000000000000000000, 0.000000000000000000 ) ) ;
#272 = ORIENTED_EDGE ( 'NONE', *, *, #100, .F. ) ;
#273 = COLOUR_RGB ( '',0.7921568627450980005, 0.8196078431372548767, 0.9333333333333333481 ) ;
#274 = FILL_AREA_STYLE_COLOUR ( '', #273 ) ;
#275 = ADVANCED_FACE ( 'NONE', ( #252 ), #297, .T. ) ;
#276 = PRESENTATION_STYLE_ASSIGNMENT (( #42 ) ) ;
#277 = DIRECTION ( 'NONE',  ( 0.7071067811865491270, 8.659560562354952580E-17, -0.7071067811865459074 ) ) ;
#278 = EDGE_CURVE ( 'NONE', #22, #124, #201, .T. ) ;
#279 = CARTESIAN_POINT ( 'NONE',  ( 2.169650400296604887E-16, 0.000000000000000000, 1.771654000000000062 ) ) ;
#280 = DIRECTION ( 'NONE',  ( 1.224646799147353207E-16, 0.000000000000000000, 1.000000000000000000 ) ) ;
#281 = PRODUCT_DEFINITION_SHAPE ( 'NONE', 'NONE',  #9 ) ;
#282 = FILL_AREA_STYLE_COLOUR ( '', #178 ) ;
#283 = ADVANCED_FACE ( 'NONE', ( #154 ), #103, .T. ) ;
#284 = DIRECTION ( 'NONE',  ( 0.000000000000000000, 0.000000000000000000, 1.000000000000000000 ) ) ;
#285 = AXIS2_PLACEMENT_3D ( 'NONE', #109, #230, #255 ) ;
#286 = DIRECTION ( 'NONE',  ( -1.000000000000000000, 0.000000000000000000, 0.000000000000000000 ) ) ;
#287 = CARTESIAN_POINT ( 'NONE',  ( 0.000000000000000000, 0.000000000000000000, 0.000000000000000000 ) ) ;
#288 = CARTESIAN_POINT ( 'NONE',  ( -0.3937009999999999676, 0.000000000000000000, 4.094488000000000127 ) ) ;
#289 = FACE_OUTER_BOUND ( 'NONE', #298, .T. ) ;
#290 = AXIS2_PLACEMENT_3D ( 'NONE', #47, #112, #69 ) ;
#291 =( GEOMETRIC_REPRESENTATION_CONTEXT ( 3 ) GLOBAL_UNCERTAINTY_ASSIGNED_CONTEXT ( ( #171 ) ) GLOBAL_UNIT_ASSIGNED_CONTEXT ( ( #248, #49, #195 ) ) REPRESENTATION_CONTEXT ( 'NONE', 'WORKASPACE' ) );
#292 = LINE ( 'NONE', #165, #214 ) ;
#293 = DIRECTION ( 'NONE',  ( -0.1736481776669312194, 2.126576849575783625E-17, 0.9848077530122080203 ) ) ;
#294 = ORIENTED_EDGE ( 'NONE', *, *, #115, .F. ) ;
#295 = ORIENTED_EDGE ( 'NONE', *, *, #188, .T. ) ;
#296 = CIRCLE ( 'NONE', #48, 0.3933072989999999991 ) ;
#297 = CYLINDRICAL_SURFACE ( 'NONE', #204, 0.3933072989999999991 ) ;
#298 = EDGE_LOOP ( 'NONE', ( #131, #222, #175, #140 ) ) ;
#299 = ORIENTED_EDGE ( 'NONE', *, *, #44, .F. ) ;
ENDSEC;
END-ISO-10303-21;
