ISO-10303-21;
HEADER;
FILE_DESCRIPTION (( 'STEP AP214' ),
    '1' );
FILE_NAME ('48366.STEP',
    '2023-06-22T21:29:51',
    ( '' ),
    ( '' ),
    'SwSTEP 2.0',
    'SolidWorks 2023',
    '' );
FILE_SCHEMA (( 'AUTOMOTIVE_DESIGN' ));
ENDSEC;

DATA;
#1 = APPLICATION_CONTEXT ( 'automotive_design' ) ;
#2 = CARTESIAN_POINT ( 'NONE',  ( -6.123233995736772199E-17, 3.000000000000000444, 0.000000000000000000 ) ) ;
#3 = CIRCLE ( 'NONE', #250, 0.2500000000000000555 ) ;
#4 = ORIENTED_EDGE ( 'NONE', *, *, #290, .F. ) ;
#5 = SURFACE_STYLE_FILL_AREA ( #81 ) ;
#6 = CARTESIAN_POINT ( 'NONE',  ( 0.000000000000000000, 0.000000000000000000, 0.000000000000000000 ) ) ;
#7 =( CONVERSION_BASED_UNIT ( 'INCH', #197 ) LENGTH_UNIT ( ) NAMED_UNIT ( #49 ) );
#8 = EDGE_CURVE ( 'NONE', #298, #62, #154, .T. ) ;
#9 = FACE_OUTER_BOUND ( 'NONE', #204, .T. ) ;
#10 = PRESENTATION_LAYER_ASSIGNMENT (  '', '', ( #55 ) ) ;
#11 = DIRECTION ( 'NONE',  ( -1.000000000000000000, 0.000000000000000000, 0.000000000000000000 ) ) ;
#12 = MECHANICAL_DESIGN_GEOMETRIC_PRESENTATION_REPRESENTATION (  '', ( #223 ), #20 ) ;
#13 =( LENGTH_UNIT ( ) NAMED_UNIT ( * ) SI_UNIT ( $, .METRE. ) );
#14 = AXIS2_PLACEMENT_3D ( 'NONE', #301, #270, #243 ) ;
#15 = STYLED_ITEM ( 'NONE', ( #129 ), #192 ) ;
#16 = LENGTH_MEASURE_WITH_UNIT ( LENGTH_MEASURE( 0.02539999999999999897 ), #131 );
#17 = CARTESIAN_POINT ( 'NONE',  ( -6.123233995736772199E-17, 3.000000000000000444, 0.000000000000000000 ) ) ;
#18 = CIRCLE ( 'NONE', #229, 0.2500000000000000555 ) ;
#19 =( LENGTH_UNIT ( ) NAMED_UNIT ( * ) SI_UNIT ( $, .METRE. ) );
#20 =( GEOMETRIC_REPRESENTATION_CONTEXT ( 3 ) GLOBAL_UNCERTAINTY_ASSIGNED_CONTEXT ( ( #50 ) ) GLOBAL_UNIT_ASSIGNED_CONTEXT ( ( #302, #45, #120 ) ) REPRESENTATION_CONTEXT ( 'NONE', 'WORKASPACE' ) );
#21 = DIRECTION ( 'NONE',  ( -0.000000000000000000, -1.000000000000000000, -0.000000000000000000 ) ) ;
#22 = DIMENSIONAL_EXPONENTS ( 1.000000000000000000, 0.000000000000000000, 0.000000000000000000, 0.000000000000000000, 0.000000000000000000, 0.000000000000000000, 0.000000000000000000 ) ;
#23 = DIRECTION ( 'NONE',  ( 0.000000000000000000, 0.000000000000000000, -1.000000000000000000 ) ) ;
#24 = LINE ( 'NONE', #96, #134 ) ;
#25 = STYLED_ITEM ( 'NONE', ( #46 ), #141 ) ;
#26 =( GEOMETRIC_REPRESENTATION_CONTEXT ( 3 ) GLOBAL_UNCERTAINTY_ASSIGNED_CONTEXT ( ( #107 ) ) GLOBAL_UNIT_ASSIGNED_CONTEXT ( ( #69, #181, #35 ) ) REPRESENTATION_CONTEXT ( 'NONE', 'WORKASPACE' ) );
#27 = FACE_OUTER_BOUND ( 'NONE', #149, .T. ) ;
#28 = PRODUCT_DEFINITION_CONTEXT ( 'detailed design', #63, 'design' ) ;
#29 = ORIENTED_EDGE ( 'NONE', *, *, #137, .F. ) ;
#30 = PRODUCT_DEFINITION_SHAPE ( 'NONE', 'NONE',  #86 ) ;
#31 = EDGE_LOOP ( 'NONE', ( #167, #306 ) ) ;
#32 =( LENGTH_UNIT ( ) NAMED_UNIT ( * ) SI_UNIT ( $, .METRE. ) );
#33 = FACE_OUTER_BOUND ( 'NONE', #105, .T. ) ;
#34 = LENGTH_MEASURE_WITH_UNIT ( LENGTH_MEASURE( 0.02539999999999999897 ), #153 );
#35 =( NAMED_UNIT ( * ) SI_UNIT ( $, .STERADIAN. ) SOLID_ANGLE_UNIT ( ) );
#36 = CARTESIAN_POINT ( 'NONE',  ( -6.123233995736772199E-17, 3.000000000000000444, 0.000000000000000000 ) ) ;
#37 = VECTOR ( 'NONE', #300, 39.37007874015748143 ) ;
#38 = SURFACE_STYLE_FILL_AREA ( #108 ) ;
#39 = EDGE_CURVE ( 'NONE', #169, #191, #242, .T. ) ;
#40 = CLOSED_SHELL ( 'NONE', ( #219, #230, #152, #51 ) ) ;
#41 = AXIS2_PLACEMENT_3D ( 'NONE', #2, #168, #11 ) ;
#42 = DIRECTION ( 'NONE',  ( 0.000000000000000000, 0.000000000000000000, -1.000000000000000000 ) ) ;
#43 = COLOUR_RGB ( '',1.000000000000000000, 0.000000000000000000, 0.000000000000000000 ) ;
#44 = LINE ( 'NONE', #68, #37 ) ;
#45 =( NAMED_UNIT ( * ) PLANE_ANGLE_UNIT ( ) SI_UNIT ( $, .RADIAN. ) );
#46 = PRESENTATION_STYLE_ASSIGNMENT (( #252 ) ) ;
#47 = FILL_AREA_STYLE_COLOUR ( '', #43 ) ;
#48 = VECTOR ( 'NONE', #57, 39.37007874015748143 ) ;
#49 = DIMENSIONAL_EXPONENTS ( 1.000000000000000000, 0.000000000000000000, 0.000000000000000000, 0.000000000000000000, 0.000000000000000000, 0.000000000000000000, 0.000000000000000000 ) ;
#50 = UNCERTAINTY_MEASURE_WITH_UNIT (LENGTH_MEASURE( 1.000000000000000082E-05 ), #302, 'distance_accuracy_value', 'NONE');
#51 = ADVANCED_FACE ( 'NONE', ( #177 ), #220, .F. ) ;
#52 = DIRECTION ( 'NONE',  ( -3.061616997868386099E-17, 1.000000000000000000, -0.000000000000000000 ) ) ;
#53 =( CONVERSION_BASED_UNIT ( 'INCH', #77 ) LENGTH_UNIT ( ) NAMED_UNIT ( #140 ) );
#54 = SURFACE_STYLE_USAGE ( .BOTH. , #308 ) ;
#55 = STYLED_ITEM ( 'NONE', ( #200 ), #101 ) ;
#56 = VERTEX_POINT ( 'NONE', #247 ) ;
#57 = DIRECTION ( 'NONE',  ( -3.061616997868386099E-17, 1.000000000000000000, -0.000000000000000000 ) ) ;
#58 = ORIENTED_EDGE ( 'NONE', *, *, #106, .T. ) ;
#59 = CYLINDRICAL_SURFACE ( 'NONE', #216, 0.2500000000000000000 ) ;
#60 = COLOUR_RGB ( '',1.000000000000000000, 0.000000000000000000, 0.000000000000000000 ) ;
#61 = MECHANICAL_DESIGN_GEOMETRIC_PRESENTATION_REPRESENTATION (  '', ( #25 ), #117 ) ;
#62 = VERTEX_POINT ( 'NONE', #179 ) ;
#63 = APPLICATION_CONTEXT ( 'automotive_design' ) ;
#64 = FILL_AREA_STYLE_COLOUR ( '', #255 ) ;
#65 = DIRECTION ( 'NONE',  ( -3.061616997868386099E-17, 1.000000000000000000, -0.000000000000000000 ) ) ;
#66 = STYLED_ITEM ( 'NONE', ( #291 ), #123 ) ;
#67 =( NAMED_UNIT ( * ) PLANE_ANGLE_UNIT ( ) SI_UNIT ( $, .RADIAN. ) );
#68 = CARTESIAN_POINT ( 'NONE',  ( 3.061616997868383018E-17, 0.000000000000000000, 0.2500000000000000000 ) ) ;
#69 =( CONVERSION_BASED_UNIT ( 'INCH', #16 ) LENGTH_UNIT ( ) NAMED_UNIT ( #211 ) );
#70 = MECHANICAL_DESIGN_GEOMETRIC_PRESENTATION_REPRESENTATION (  '', ( #55 ), #221 ) ;
#71 = PLANE ( 'NONE',  #79 ) ;
#72 = ORIENTED_EDGE ( 'NONE', *, *, #278, .F. ) ;
#73 = DIRECTION ( 'NONE',  ( -0.000000000000000000, -1.000000000000000000, -0.000000000000000000 ) ) ;
#74 = CARTESIAN_POINT ( 'NONE',  ( 0.000000000000000000, 0.000000000000000000, 0.000000000000000000 ) ) ;
#75 = FILL_AREA_STYLE_COLOUR ( '', #94 ) ;
#76 = SURFACE_STYLE_FILL_AREA ( #284 ) ;
#77 = LENGTH_MEASURE_WITH_UNIT ( LENGTH_MEASURE( 0.02539999999999999897 ), #260 );
#78 = EDGE_LOOP ( 'NONE', ( #196, #187, #151, #128 ) ) ;
#79 = AXIS2_PLACEMENT_3D ( 'NONE', #207, #143, #253 ) ;
#80 = ORIENTED_EDGE ( 'NONE', *, *, #39, .F. ) ;
#81 = FILL_AREA_STYLE ('',( #287 ) ) ;
#82 = EDGE_LOOP ( 'NONE', ( #72, #262, #133, #165 ) ) ;
#83 = CYLINDRICAL_SURFACE ( 'NONE', #41, 0.2500000000000000555 ) ;
#84 = CARTESIAN_POINT ( 'NONE',  ( -6.123233995736772199E-17, 3.000000000000000444, 0.000000000000000000 ) ) ;
#85 =( GEOMETRIC_REPRESENTATION_CONTEXT ( 3 ) GLOBAL_UNCERTAINTY_ASSIGNED_CONTEXT ( ( #267 ) ) GLOBAL_UNIT_ASSIGNED_CONTEXT ( ( #53, #309, #189 ) ) REPRESENTATION_CONTEXT ( 'NONE', 'WORKASPACE' ) );
#86 = PRODUCT_DEFINITION ( 'UNKNOWN', '', #98, #28 ) ;
#87 = SURFACE_SIDE_STYLE ('',( #38 ) ) ;
#88 = SURFACE_STYLE_USAGE ( .BOTH. , #268 ) ;
#89 = DIRECTION ( 'NONE',  ( -1.000000000000000000, 0.000000000000000000, 0.000000000000000000 ) ) ;
#90 = AXIS2_PLACEMENT_3D ( 'NONE', #17, #113, #202 ) ;
#91 = CARTESIAN_POINT ( 'NONE',  ( 0.000000000000000000, 0.000000000000000000, 0.000000000000000000 ) ) ;
#92 = SHAPE_DEFINITION_REPRESENTATION ( #30, #93 ) ;
#93 = ADVANCED_BREP_SHAPE_REPRESENTATION ( '48366', ( #126, #123, #251 ), #26 ) ;
#94 = COLOUR_RGB ( '',0.7921568627450980005, 0.8196078431372548767, 0.9333333333333333481 ) ;
#95 = DIRECTION ( 'NONE',  ( 0.000000000000000000, -0.000000000000000000, 1.000000000000000000 ) ) ;
#96 = CARTESIAN_POINT ( 'NONE',  ( 0.000000000000000000, 0.000000000000000000, -0.2500000000000000000 ) ) ;
#97 = AXIS2_PLACEMENT_3D ( 'NONE', #231, #297, #95 ) ;
#98 = PRODUCT_DEFINITION_FORMATION_WITH_SPECIFIED_SOURCE ( 'ANY', '', #235, .NOT_KNOWN. ) ;
#99 = ORIENTED_EDGE ( 'NONE', *, *, #226, .F. ) ;
#100 = CARTESIAN_POINT ( 'NONE',  ( 0.000000000000000000, 1.000000000000000000, 0.000000000000000000 ) ) ;
#101 = ADVANCED_FACE ( 'NONE', ( #9 ), #139, .T. ) ;
#102 = SURFACE_STYLE_FILL_AREA ( #164 ) ;
#103 = CARTESIAN_POINT ( 'NONE',  ( 3.061616997868383634E-17, 1.000000000000000000, 0.2500000000000000555 ) ) ;
#104 = PRESENTATION_LAYER_ASSIGNMENT (  '', '', ( #15 ) ) ;
#105 = EDGE_LOOP ( 'NONE', ( #241, #121, #148, #264 ) ) ;
#106 = EDGE_CURVE ( 'NONE', #56, #215, #305, .T. ) ;
#107 = UNCERTAINTY_MEASURE_WITH_UNIT (LENGTH_MEASURE( 1.000000000000000082E-05 ), #69, 'distance_accuracy_value', 'NONE');
#108 = FILL_AREA_STYLE ('',( #225 ) ) ;
#109 = DIRECTION ( 'NONE',  ( 0.000000000000000000, 0.000000000000000000, -1.000000000000000000 ) ) ;
#110 = SURFACE_STYLE_FILL_AREA ( #277 ) ;
#111 = CARTESIAN_POINT ( 'NONE',  ( 7.582401355855259480E-33, 1.000000000000000000, 0.000000000000000000 ) ) ;
#112 = APPLICATION_PROTOCOL_DEFINITION ( 'draft international standard', 'automotive_design', 1998, #63 ) ;
#113 = DIRECTION ( 'NONE',  ( -3.061616997868386099E-17, 1.000000000000000000, -0.000000000000000000 ) ) ;
#114 = AXIS2_PLACEMENT_3D ( 'NONE', #111, #65, #89 ) ;
#115 = PRESENTATION_LAYER_ASSIGNMENT (  '', '', ( #66 ) ) ;
#116 = DIRECTION ( 'NONE',  ( -0.000000000000000000, -1.000000000000000000, -0.000000000000000000 ) ) ;
#117 =( GEOMETRIC_REPRESENTATION_CONTEXT ( 3 ) GLOBAL_UNCERTAINTY_ASSIGNED_CONTEXT ( ( #258 ) ) GLOBAL_UNIT_ASSIGNED_CONTEXT ( ( #303, #146, #256 ) ) REPRESENTATION_CONTEXT ( 'NONE', 'WORKASPACE' ) );
#118 = CYLINDRICAL_SURFACE ( 'NONE', #281, 0.2500000000000000000 ) ;
#119 = LENGTH_MEASURE_WITH_UNIT ( LENGTH_MEASURE( 0.02539999999999999897 ), #19 );
#120 =( NAMED_UNIT ( * ) SI_UNIT ( $, .STERADIAN. ) SOLID_ANGLE_UNIT ( ) );
#121 = ORIENTED_EDGE ( 'NONE', *, *, #226, .T. ) ;
#122 = COLOUR_RGB ( '',1.000000000000000000, 0.000000000000000000, 0.000000000000000000 ) ;
#123 = MANIFOLD_SOLID_BREP ( 'Revolve - Tool Body (Straight Shanked)', #40 ) ;
#124 = ORIENTED_EDGE ( 'NONE', *, *, #157, .F. ) ;
#125 =( CONVERSION_BASED_UNIT ( 'INCH', #34 ) LENGTH_UNIT ( ) NAMED_UNIT ( #285 ) );
#126 = MANIFOLD_SOLID_BREP ( 'Revolve - Cutting Edge', #205 ) ;
#127 = ORIENTED_EDGE ( 'NONE', *, *, #290, .T. ) ;
#128 = ORIENTED_EDGE ( 'NONE', *, *, #171, .F. ) ;
#129 = PRESENTATION_STYLE_ASSIGNMENT (( #240 ) ) ;
#130 = VERTEX_POINT ( 'NONE', #183 ) ;
#131 =( LENGTH_UNIT ( ) NAMED_UNIT ( * ) SI_UNIT ( $, .METRE. ) );
#132 =( NAMED_UNIT ( * ) PLANE_ANGLE_UNIT ( ) SI_UNIT ( $, .RADIAN. ) );
#133 = ORIENTED_EDGE ( 'NONE', *, *, #171, .T. ) ;
#134 = VECTOR ( 'NONE', #21, 39.37007874015748143 ) ;
#135 = CYLINDRICAL_SURFACE ( 'NONE', #90, 0.2500000000000000555 ) ;
#136 = CIRCLE ( 'NONE', #245, 0.2500000000000000000 ) ;
#137 = EDGE_CURVE ( 'NONE', #130, #173, #18, .T. ) ;
#138 = DIMENSIONAL_EXPONENTS ( 1.000000000000000000, 0.000000000000000000, 0.000000000000000000, 0.000000000000000000, 0.000000000000000000, 0.000000000000000000, 0.000000000000000000 ) ;
#139 = PLANE ( 'NONE',  #97 ) ;
#140 = DIMENSIONAL_EXPONENTS ( 1.000000000000000000, 0.000000000000000000, 0.000000000000000000, 0.000000000000000000, 0.000000000000000000, 0.000000000000000000, 0.000000000000000000 ) ;
#141 = ADVANCED_FACE ( 'NONE', ( #27 ), #118, .T. ) ;
#142 =( GEOMETRIC_REPRESENTATION_CONTEXT ( 3 ) GLOBAL_UNCERTAINTY_ASSIGNED_CONTEXT ( ( #288 ) ) GLOBAL_UNIT_ASSIGNED_CONTEXT ( ( #125, #166, #286 ) ) REPRESENTATION_CONTEXT ( 'NONE', 'WORKASPACE' ) );
#143 = DIRECTION ( 'NONE',  ( -3.061616997868386099E-17, 1.000000000000000000, 0.000000000000000000 ) ) ;
#144 = CIRCLE ( 'NONE', #275, 0.2500000000000000555 ) ;
#145 = FILL_AREA_STYLE_COLOUR ( '', #209 ) ;
#146 =( NAMED_UNIT ( * ) PLANE_ANGLE_UNIT ( ) SI_UNIT ( $, .RADIAN. ) );
#147 = PRESENTATION_STYLE_ASSIGNMENT (( #54 ) ) ;
#148 = ORIENTED_EDGE ( 'NONE', *, *, #106, .F. ) ;
#149 = EDGE_LOOP ( 'NONE', ( #99, #127, #239, #155 ) ) ;
#150 = CIRCLE ( 'NONE', #193, 0.2500000000000001110 ) ;
#151 = ORIENTED_EDGE ( 'NONE', *, *, #8, .F. ) ;
#152 = ADVANCED_FACE ( 'NONE', ( #279 ), #83, .T. ) ;
#153 =( LENGTH_UNIT ( ) NAMED_UNIT ( * ) SI_UNIT ( $, .METRE. ) );
#154 = CIRCLE ( 'NONE', #292, 0.2500000000000001110 ) ;
#155 = ORIENTED_EDGE ( 'NONE', *, *, #269, .F. ) ;
#156 =( NAMED_UNIT ( * ) SI_UNIT ( $, .STERADIAN. ) SOLID_ANGLE_UNIT ( ) );
#157 = EDGE_CURVE ( 'NONE', #191, #169, #3, .T. ) ;
#158 = STYLED_ITEM ( 'NONE', ( #147 ), #126 ) ;
#159 = DIRECTION ( 'NONE',  ( -0.000000000000000000, -1.000000000000000000, -0.000000000000000000 ) ) ;
#160 = PRESENTATION_LAYER_ASSIGNMENT (  '', '', ( #25 ) ) ;
#161 = SURFACE_STYLE_USAGE ( .BOTH. , #232 ) ;
#162 = AXIS2_PLACEMENT_3D ( 'NONE', #74, #304, #185 ) ;
#163 = CARTESIAN_POINT ( 'NONE',  ( 0.000000000000000000, 0.000000000000000000, 0.000000000000000000 ) ) ;
#164 = FILL_AREA_STYLE ('',( #145 ) ) ;
#165 = ORIENTED_EDGE ( 'NONE', *, *, #182, .F. ) ;
#166 =( NAMED_UNIT ( * ) PLANE_ANGLE_UNIT ( ) SI_UNIT ( $, .RADIAN. ) );
#167 = ORIENTED_EDGE ( 'NONE', *, *, #8, .T. ) ;
#168 = DIRECTION ( 'NONE',  ( -3.061616997868386099E-17, 1.000000000000000000, -0.000000000000000000 ) ) ;
#169 = VERTEX_POINT ( 'NONE', #289 ) ;
#170 = SURFACE_SIDE_STYLE ('',( #5 ) ) ;
#171 = EDGE_CURVE ( 'NONE', #191, #298, #263, .T. ) ;
#172 = DIRECTION ( 'NONE',  ( -3.061616997868386099E-17, 1.000000000000000000, -0.000000000000000000 ) ) ;
#173 = VERTEX_POINT ( 'NONE', #103 ) ;
#174 = MECHANICAL_DESIGN_GEOMETRIC_PRESENTATION_REPRESENTATION (  '', ( #158 ), #85 ) ;
#175 = DIRECTION ( 'NONE',  ( -3.061616997868386099E-17, 1.000000000000000000, -0.000000000000000000 ) ) ;
#176 = CARTESIAN_POINT ( 'NONE',  ( 7.582401355855259480E-33, 1.000000000000000000, 0.000000000000000000 ) ) ;
#177 = FACE_OUTER_BOUND ( 'NONE', #31, .T. ) ;
#178 = MECHANICAL_DESIGN_GEOMETRIC_PRESENTATION_REPRESENTATION (  '', ( #66 ), #142 ) ;
#179 = CARTESIAN_POINT ( 'NONE',  ( 0.2500000000000000555, 3.000000000000000444, 3.061616997868384251E-17 ) ) ;
#180 = DIRECTION ( 'NONE',  ( 1.000000000000000000, 0.000000000000000000, 0.000000000000000000 ) ) ;
#181 =( NAMED_UNIT ( * ) PLANE_ANGLE_UNIT ( ) SI_UNIT ( $, .RADIAN. ) );
#182 = EDGE_CURVE ( 'NONE', #62, #298, #150, .T. ) ;
#183 = CARTESIAN_POINT ( 'NONE',  ( 0.000000000000000000, 1.000000000000000000, -0.2500000000000000555 ) ) ;
#184 = CARTESIAN_POINT ( 'NONE',  ( 0.000000000000000000, 0.000000000000000000, 0.000000000000000000 ) ) ;
#185 = DIRECTION ( 'NONE',  ( 0.000000000000000000, 0.000000000000000000, -1.000000000000000000 ) ) ;
#186 = DIMENSIONAL_EXPONENTS ( 1.000000000000000000, 0.000000000000000000, 0.000000000000000000, 0.000000000000000000, 0.000000000000000000, 0.000000000000000000, 0.000000000000000000 ) ;
#187 = ORIENTED_EDGE ( 'NONE', *, *, #278, .T. ) ;
#188 = DIRECTION ( 'NONE',  ( 0.000000000000000000, 0.000000000000000000, -1.000000000000000000 ) ) ;
#189 =( NAMED_UNIT ( * ) SI_UNIT ( $, .STERADIAN. ) SOLID_ANGLE_UNIT ( ) );
#190 = SURFACE_SIDE_STYLE ('',( #102 ) ) ;
#191 = VERTEX_POINT ( 'NONE', #194 ) ;
#192 = ADVANCED_FACE ( 'NONE', ( #33 ), #59, .T. ) ;
#193 = AXIS2_PLACEMENT_3D ( 'NONE', #84, #172, #265 ) ;
#194 = CARTESIAN_POINT ( 'NONE',  ( -0.2500000000000000555, 1.000000000000000000, 0.000000000000000000 ) ) ;
#195 = PRESENTATION_LAYER_ASSIGNMENT (  '', '', ( #223 ) ) ;
#196 = ORIENTED_EDGE ( 'NONE', *, *, #157, .T. ) ;
#197 = LENGTH_MEASURE_WITH_UNIT ( LENGTH_MEASURE( 0.02539999999999999897 ), #32 );
#198 = SURFACE_STYLE_USAGE ( .BOTH. , #87 ) ;
#199 = APPLICATION_PROTOCOL_DEFINITION ( 'draft international standard', 'automotive_design', 1998, #1 ) ;
#200 = PRESENTATION_STYLE_ASSIGNMENT (( #198 ) ) ;
#201 = UNCERTAINTY_MEASURE_WITH_UNIT (LENGTH_MEASURE( 1.000000000000000082E-05 ), #272, 'distance_accuracy_value', 'NONE');
#202 = DIRECTION ( 'NONE',  ( -1.000000000000000000, 0.000000000000000000, 0.000000000000000000 ) ) ;
#203 = FACE_OUTER_BOUND ( 'NONE', #210, .T. ) ;
#204 = EDGE_LOOP ( 'NONE', ( #29, #4 ) ) ;
#205 = CLOSED_SHELL ( 'NONE', ( #192, #101, #141, #295 ) ) ;
#206 = FILL_AREA_STYLE ('',( #75 ) ) ;
#207 = CARTESIAN_POINT ( 'NONE',  ( 1.171687330204578822E-34, 1.000000000000000000, 0.000000000000000000 ) ) ;
#208 = DIRECTION ( 'NONE',  ( -0.000000000000000000, -1.000000000000000000, -0.000000000000000000 ) ) ;
#209 = COLOUR_RGB ( '',1.000000000000000000, 0.000000000000000000, 0.000000000000000000 ) ;
#210 = EDGE_LOOP ( 'NONE', ( #58, #294 ) ) ;
#211 = DIMENSIONAL_EXPONENTS ( 1.000000000000000000, 0.000000000000000000, 0.000000000000000000, 0.000000000000000000, 0.000000000000000000, 0.000000000000000000, 0.000000000000000000 ) ;
#212 = EDGE_LOOP ( 'NONE', ( #124, #80 ) ) ;
#213 = DIRECTION ( 'NONE',  ( 0.000000000000000000, 0.000000000000000000, -1.000000000000000000 ) ) ;
#214 = PRODUCT_RELATED_PRODUCT_CATEGORY ( 'part', '', ( #235 ) ) ;
#215 = VERTEX_POINT ( 'NONE', #224 ) ;
#216 = AXIS2_PLACEMENT_3D ( 'NONE', #228, #246, #42 ) ;
#217 = DIRECTION ( 'NONE',  ( -1.000000000000000000, 0.000000000000000000, 0.000000000000000000 ) ) ;
#218 = CARTESIAN_POINT ( 'NONE',  ( -0.2500000000000001110, 3.000000000000000444, 0.000000000000000000 ) ) ;
#219 = ADVANCED_FACE ( 'NONE', ( #249 ), #135, .T. ) ;
#220 = PLANE ( 'NONE',  #14 ) ;
#221 =( GEOMETRIC_REPRESENTATION_CONTEXT ( 3 ) GLOBAL_UNCERTAINTY_ASSIGNED_CONTEXT ( ( #201 ) ) GLOBAL_UNIT_ASSIGNED_CONTEXT ( ( #272, #67, #156 ) ) REPRESENTATION_CONTEXT ( 'NONE', 'WORKASPACE' ) );
#222 = LENGTH_MEASURE_WITH_UNIT ( LENGTH_MEASURE( 0.02539999999999999897 ), #13 );
#223 = STYLED_ITEM ( 'NONE', ( #259 ), #295 ) ;
#224 = CARTESIAN_POINT ( 'NONE',  ( 3.061616997868383018E-17, 0.000000000000000000, 0.2500000000000000000 ) ) ;
#225 = FILL_AREA_STYLE_COLOUR ( '', #60 ) ;
#226 = EDGE_CURVE ( 'NONE', #173, #215, #44, .T. ) ;
#227 = PRODUCT_CONTEXT ( 'NONE', #1, 'mechanical' ) ;
#228 = CARTESIAN_POINT ( 'NONE',  ( 0.000000000000000000, 0.000000000000000000, 0.000000000000000000 ) ) ;
#229 = AXIS2_PLACEMENT_3D ( 'NONE', #254, #208, #213 ) ;
#230 = ADVANCED_FACE ( 'NONE', ( #274 ), #71, .F. ) ;
#231 = CARTESIAN_POINT ( 'NONE',  ( 0.000000000000000000, 1.000000000000000000, 0.000000000000000000 ) ) ;
#232 = SURFACE_SIDE_STYLE ('',( #76 ) ) ;
#233 = PLANE ( 'NONE',  #162 ) ;
#234 = DIRECTION ( 'NONE',  ( -0.000000000000000000, -1.000000000000000000, -0.000000000000000000 ) ) ;
#235 = PRODUCT ( '48366', '48366', '', ( #227 ) ) ;
#236 =( LENGTH_UNIT ( ) NAMED_UNIT ( * ) SI_UNIT ( $, .METRE. ) );
#237 = EDGE_CURVE ( 'NONE', #130, #56, #24, .T. ) ;
#238 = VECTOR ( 'NONE', #52, 39.37007874015748143 ) ;
#239 = ORIENTED_EDGE ( 'NONE', *, *, #237, .T. ) ;
#240 = SURFACE_STYLE_USAGE ( .BOTH. , #170 ) ;
#241 = ORIENTED_EDGE ( 'NONE', *, *, #137, .T. ) ;
#242 = CIRCLE ( 'NONE', #114, 0.2500000000000000555 ) ;
#243 = DIRECTION ( 'NONE',  ( 1.000000000000000000, 3.061616997868386099E-17, 0.000000000000000000 ) ) ;
#244 = DIRECTION ( 'NONE',  ( -3.061616997868386099E-17, 1.000000000000000000, -0.000000000000000000 ) ) ;
#245 = AXIS2_PLACEMENT_3D ( 'NONE', #163, #159, #307 ) ;
#246 = DIRECTION ( 'NONE',  ( -0.000000000000000000, -1.000000000000000000, -0.000000000000000000 ) ) ;
#247 = CARTESIAN_POINT ( 'NONE',  ( 0.000000000000000000, 0.000000000000000000, -0.2500000000000000000 ) ) ;
#248 = DIRECTION ( 'NONE',  ( 0.000000000000000000, 0.000000000000000000, 1.000000000000000000 ) ) ;
#249 = FACE_OUTER_BOUND ( 'NONE', #78, .T. ) ;
#250 = AXIS2_PLACEMENT_3D ( 'NONE', #176, #244, #266 ) ;
#251 = AXIS2_PLACEMENT_3D ( 'NONE', #91, #248, #180 ) ;
#252 = SURFACE_STYLE_USAGE ( .BOTH. , #190 ) ;
#253 = DIRECTION ( 'NONE',  ( -1.000000000000000000, -3.061616997868386099E-17, 0.000000000000000000 ) ) ;
#254 = CARTESIAN_POINT ( 'NONE',  ( 0.000000000000000000, 1.000000000000000000, 0.000000000000000000 ) ) ;
#255 = COLOUR_RGB ( '',0.7921568627450980005, 0.8196078431372548767, 0.9333333333333333481 ) ;
#256 =( NAMED_UNIT ( * ) SI_UNIT ( $, .STERADIAN. ) SOLID_ANGLE_UNIT ( ) );
#257 = LINE ( 'NONE', #280, #238 ) ;
#258 = UNCERTAINTY_MEASURE_WITH_UNIT (LENGTH_MEASURE( 1.000000000000000082E-05 ), #303, 'distance_accuracy_value', 'NONE');
#259 = PRESENTATION_STYLE_ASSIGNMENT (( #161 ) ) ;
#260 =( LENGTH_UNIT ( ) NAMED_UNIT ( * ) SI_UNIT ( $, .METRE. ) );
#261 =( GEOMETRIC_REPRESENTATION_CONTEXT ( 3 ) GLOBAL_UNCERTAINTY_ASSIGNED_CONTEXT ( ( #296 ) ) GLOBAL_UNIT_ASSIGNED_CONTEXT ( ( #7, #132, #273 ) ) REPRESENTATION_CONTEXT ( 'NONE', 'WORKASPACE' ) );
#262 = ORIENTED_EDGE ( 'NONE', *, *, #39, .T. ) ;
#263 = LINE ( 'NONE', #218, #48 ) ;
#264 = ORIENTED_EDGE ( 'NONE', *, *, #237, .F. ) ;
#265 = DIRECTION ( 'NONE',  ( -1.000000000000000000, 0.000000000000000000, 0.000000000000000000 ) ) ;
#266 = DIRECTION ( 'NONE',  ( -1.000000000000000000, 0.000000000000000000, 0.000000000000000000 ) ) ;
#267 = UNCERTAINTY_MEASURE_WITH_UNIT (LENGTH_MEASURE( 1.000000000000000082E-05 ), #53, 'distance_accuracy_value', 'NONE');
#268 = SURFACE_SIDE_STYLE ('',( #110 ) ) ;
#269 = EDGE_CURVE ( 'NONE', #215, #56, #136, .T. ) ;
#270 = DIRECTION ( 'NONE',  ( 3.061616997868386099E-17, -1.000000000000000000, 0.000000000000000000 ) ) ;
#271 = MECHANICAL_DESIGN_GEOMETRIC_PRESENTATION_REPRESENTATION (  '', ( #15 ), #261 ) ;
#272 =( CONVERSION_BASED_UNIT ( 'INCH', #222 ) LENGTH_UNIT ( ) NAMED_UNIT ( #138 ) );
#273 =( NAMED_UNIT ( * ) SI_UNIT ( $, .STERADIAN. ) SOLID_ANGLE_UNIT ( ) );
#274 = FACE_OUTER_BOUND ( 'NONE', #212, .T. ) ;
#275 = AXIS2_PLACEMENT_3D ( 'NONE', #100, #73, #188 ) ;
#276 = LENGTH_MEASURE_WITH_UNIT ( LENGTH_MEASURE( 0.02539999999999999897 ), #236 );
#277 = FILL_AREA_STYLE ('',( #64 ) ) ;
#278 = EDGE_CURVE ( 'NONE', #169, #62, #257, .T. ) ;
#279 = FACE_OUTER_BOUND ( 'NONE', #82, .T. ) ;
#280 = CARTESIAN_POINT ( 'NONE',  ( 0.2500000000000000000, 3.000000000000000444, 3.061616997868383634E-17 ) ) ;
#281 = AXIS2_PLACEMENT_3D ( 'NONE', #184, #234, #23 ) ;
#282 = CARTESIAN_POINT ( 'NONE',  ( -0.2500000000000001665, 3.000000000000000444, 0.000000000000000000 ) ) ;
#283 = SURFACE_STYLE_FILL_AREA ( #206 ) ;
#284 = FILL_AREA_STYLE ('',( #47 ) ) ;
#285 = DIMENSIONAL_EXPONENTS ( 1.000000000000000000, 0.000000000000000000, 0.000000000000000000, 0.000000000000000000, 0.000000000000000000, 0.000000000000000000, 0.000000000000000000 ) ;
#286 =( NAMED_UNIT ( * ) SI_UNIT ( $, .STERADIAN. ) SOLID_ANGLE_UNIT ( ) );
#287 = FILL_AREA_STYLE_COLOUR ( '', #122 ) ;
#288 = UNCERTAINTY_MEASURE_WITH_UNIT (LENGTH_MEASURE( 1.000000000000000082E-05 ), #125, 'distance_accuracy_value', 'NONE');
#289 = CARTESIAN_POINT ( 'NONE',  ( 0.2500000000000000555, 1.000000000000000000, 3.061616997868384251E-17 ) ) ;
#290 = EDGE_CURVE ( 'NONE', #173, #130, #144, .T. ) ;
#291 = PRESENTATION_STYLE_ASSIGNMENT (( #88 ) ) ;
#292 = AXIS2_PLACEMENT_3D ( 'NONE', #36, #175, #217 ) ;
#293 = PRESENTATION_LAYER_ASSIGNMENT (  '', '', ( #158 ) ) ;
#294 = ORIENTED_EDGE ( 'NONE', *, *, #269, .T. ) ;
#295 = ADVANCED_FACE ( 'NONE', ( #203 ), #233, .T. ) ;
#296 = UNCERTAINTY_MEASURE_WITH_UNIT (LENGTH_MEASURE( 1.000000000000000082E-05 ), #7, 'distance_accuracy_value', 'NONE');
#297 = DIRECTION ( 'NONE',  ( 0.000000000000000000, 1.000000000000000000, 0.000000000000000000 ) ) ;
#298 = VERTEX_POINT ( 'NONE', #282 ) ;
#299 = AXIS2_PLACEMENT_3D ( 'NONE', #6, #116, #109 ) ;
#300 = DIRECTION ( 'NONE',  ( -0.000000000000000000, -1.000000000000000000, -0.000000000000000000 ) ) ;
#301 = CARTESIAN_POINT ( 'NONE',  ( 0.2500000000000000555, 3.000000000000000444, 0.000000000000000000 ) ) ;
#302 =( CONVERSION_BASED_UNIT ( 'INCH', #276 ) LENGTH_UNIT ( ) NAMED_UNIT ( #186 ) );
#303 =( CONVERSION_BASED_UNIT ( 'INCH', #119 ) LENGTH_UNIT ( ) NAMED_UNIT ( #22 ) );
#304 = DIRECTION ( 'NONE',  ( 0.000000000000000000, -1.000000000000000000, -0.000000000000000000 ) ) ;
#305 = CIRCLE ( 'NONE', #299, 0.2500000000000000000 ) ;
#306 = ORIENTED_EDGE ( 'NONE', *, *, #182, .T. ) ;
#307 = DIRECTION ( 'NONE',  ( 0.000000000000000000, 0.000000000000000000, -1.000000000000000000 ) ) ;
#308 = SURFACE_SIDE_STYLE ('',( #283 ) ) ;
#309 =( NAMED_UNIT ( * ) PLANE_ANGLE_UNIT ( ) SI_UNIT ( $, .RADIAN. ) );
ENDSEC;
END-ISO-10303-21;
