ISO-10303-21;
HEADER;
FILE_DESCRIPTION (( 'STEP AP214' ),
    '1' );
FILE_NAME ('82390.STEP',
    '2023-06-23T05:29:39',
    ( '' ),
    ( '' ),
    'SwSTEP 2.0',
    'SolidWorks 2023',
    '' );
FILE_SCHEMA (( 'AUTOMOTIVE_DESIGN' ));
ENDSEC;

DATA;
#1 = EDGE_LOOP ( 'NONE', ( #85, #233 ) ) ;
#2 = VECTOR ( 'NONE', #234, 39.37007874015748143 ) ;
#3 = CARTESIAN_POINT ( 'NONE',  ( 7.654042494670959086E-18, 0.6250000000000000000, 0.06250000000000001388 ) ) ;
#4 = DIMENSIONAL_EXPONENTS ( 1.000000000000000000, 0.000000000000000000, 0.000000000000000000, 0.000000000000000000, 0.000000000000000000, 0.000000000000000000, 0.000000000000000000 ) ;
#5 = APPLICATION_PROTOCOL_DEFINITION ( 'draft international standard', 'automotive_design', 1998, #190 ) ;
#6 = STYLED_ITEM ( 'NONE', ( #304 ), #49 ) ;
#7 = EDGE_CURVE ( 'NONE', #193, #161, #198, .T. ) ;
#8 = DIRECTION ( 'NONE',  ( -1.000000000000000000, 0.000000000000000000, 0.000000000000000000 ) ) ;
#9 = LINE ( 'NONE', #137, #216 ) ;
#10 = CARTESIAN_POINT ( 'NONE',  ( 0.000000000000000000, 0.000000000000000000, 0.000000000000000000 ) ) ;
#11 = SURFACE_STYLE_FILL_AREA ( #302 ) ;
#12 = DIRECTION ( 'NONE',  ( 0.000000000000000000, 0.000000000000000000, -1.000000000000000000 ) ) ;
#13 = EDGE_LOOP ( 'NONE', ( #110, #128, #69, #21 ) ) ;
#14 = CIRCLE ( 'NONE', #177, 0.06250000000000001388 ) ;
#15 = DIRECTION ( 'NONE',  ( -0.000000000000000000, -1.000000000000000000, -0.000000000000000000 ) ) ;
#16 = CARTESIAN_POINT ( 'NONE',  ( 3.061616997868383141E-16, 2.500000000000000000, 0.000000000000000000 ) ) ;
#17 = DIRECTION ( 'NONE',  ( 0.000000000000000000, 0.000000000000000000, -1.000000000000000000 ) ) ;
#18 = SURFACE_STYLE_USAGE ( .BOTH. , #263 ) ;
#19 = ORIENTED_EDGE ( 'NONE', *, *, #271, .F. ) ;
#20 = SURFACE_SIDE_STYLE ('',( #288 ) ) ;
#21 = ORIENTED_EDGE ( 'NONE', *, *, #25, .F. ) ;
#22 = MECHANICAL_DESIGN_GEOMETRIC_PRESENTATION_REPRESENTATION (  '', ( #255 ), #67 ) ;
#23 = COLOUR_RGB ( '',1.000000000000000000, 0.000000000000000000, 0.000000000000000000 ) ;
#24 = EDGE_LOOP ( 'NONE', ( #144, #64 ) ) ;
#25 = EDGE_CURVE ( 'NONE', #161, #189, #9, .T. ) ;
#26 = CARTESIAN_POINT ( 'NONE',  ( 0.000000000000000000, 0.000000000000000000, -0.06250000000000001388 ) ) ;
#27 = COLOUR_RGB ( '',0.7921568627450980005, 0.8196078431372548767, 0.9333333333333333481 ) ;
#28 = PRODUCT_DEFINITION_CONTEXT ( 'detailed design', #266, 'design' ) ;
#29 =( CONVERSION_BASED_UNIT ( 'INCH', #219 ) LENGTH_UNIT ( ) NAMED_UNIT ( #173 ) );
#30 = CARTESIAN_POINT ( 'NONE',  ( 0.000000000000000000, 0.000000000000000000, 0.000000000000000000 ) ) ;
#31 = FACE_OUTER_BOUND ( 'NONE', #13, .T. ) ;
#32 = SURFACE_SIDE_STYLE ('',( #181 ) ) ;
#33 = FILL_AREA_STYLE ('',( #59 ) ) ;
#34 = COLOUR_RGB ( '',1.000000000000000000, 0.000000000000000000, 0.000000000000000000 ) ;
#35 = CARTESIAN_POINT ( 'NONE',  ( 0.000000000000000000, 0.6250000000000000000, -0.06250000000000001388 ) ) ;
#36 = DIRECTION ( 'NONE',  ( -1.000000000000000000, 0.000000000000000000, 0.000000000000000000 ) ) ;
#37 = CARTESIAN_POINT ( 'NONE',  ( 0.000000000000000000, 0.6250000000000000000, 0.000000000000000000 ) ) ;
#38 = FILL_AREA_STYLE_COLOUR ( '', #23 ) ;
#39 = CARTESIAN_POINT ( 'NONE',  ( 0.000000000000000000, 0.6250000000000000000, 0.000000000000000000 ) ) ;
#40 =( CONVERSION_BASED_UNIT ( 'INCH', #108 ) LENGTH_UNIT ( ) NAMED_UNIT ( #4 ) );
#41 = PRODUCT_DEFINITION_SHAPE ( 'NONE', 'NONE',  #92 ) ;
#42 = AXIS2_PLACEMENT_3D ( 'NONE', #37, #223, #12 ) ;
#43 = DIRECTION ( 'NONE',  ( -1.000000000000000000, 1.632862398863137527E-16, 0.000000000000000000 ) ) ;
#44 = ORIENTED_EDGE ( 'NONE', *, *, #109, .F. ) ;
#45 = PRODUCT_RELATED_PRODUCT_CATEGORY ( 'part', '', ( #258 ) ) ;
#46 = AXIS2_PLACEMENT_3D ( 'NONE', #246, #99, #102 ) ;
#47 = CIRCLE ( 'NONE', #74, 0.06250000000000001388 ) ;
#48 = DIMENSIONAL_EXPONENTS ( 1.000000000000000000, 0.000000000000000000, 0.000000000000000000, 0.000000000000000000, 0.000000000000000000, 0.000000000000000000, 0.000000000000000000 ) ;
#49 = ADVANCED_FACE ( 'NONE', ( #100 ), #202, .T. ) ;
#50 = UNCERTAINTY_MEASURE_WITH_UNIT (LENGTH_MEASURE( 1.000000000000000082E-05 ), #57, 'distance_accuracy_value', 'NONE');
#51 = SURFACE_STYLE_FILL_AREA ( #254 ) ;
#52 =( LENGTH_UNIT ( ) NAMED_UNIT ( * ) SI_UNIT ( $, .METRE. ) );
#53 = PRESENTATION_LAYER_ASSIGNMENT (  '', '', ( #6 ) ) ;
#54 =( GEOMETRIC_REPRESENTATION_CONTEXT ( 3 ) GLOBAL_UNCERTAINTY_ASSIGNED_CONTEXT ( ( #240 ) ) GLOBAL_UNIT_ASSIGNED_CONTEXT ( ( #29, #182, #276 ) ) REPRESENTATION_CONTEXT ( 'NONE', 'WORKASPACE' ) );
#55 = SURFACE_SIDE_STYLE ('',( #135 ) ) ;
#56 = PRODUCT_CONTEXT ( 'NONE', #190, 'mechanical' ) ;
#57 =( CONVERSION_BASED_UNIT ( 'INCH', #187 ) LENGTH_UNIT ( ) NAMED_UNIT ( #175 ) );
#58 = DIRECTION ( 'NONE',  ( -0.000000000000000000, -1.000000000000000000, -0.000000000000000000 ) ) ;
#59 = FILL_AREA_STYLE_COLOUR ( '', #34 ) ;
#60 = DIRECTION ( 'NONE',  ( -1.000000000000000000, 0.000000000000000000, 0.000000000000000000 ) ) ;
#61 = CARTESIAN_POINT ( 'NONE',  ( 0.06250000000000016653, 2.500000000000000000, 7.654042494670940597E-18 ) ) ;
#62 = APPLICATION_PROTOCOL_DEFINITION ( 'draft international standard', 'automotive_design', 1998, #266 ) ;
#63 = DIRECTION ( 'NONE',  ( 0.000000000000000000, 0.000000000000000000, -1.000000000000000000 ) ) ;
#64 = ORIENTED_EDGE ( 'NONE', *, *, #122, .T. ) ;
#65 =( NAMED_UNIT ( * ) SI_UNIT ( $, .STERADIAN. ) SOLID_ANGLE_UNIT ( ) );
#66 = ORIENTED_EDGE ( 'NONE', *, *, #218, .T. ) ;
#67 =( GEOMETRIC_REPRESENTATION_CONTEXT ( 3 ) GLOBAL_UNCERTAINTY_ASSIGNED_CONTEXT ( ( #50 ) ) GLOBAL_UNIT_ASSIGNED_CONTEXT ( ( #57, #183, #138 ) ) REPRESENTATION_CONTEXT ( 'NONE', 'WORKASPACE' ) );
#68 = ADVANCED_FACE ( 'NONE', ( #306 ), #191, .F. ) ;
#69 = ORIENTED_EDGE ( 'NONE', *, *, #269, .F. ) ;
#70 = ORIENTED_EDGE ( 'NONE', *, *, #170, .T. ) ;
#71 = STYLED_ITEM ( 'NONE', ( #186 ), #154 ) ;
#72 = UNCERTAINTY_MEASURE_WITH_UNIT (LENGTH_MEASURE( 1.000000000000000082E-05 ), #123, 'distance_accuracy_value', 'NONE');
#73 = SURFACE_SIDE_STYLE ('',( #51 ) ) ;
#74 = AXIS2_PLACEMENT_3D ( 'NONE', #155, #115, #112 ) ;
#75 = LENGTH_MEASURE_WITH_UNIT ( LENGTH_MEASURE( 0.02539999999999999897 ), #52 );
#76 =( LENGTH_UNIT ( ) NAMED_UNIT ( * ) SI_UNIT ( $, .METRE. ) );
#77 = AXIS2_PLACEMENT_3D ( 'NONE', #220, #298, #184 ) ;
#78 = MECHANICAL_DESIGN_GEOMETRIC_PRESENTATION_REPRESENTATION (  '', ( #71 ), #151 ) ;
#79 = SHAPE_DEFINITION_REPRESENTATION ( #41, #120 ) ;
#80 = DIRECTION ( 'NONE',  ( -0.000000000000000000, -1.000000000000000000, -0.000000000000000000 ) ) ;
#81 = LINE ( 'NONE', #260, #2 ) ;
#82 = DIRECTION ( 'NONE',  ( 0.000000000000000000, -0.000000000000000000, 1.000000000000000000 ) ) ;
#83 = DIRECTION ( 'NONE',  ( 1.632862398863137527E-16, 1.000000000000000000, -0.000000000000000000 ) ) ;
#84 = DIRECTION ( 'NONE',  ( -1.000000000000000000, 0.000000000000000000, 0.000000000000000000 ) ) ;
#85 = ORIENTED_EDGE ( 'NONE', *, *, #269, .T. ) ;
#86 = CIRCLE ( 'NONE', #308, 0.06250000000000001388 ) ;
#87 = LINE ( 'NONE', #104, #111 ) ;
#88 = LENGTH_MEASURE_WITH_UNIT ( LENGTH_MEASURE( 0.02539999999999999897 ), #208 );
#89 = VERTEX_POINT ( 'NONE', #158 ) ;
#90 =( GEOMETRIC_REPRESENTATION_CONTEXT ( 3 ) GLOBAL_UNCERTAINTY_ASSIGNED_CONTEXT ( ( #211 ) ) GLOBAL_UNIT_ASSIGNED_CONTEXT ( ( #228, #133, #65 ) ) REPRESENTATION_CONTEXT ( 'NONE', 'WORKASPACE' ) );
#91 = UNCERTAINTY_MEASURE_WITH_UNIT (LENGTH_MEASURE( 1.000000000000000082E-05 ), #272, 'distance_accuracy_value', 'NONE');
#92 = PRODUCT_DEFINITION ( 'UNKNOWN', '', #97, #28 ) ;
#93 =( LENGTH_UNIT ( ) NAMED_UNIT ( * ) SI_UNIT ( $, .METRE. ) );
#94 =( NAMED_UNIT ( * ) PLANE_ANGLE_UNIT ( ) SI_UNIT ( $, .RADIAN. ) );
#95 = CARTESIAN_POINT ( 'NONE',  ( 0.06250000000000001388, 2.500000000000000000, 0.000000000000000000 ) ) ;
#96 = DIRECTION ( 'NONE',  ( 0.000000000000000000, -1.000000000000000000, -0.000000000000000000 ) ) ;
#97 = PRODUCT_DEFINITION_FORMATION_WITH_SPECIFIED_SOURCE ( 'ANY', '', #258, .NOT_KNOWN. ) ;
#98 =( NAMED_UNIT ( * ) SI_UNIT ( $, .STERADIAN. ) SOLID_ANGLE_UNIT ( ) );
#99 = DIRECTION ( 'NONE',  ( -0.000000000000000000, -1.000000000000000000, -0.000000000000000000 ) ) ;
#100 = FACE_OUTER_BOUND ( 'NONE', #285, .T. ) ;
#101 =( LENGTH_UNIT ( ) NAMED_UNIT ( * ) SI_UNIT ( $, .METRE. ) );
#102 = DIRECTION ( 'NONE',  ( 0.000000000000000000, 0.000000000000000000, -1.000000000000000000 ) ) ;
#103 = SURFACE_STYLE_USAGE ( .BOTH. , #253 ) ;
#104 = CARTESIAN_POINT ( 'NONE',  ( 0.000000000000000000, 0.000000000000000000, -0.06250000000000001388 ) ) ;
#105 = CARTESIAN_POINT ( 'NONE',  ( 0.000000000000000000, 0.6250000000000000000, 0.000000000000000000 ) ) ;
#106 = MECHANICAL_DESIGN_GEOMETRIC_PRESENTATION_REPRESENTATION (  '', ( #303 ), #90 ) ;
#107 = CARTESIAN_POINT ( 'NONE',  ( 0.06250000000000002776, 0.6250000000000000000, 7.654042494670951382E-18 ) ) ;
#108 = LENGTH_MEASURE_WITH_UNIT ( LENGTH_MEASURE( 0.02539999999999999897 ), #256 );
#109 = EDGE_CURVE ( 'NONE', #89, #189, #213, .T. ) ;
#110 = ORIENTED_EDGE ( 'NONE', *, *, #238, .T. ) ;
#111 = VECTOR ( 'NONE', #58, 39.37007874015748143 ) ;
#112 = DIRECTION ( 'NONE',  ( 0.000000000000000000, 0.000000000000000000, -1.000000000000000000 ) ) ;
#113 = ADVANCED_FACE ( 'NONE', ( #178 ), #278, .T. ) ;
#114 = SURFACE_STYLE_USAGE ( .BOTH. , #20 ) ;
#115 = DIRECTION ( 'NONE',  ( -0.000000000000000000, -1.000000000000000000, -0.000000000000000000 ) ) ;
#116 = ORIENTED_EDGE ( 'NONE', *, *, #122, .F. ) ;
#117 = FILL_AREA_STYLE_COLOUR ( '', #248 ) ;
#118 = EDGE_LOOP ( 'NONE', ( #168, #267 ) ) ;
#119 = PRESENTATION_LAYER_ASSIGNMENT (  '', '', ( #255 ) ) ;
#120 = ADVANCED_BREP_SHAPE_REPRESENTATION ( '82390', ( #154, #152, #236 ), #294 ) ;
#121 = FACE_OUTER_BOUND ( 'NONE', #24, .T. ) ;
#122 = EDGE_CURVE ( 'NONE', #289, #309, #307, .T. ) ;
#123 =( CONVERSION_BASED_UNIT ( 'INCH', #274 ) LENGTH_UNIT ( ) NAMED_UNIT ( #48 ) );
#124 = UNCERTAINTY_MEASURE_WITH_UNIT (LENGTH_MEASURE( 1.000000000000000082E-05 ), #40, 'distance_accuracy_value', 'NONE');
#125 =( LENGTH_UNIT ( ) NAMED_UNIT ( * ) SI_UNIT ( $, .METRE. ) );
#126 = AXIS2_PLACEMENT_3D ( 'NONE', #299, #301, #84 ) ;
#127 =( NAMED_UNIT ( * ) SI_UNIT ( $, .STERADIAN. ) SOLID_ANGLE_UNIT ( ) );
#128 = ORIENTED_EDGE ( 'NONE', *, *, #271, .T. ) ;
#129 = DIRECTION ( 'NONE',  ( 0.000000000000000000, 1.000000000000000000, 0.000000000000000000 ) ) ;
#130 = AXIS2_PLACEMENT_3D ( 'NONE', #286, #80, #17 ) ;
#131 = FACE_OUTER_BOUND ( 'NONE', #235, .T. ) ;
#132 = SURFACE_STYLE_FILL_AREA ( #33 ) ;
#133 =( NAMED_UNIT ( * ) PLANE_ANGLE_UNIT ( ) SI_UNIT ( $, .RADIAN. ) );
#134 = DIRECTION ( 'NONE',  ( 1.632862398863137527E-16, 1.000000000000000000, -0.000000000000000000 ) ) ;
#135 = SURFACE_STYLE_FILL_AREA ( #205 ) ;
#136 = LINE ( 'NONE', #61, #297 ) ;
#137 = CARTESIAN_POINT ( 'NONE',  ( -0.06249999999999955591, 2.500000000000000000, 0.000000000000000000 ) ) ;
#138 =( NAMED_UNIT ( * ) SI_UNIT ( $, .STERADIAN. ) SOLID_ANGLE_UNIT ( ) );
#139 = SURFACE_STYLE_USAGE ( .BOTH. , #32 ) ;
#140 =( GEOMETRIC_REPRESENTATION_CONTEXT ( 3 ) GLOBAL_UNCERTAINTY_ASSIGNED_CONTEXT ( ( #124 ) ) GLOBAL_UNIT_ASSIGNED_CONTEXT ( ( #40, #247, #98 ) ) REPRESENTATION_CONTEXT ( 'NONE', 'WORKASPACE' ) );
#141 = CIRCLE ( 'NONE', #126, 0.06249999999999970857 ) ;
#142 = ORIENTED_EDGE ( 'NONE', *, *, #149, .F. ) ;
#143 = AXIS2_PLACEMENT_3D ( 'NONE', #16, #153, #203 ) ;
#144 = ORIENTED_EDGE ( 'NONE', *, *, #149, .T. ) ;
#145 = DIMENSIONAL_EXPONENTS ( 1.000000000000000000, 0.000000000000000000, 0.000000000000000000, 0.000000000000000000, 0.000000000000000000, 0.000000000000000000, 0.000000000000000000 ) ;
#146 = ADVANCED_FACE ( 'NONE', ( #31 ), #180, .T. ) ;
#147 = ORIENTED_EDGE ( 'NONE', *, *, #25, .T. ) ;
#148 = AXIS2_PLACEMENT_3D ( 'NONE', #10, #15, #200 ) ;
#149 = EDGE_CURVE ( 'NONE', #309, #289, #47, .T. ) ;
#150 =( NAMED_UNIT ( * ) PLANE_ANGLE_UNIT ( ) SI_UNIT ( $, .RADIAN. ) );
#151 =( GEOMETRIC_REPRESENTATION_CONTEXT ( 3 ) GLOBAL_UNCERTAINTY_ASSIGNED_CONTEXT ( ( #91 ) ) GLOBAL_UNIT_ASSIGNED_CONTEXT ( ( #272, #150, #224 ) ) REPRESENTATION_CONTEXT ( 'NONE', 'WORKASPACE' ) );
#152 = MANIFOLD_SOLID_BREP ( 'Revolve - Tool Body (Straight Shanked)', #280 ) ;
#153 = DIRECTION ( 'NONE',  ( 1.632862398863137527E-16, 1.000000000000000000, -0.000000000000000000 ) ) ;
#154 = MANIFOLD_SOLID_BREP ( 'Revolve - Cutting Edge', #172 ) ;
#155 = CARTESIAN_POINT ( 'NONE',  ( 0.000000000000000000, 0.000000000000000000, 0.000000000000000000 ) ) ;
#156 = MECHANICAL_DESIGN_GEOMETRIC_PRESENTATION_REPRESENTATION (  '', ( #230 ), #54 ) ;
#157 = DIRECTION ( 'NONE',  ( 1.632862398863137527E-16, 1.000000000000000000, -0.000000000000000000 ) ) ;
#158 = CARTESIAN_POINT ( 'NONE',  ( 0.06250000000000002776, 2.500000000000000000, 7.654042494670951382E-18 ) ) ;
#159 = FILL_AREA_STYLE_COLOUR ( '', #27 ) ;
#160 = DIRECTION ( 'NONE',  ( 1.632862398863137527E-16, 1.000000000000000000, -0.000000000000000000 ) ) ;
#161 = VERTEX_POINT ( 'NONE', #232 ) ;
#162 = FACE_OUTER_BOUND ( 'NONE', #212, .T. ) ;
#163 = FILL_AREA_STYLE ('',( #252 ) ) ;
#164 = CARTESIAN_POINT ( 'NONE',  ( 8.331998792565876739E-34, 0.6250000000000000000, 0.000000000000000000 ) ) ;
#165 = AXIS2_PLACEMENT_3D ( 'NONE', #105, #83, #36 ) ;
#166 = PRESENTATION_LAYER_ASSIGNMENT (  '', '', ( #303 ) ) ;
#167 = VERTEX_POINT ( 'NONE', #3 ) ;
#168 = ORIENTED_EDGE ( 'NONE', *, *, #292, .F. ) ;
#169 = CIRCLE ( 'NONE', #42, 0.06250000000000001388 ) ;
#170 = EDGE_CURVE ( 'NONE', #167, #289, #81, .T. ) ;
#171 = EDGE_LOOP ( 'NONE', ( #221, #257 ) ) ;
#172 = CLOSED_SHELL ( 'NONE', ( #49, #113, #261, #185 ) ) ;
#173 = DIMENSIONAL_EXPONENTS ( 1.000000000000000000, 0.000000000000000000, 0.000000000000000000, 0.000000000000000000, 0.000000000000000000, 0.000000000000000000, 0.000000000000000000 ) ;
#174 =( CONVERSION_BASED_UNIT ( 'INCH', #75 ) LENGTH_UNIT ( ) NAMED_UNIT ( #196 ) );
#175 = DIMENSIONAL_EXPONENTS ( 1.000000000000000000, 0.000000000000000000, 0.000000000000000000, 0.000000000000000000, 0.000000000000000000, 0.000000000000000000, 0.000000000000000000 ) ;
#176 = CARTESIAN_POINT ( 'NONE',  ( 0.000000000000000000, 0.000000000000000000, 0.000000000000000000 ) ) ;
#177 = AXIS2_PLACEMENT_3D ( 'NONE', #39, #157, #8 ) ;
#178 = FACE_OUTER_BOUND ( 'NONE', #118, .T. ) ;
#179 = SURFACE_STYLE_USAGE ( .BOTH. , #55 ) ;
#180 = CYLINDRICAL_SURFACE ( 'NONE', #209, 0.06249999999999986122 ) ;
#181 = SURFACE_STYLE_FILL_AREA ( #163 ) ;
#182 =( NAMED_UNIT ( * ) PLANE_ANGLE_UNIT ( ) SI_UNIT ( $, .RADIAN. ) );
#183 =( NAMED_UNIT ( * ) PLANE_ANGLE_UNIT ( ) SI_UNIT ( $, .RADIAN. ) );
#184 = DIRECTION ( 'NONE',  ( -1.000000000000000000, 0.000000000000000000, 0.000000000000000000 ) ) ;
#185 = ADVANCED_FACE ( 'NONE', ( #121 ), #214, .T. ) ;
#186 = PRESENTATION_STYLE_ASSIGNMENT (( #179 ) ) ;
#187 = LENGTH_MEASURE_WITH_UNIT ( LENGTH_MEASURE( 0.02539999999999999897 ), #93 );
#188 = DIRECTION ( 'NONE',  ( -0.000000000000000000, -1.000000000000000000, -0.000000000000000000 ) ) ;
#189 = VERTEX_POINT ( 'NONE', #282 ) ;
#190 = APPLICATION_CONTEXT ( 'automotive_design' ) ;
#191 = PLANE ( 'NONE',  #192 ) ;
#192 = AXIS2_PLACEMENT_3D ( 'NONE', #164, #204, #43 ) ;
#193 = VERTEX_POINT ( 'NONE', #107 ) ;
#194 = ORIENTED_EDGE ( 'NONE', *, *, #7, .T. ) ;
#195 = PRESENTATION_STYLE_ASSIGNMENT (( #18 ) ) ;
#196 = DIMENSIONAL_EXPONENTS ( 1.000000000000000000, 0.000000000000000000, 0.000000000000000000, 0.000000000000000000, 0.000000000000000000, 0.000000000000000000, 0.000000000000000000 ) ;
#197 = DIRECTION ( 'NONE',  ( 0.000000000000000000, 0.000000000000000000, -1.000000000000000000 ) ) ;
#198 = CIRCLE ( 'NONE', #165, 0.06250000000000001388 ) ;
#199 = AXIS2_PLACEMENT_3D ( 'NONE', #95, #295, #239 ) ;
#200 = DIRECTION ( 'NONE',  ( 0.000000000000000000, 0.000000000000000000, -1.000000000000000000 ) ) ;
#201 = CYLINDRICAL_SURFACE ( 'NONE', #46, 0.06250000000000001388 ) ;
#202 = CYLINDRICAL_SURFACE ( 'NONE', #130, 0.06250000000000001388 ) ;
#203 = DIRECTION ( 'NONE',  ( -1.000000000000000000, 0.000000000000000000, 0.000000000000000000 ) ) ;
#204 = DIRECTION ( 'NONE',  ( 1.632862398863137527E-16, 1.000000000000000000, -0.000000000000000000 ) ) ;
#205 = FILL_AREA_STYLE ('',( #159 ) ) ;
#206 =( GEOMETRIC_REPRESENTATION_CONTEXT ( 3 ) GLOBAL_UNCERTAINTY_ASSIGNED_CONTEXT ( ( #291 ) ) GLOBAL_UNIT_ASSIGNED_CONTEXT ( ( #174, #275, #127 ) ) REPRESENTATION_CONTEXT ( 'NONE', 'WORKASPACE' ) );
#207 = DIRECTION ( 'NONE',  ( 0.000000000000000000, 0.000000000000000000, 1.000000000000000000 ) ) ;
#208 =( LENGTH_UNIT ( ) NAMED_UNIT ( * ) SI_UNIT ( $, .METRE. ) );
#209 = AXIS2_PLACEMENT_3D ( 'NONE', #249, #279, #60 ) ;
#210 = PRESENTATION_STYLE_ASSIGNMENT (( #114 ) ) ;
#211 = UNCERTAINTY_MEASURE_WITH_UNIT (LENGTH_MEASURE( 1.000000000000000082E-05 ), #228, 'distance_accuracy_value', 'NONE');
#212 = EDGE_LOOP ( 'NONE', ( #229, #264, #66, #116 ) ) ;
#213 = CIRCLE ( 'NONE', #77, 0.06249999999999970857 ) ;
#214 = PLANE ( 'NONE',  #217 ) ;
#215 = VERTEX_POINT ( 'NONE', #35 ) ;
#216 = VECTOR ( 'NONE', #134, 39.37007874015748143 ) ;
#217 = AXIS2_PLACEMENT_3D ( 'NONE', #176, #96, #197 ) ;
#218 = EDGE_CURVE ( 'NONE', #215, #309, #87, .T. ) ;
#219 = LENGTH_MEASURE_WITH_UNIT ( LENGTH_MEASURE( 0.02539999999999999897 ), #76 );
#220 = CARTESIAN_POINT ( 'NONE',  ( 3.061616997868383141E-16, 2.500000000000000000, 0.000000000000000000 ) ) ;
#221 = ORIENTED_EDGE ( 'NONE', *, *, #238, .F. ) ;
#222 = CARTESIAN_POINT ( 'NONE',  ( 0.000000000000000000, 0.6250000000000000000, 0.000000000000000000 ) ) ;
#223 = DIRECTION ( 'NONE',  ( -0.000000000000000000, -1.000000000000000000, -0.000000000000000000 ) ) ;
#224 =( NAMED_UNIT ( * ) SI_UNIT ( $, .STERADIAN. ) SOLID_ANGLE_UNIT ( ) );
#225 = MECHANICAL_DESIGN_GEOMETRIC_PRESENTATION_REPRESENTATION (  '', ( #6 ), #140 ) ;
#226 = PRESENTATION_STYLE_ASSIGNMENT (( #139 ) ) ;
#227 = COLOUR_RGB ( '',1.000000000000000000, 0.000000000000000000, 0.000000000000000000 ) ;
#228 =( CONVERSION_BASED_UNIT ( 'INCH', #88 ) LENGTH_UNIT ( ) NAMED_UNIT ( #237 ) );
#229 = ORIENTED_EDGE ( 'NONE', *, *, #170, .F. ) ;
#230 = STYLED_ITEM ( 'NONE', ( #241 ), #152 ) ;
#231 = ADVANCED_FACE ( 'NONE', ( #131 ), #277, .T. ) ;
#232 = CARTESIAN_POINT ( 'NONE',  ( -0.06250000000000001388, 0.6250000000000000000, 0.000000000000000000 ) ) ;
#233 = ORIENTED_EDGE ( 'NONE', *, *, #109, .T. ) ;
#234 = DIRECTION ( 'NONE',  ( -0.000000000000000000, -1.000000000000000000, -0.000000000000000000 ) ) ;
#235 = EDGE_LOOP ( 'NONE', ( #19, #194, #147, #44 ) ) ;
#236 = AXIS2_PLACEMENT_3D ( 'NONE', #30, #207, #245 ) ;
#237 = DIMENSIONAL_EXPONENTS ( 1.000000000000000000, 0.000000000000000000, 0.000000000000000000, 0.000000000000000000, 0.000000000000000000, 0.000000000000000000, 0.000000000000000000 ) ;
#238 = EDGE_CURVE ( 'NONE', #161, #193, #14, .T. ) ;
#239 = DIRECTION ( 'NONE',  ( 1.000000000000000000, -1.632862398863137527E-16, 0.000000000000000000 ) ) ;
#240 = UNCERTAINTY_MEASURE_WITH_UNIT (LENGTH_MEASURE( 1.000000000000000082E-05 ), #29, 'distance_accuracy_value', 'NONE');
#241 = PRESENTATION_STYLE_ASSIGNMENT (( #243 ) ) ;
#242 = MECHANICAL_DESIGN_GEOMETRIC_PRESENTATION_REPRESENTATION (  '', ( #281 ), #206 ) ;
#243 = SURFACE_STYLE_USAGE ( .BOTH. , #73 ) ;
#244 = ORIENTED_EDGE ( 'NONE', *, *, #218, .F. ) ;
#245 = DIRECTION ( 'NONE',  ( 1.000000000000000000, 0.000000000000000000, 0.000000000000000000 ) ) ;
#246 = CARTESIAN_POINT ( 'NONE',  ( 0.000000000000000000, 0.000000000000000000, 0.000000000000000000 ) ) ;
#247 =( NAMED_UNIT ( * ) PLANE_ANGLE_UNIT ( ) SI_UNIT ( $, .RADIAN. ) );
#248 = COLOUR_RGB ( '',0.7921568627450980005, 0.8196078431372548767, 0.9333333333333333481 ) ;
#249 = CARTESIAN_POINT ( 'NONE',  ( 3.061616997868383141E-16, 2.500000000000000000, 0.000000000000000000 ) ) ;
#250 = EDGE_CURVE ( 'NONE', #167, #215, #86, .T. ) ;
#251 = CARTESIAN_POINT ( 'NONE',  ( 7.654042494670959086E-18, 0.000000000000000000, 0.06250000000000001388 ) ) ;
#252 = FILL_AREA_STYLE_COLOUR ( '', #227 ) ;
#253 = SURFACE_SIDE_STYLE ('',( #11 ) ) ;
#254 = FILL_AREA_STYLE ('',( #117 ) ) ;
#255 = STYLED_ITEM ( 'NONE', ( #195 ), #113 ) ;
#256 =( LENGTH_UNIT ( ) NAMED_UNIT ( * ) SI_UNIT ( $, .METRE. ) );
#257 = ORIENTED_EDGE ( 'NONE', *, *, #7, .F. ) ;
#258 = PRODUCT ( '82390', '82390', '', ( #56 ) ) ;
#259 = LENGTH_MEASURE_WITH_UNIT ( LENGTH_MEASURE( 0.02539999999999999897 ), #101 );
#260 = CARTESIAN_POINT ( 'NONE',  ( 7.654042494670959086E-18, 0.000000000000000000, 0.06250000000000001388 ) ) ;
#261 = ADVANCED_FACE ( 'NONE', ( #162 ), #201, .T. ) ;
#262 = PRESENTATION_LAYER_ASSIGNMENT (  '', '', ( #281 ) ) ;
#263 = SURFACE_SIDE_STYLE ('',( #132 ) ) ;
#264 = ORIENTED_EDGE ( 'NONE', *, *, #250, .T. ) ;
#265 = PLANE ( 'NONE',  #199 ) ;
#266 = APPLICATION_CONTEXT ( 'automotive_design' ) ;
#267 = ORIENTED_EDGE ( 'NONE', *, *, #250, .F. ) ;
#268 = COLOUR_RGB ( '',1.000000000000000000, 0.000000000000000000, 0.000000000000000000 ) ;
#269 = EDGE_CURVE ( 'NONE', #189, #89, #141, .T. ) ;
#270 =( NAMED_UNIT ( * ) SI_UNIT ( $, .STERADIAN. ) SOLID_ANGLE_UNIT ( ) );
#271 = EDGE_CURVE ( 'NONE', #193, #89, #136, .T. ) ;
#272 =( CONVERSION_BASED_UNIT ( 'INCH', #259 ) LENGTH_UNIT ( ) NAMED_UNIT ( #145 ) );
#273 = PRESENTATION_LAYER_ASSIGNMENT (  '', '', ( #71 ) ) ;
#274 = LENGTH_MEASURE_WITH_UNIT ( LENGTH_MEASURE( 0.02539999999999999897 ), #125 );
#275 =( NAMED_UNIT ( * ) PLANE_ANGLE_UNIT ( ) SI_UNIT ( $, .RADIAN. ) );
#276 =( NAMED_UNIT ( * ) SI_UNIT ( $, .STERADIAN. ) SOLID_ANGLE_UNIT ( ) );
#277 = CYLINDRICAL_SURFACE ( 'NONE', #143, 0.06249999999999986122 ) ;
#278 = PLANE ( 'NONE',  #287 ) ;
#279 = DIRECTION ( 'NONE',  ( 1.632862398863137527E-16, 1.000000000000000000, -0.000000000000000000 ) ) ;
#280 = CLOSED_SHELL ( 'NONE', ( #146, #68, #231, #296 ) ) ;
#281 = STYLED_ITEM ( 'NONE', ( #210 ), #185 ) ;
#282 = CARTESIAN_POINT ( 'NONE',  ( -0.06249999999999940326, 2.500000000000000000, 0.000000000000000000 ) ) ;
#283 = ORIENTED_EDGE ( 'NONE', *, *, #292, .T. ) ;
#284 = CARTESIAN_POINT ( 'NONE',  ( 0.000000000000000000, 0.6250000000000000000, 0.000000000000000000 ) ) ;
#285 = EDGE_LOOP ( 'NONE', ( #283, #70, #142, #244 ) ) ;
#286 = CARTESIAN_POINT ( 'NONE',  ( 0.000000000000000000, 0.000000000000000000, 0.000000000000000000 ) ) ;
#287 = AXIS2_PLACEMENT_3D ( 'NONE', #222, #129, #82 ) ;
#288 = SURFACE_STYLE_FILL_AREA ( #305 ) ;
#289 = VERTEX_POINT ( 'NONE', #251 ) ;
#290 = FACE_OUTER_BOUND ( 'NONE', #1, .T. ) ;
#291 = UNCERTAINTY_MEASURE_WITH_UNIT (LENGTH_MEASURE( 1.000000000000000082E-05 ), #174, 'distance_accuracy_value', 'NONE');
#292 = EDGE_CURVE ( 'NONE', #215, #167, #169, .T. ) ;
#293 = PRESENTATION_LAYER_ASSIGNMENT (  '', '', ( #230 ) ) ;
#294 =( GEOMETRIC_REPRESENTATION_CONTEXT ( 3 ) GLOBAL_UNCERTAINTY_ASSIGNED_CONTEXT ( ( #72 ) ) GLOBAL_UNIT_ASSIGNED_CONTEXT ( ( #123, #94, #270 ) ) REPRESENTATION_CONTEXT ( 'NONE', 'WORKASPACE' ) );
#295 = DIRECTION ( 'NONE',  ( -1.632862398863137527E-16, -1.000000000000000000, 0.000000000000000000 ) ) ;
#296 = ADVANCED_FACE ( 'NONE', ( #290 ), #265, .F. ) ;
#297 = VECTOR ( 'NONE', #160, 39.37007874015748143 ) ;
#298 = DIRECTION ( 'NONE',  ( 1.632862398863137527E-16, 1.000000000000000000, -0.000000000000000000 ) ) ;
#299 = CARTESIAN_POINT ( 'NONE',  ( 3.061616997868383141E-16, 2.500000000000000000, 0.000000000000000000 ) ) ;
#300 = FILL_AREA_STYLE_COLOUR ( '', #268 ) ;
#301 = DIRECTION ( 'NONE',  ( 1.632862398863137527E-16, 1.000000000000000000, -0.000000000000000000 ) ) ;
#302 = FILL_AREA_STYLE ('',( #300 ) ) ;
#303 = STYLED_ITEM ( 'NONE', ( #226 ), #261 ) ;
#304 = PRESENTATION_STYLE_ASSIGNMENT (( #103 ) ) ;
#305 = FILL_AREA_STYLE ('',( #38 ) ) ;
#306 = FACE_OUTER_BOUND ( 'NONE', #171, .T. ) ;
#307 = CIRCLE ( 'NONE', #148, 0.06250000000000001388 ) ;
#308 = AXIS2_PLACEMENT_3D ( 'NONE', #284, #188, #63 ) ;
#309 = VERTEX_POINT ( 'NONE', #26 ) ;
ENDSEC;
END-ISO-10303-21;
