ISO-10303-21;
HEADER;
FILE_DESCRIPTION (( 'STEP AP214' ),
    '1' );
FILE_NAME ('Micro_SFBM-030-8X.STEP',
    '2021-09-03T16:41:52',
    ( '' ),
    ( '' ),
    'SwSTEP 2.0',
    'SolidWorks 2020',
    '' );
FILE_SCHEMA (( 'AUTOMOTIVE_DESIGN' ));
ENDSEC;

DATA;
#1 = FACE_OUTER_BOUND ( 'NONE', #241, .T. ) ;
#2 = EDGE_CURVE ( 'NONE', #265, #103, #221, .T. ) ;
#3 = AXIS2_PLACEMENT_3D ( 'NONE', #177, #261, #213 ) ;
#4 = CYLINDRICAL_SURFACE ( 'NONE', #327, 0.05904909450000001697 ) ;
#5 = ORIENTED_EDGE ( 'NONE', *, *, #274, .F. ) ;
#6 = CLOSED_SHELL ( 'NONE', ( #171, #158, #277, #346, #94, #202, #43, #81, #32, #343, #249, #253, #25 ) ) ;
#7 = CYLINDRICAL_SURFACE ( 'NONE', #208, 0.1181100000000000066 ) ;
#8 = VERTEX_POINT ( 'NONE', #108 ) ;
#9 = EDGE_CURVE ( 'NONE', #265, #220, #47, .T. ) ;
#10 = FACE_OUTER_BOUND ( 'NONE', #16, .T. ) ;
#11 = ORIENTED_EDGE ( 'NONE', *, *, #130, .F. ) ;
#12 = DIRECTION ( 'NONE',  ( -0.7071067811865358044, 0.0000000000000000000, -0.7071067811865590080 ) ) ;
#13 = AXIS2_PLACEMENT_3D ( 'NONE', #56, #51, #23 ) ;
#14 = VERTEX_POINT ( 'NONE', #303 ) ;
#15 = VECTOR ( 'NONE', #211, 39.37007874015748143 ) ;
#16 = EDGE_LOOP ( 'NONE', ( #299, #326, #101, #246 ) ) ;
#17 = EDGE_CURVE ( 'NONE', #46, #74, #99, .T. ) ;
#18 = ORIENTED_EDGE ( 'NONE', *, *, #216, .T. ) ;
#19 = SURFACE_SIDE_STYLE ('',( #170 ) ) ;
#20 = AXIS2_PLACEMENT_3D ( 'NONE', #247, #102, #222 ) ;
#21 = UNCERTAINTY_MEASURE_WITH_UNIT (LENGTH_MEASURE( 1.000000000000000082E-05 ), #113, 'distance_accuracy_value', 'NONE');
#22 = DIRECTION ( 'NONE',  ( 1.000000000000000000, 0.0000000000000000000, 0.0000000000000000000 ) ) ;
#23 = DIRECTION ( 'NONE',  ( 1.000000000000000000, 0.0000000000000000000, -0.0000000000000000000 ) ) ;
#24 = PRESENTATION_LAYER_ASSIGNMENT (  '', '', ( #204 ) ) ;
#25 = ADVANCED_FACE ( 'NONE', ( #310 ), #172, .F. ) ;
#26 = DIRECTION ( 'NONE',  ( -0.0000000000000000000, -0.0000000000000000000, -1.000000000000000000 ) ) ;
#27 = DIRECTION ( 'NONE',  ( -1.000000000000000000, 0.0000000000000000000, 0.0000000000000000000 ) ) ;
#28 = AXIS2_PLACEMENT_3D ( 'NONE', #250, #230, #251 ) ;
#29 = PRODUCT_DEFINITION_FORMATION_WITH_SPECIFIED_SOURCE ( 'ANY', '', #105, .NOT_KNOWN. ) ;
#30 = DIRECTION ( 'NONE',  ( -1.000000000000000000, 0.0000000000000000000, 0.0000000000000000000 ) ) ;
#31 =( LENGTH_UNIT ( ) NAMED_UNIT ( * ) SI_UNIT ( $, .METRE. ) );
#32 = ADVANCED_FACE ( 'NONE', ( #336, #257 ), #227, .T. ) ;
#33 = DIRECTION ( 'NONE',  ( -0.0000000000000000000, -0.0000000000000000000, -1.000000000000000000 ) ) ;
#34 = DIRECTION ( 'NONE',  ( -1.000000000000000000, 0.0000000000000000000, 0.0000000000000000000 ) ) ;
#35 = DIRECTION ( 'NONE',  ( -0.0000000000000000000, -0.0000000000000000000, -1.000000000000000000 ) ) ;
#36 = ORIENTED_EDGE ( 'NONE', *, *, #216, .F. ) ;
#37 = CARTESIAN_POINT ( 'NONE',  ( 0.0000000000000000000, 0.0000000000000000000, 0.0000000000000000000 ) ) ;
#38 = ORIENTED_EDGE ( 'NONE', *, *, #76, .F. ) ;
#39 = EDGE_CURVE ( 'NONE', #294, #366, #112, .T. ) ;
#40 =( CONVERSION_BASED_UNIT ( 'INCH', #293 ) LENGTH_UNIT ( ) NAMED_UNIT ( #164 ) );
#41 = DIRECTION ( 'NONE',  ( -0.0000000000000000000, -0.0000000000000000000, -1.000000000000000000 ) ) ;
#42 = EDGE_LOOP ( 'NONE', ( #156, #193 ) ) ;
#43 = ADVANCED_FACE ( 'NONE', ( #79 ), #373, .T. ) ;
#44 = DIRECTION ( 'NONE',  ( -1.000000000000000000, 0.0000000000000000000, 0.0000000000000000000 ) ) ;
#45 = AXIS2_PLACEMENT_3D ( 'NONE', #155, #365, #120 ) ;
#46 = VERTEX_POINT ( 'NONE', #169 ) ;
#47 = LINE ( 'NONE', #84, #139 ) ;
#48 = EDGE_LOOP ( 'NONE', ( #358, #328 ) ) ;
#49 = DIRECTION ( 'NONE',  ( -1.000000000000000000, 0.0000000000000000000, 0.0000000000000000000 ) ) ;
#50 = ORIENTED_EDGE ( 'NONE', *, *, #145, .T. ) ;
#51 = DIRECTION ( 'NONE',  ( 0.0000000000000000000, 0.0000000000000000000, 1.000000000000000000 ) ) ;
#52 = CIRCLE ( 'NONE', #59, 0.1181100000000000066 ) ;
#53 = AXIS2_PLACEMENT_3D ( 'NONE', #182, #118, #27 ) ;
#54 = ORIENTED_EDGE ( 'NONE', *, *, #9, .F. ) ;
#55 =( NAMED_UNIT ( * ) PLANE_ANGLE_UNIT ( ) SI_UNIT ( $, .RADIAN. ) );
#56 = CARTESIAN_POINT ( 'NONE',  ( 0.0000000000000000000, 0.0000000000000000000, 2.244094000000000033 ) ) ;
#57 = DIRECTION ( 'NONE',  ( 1.000000000000000000, 0.0000000000000000000, -0.0000000000000000000 ) ) ;
#58 = MECHANICAL_DESIGN_GEOMETRIC_PRESENTATION_REPRESENTATION (  '', ( #239 ), #77 ) ;
#59 = AXIS2_PLACEMENT_3D ( 'NONE', #71, #235, #264 ) ;
#60 = DIRECTION ( 'NONE',  ( -0.0000000000000000000, -0.0000000000000000000, -1.000000000000000000 ) ) ;
#61 = CARTESIAN_POINT ( 'NONE',  ( 0.05904909450000001697, 7.231428457197460236E-18, 0.1574800000000000089 ) ) ;
#62 = DIRECTION ( 'NONE',  ( -1.000000000000000000, 0.0000000000000000000, 0.0000000000000000000 ) ) ;
#63 = SURFACE_STYLE_USAGE ( .BOTH. , #244 ) ;
#64 = DIRECTION ( 'NONE',  ( -0.0000000000000000000, -0.0000000000000000000, -1.000000000000000000 ) ) ;
#65 = CYLINDRICAL_SURFACE ( 'NONE', #376, 0.05904909450000001697 ) ;
#66 = EDGE_CURVE ( 'NONE', #194, #290, #351, .T. ) ;
#67 = ORIENTED_EDGE ( 'NONE', *, *, #374, .T. ) ;
#68 = FILL_AREA_STYLE ('',( #98 ) ) ;
#69 = AXIS2_PLACEMENT_3D ( 'NONE', #126, #73, #361 ) ;
#70 =( GEOMETRIC_REPRESENTATION_CONTEXT ( 3 ) GLOBAL_UNCERTAINTY_ASSIGNED_CONTEXT ( ( #252 ) ) GLOBAL_UNIT_ASSIGNED_CONTEXT ( ( #40, #149, #354 ) ) REPRESENTATION_CONTEXT ( 'NONE', 'WORKASPACE' ) );
#71 = CARTESIAN_POINT ( 'NONE',  ( 0.0000000000000000000, 0.0000000000000000000, 2.229093999999999465 ) ) ;
#72 = EDGE_LOOP ( 'NONE', ( #229, #217, #106, #248 ) ) ;
#73 = DIRECTION ( 'NONE',  ( -0.0000000000000000000, -0.0000000000000000000, -1.000000000000000000 ) ) ;
#74 = VERTEX_POINT ( 'NONE', #132 ) ;
#75 = EDGE_LOOP ( 'NONE', ( #50, #163 ) ) ;
#76 = EDGE_CURVE ( 'NONE', #74, #46, #314, .T. ) ;
#77 =( GEOMETRIC_REPRESENTATION_CONTEXT ( 3 ) GLOBAL_UNCERTAINTY_ASSIGNED_CONTEXT ( ( #21 ) ) GLOBAL_UNIT_ASSIGNED_CONTEXT ( ( #113, #167, #278 ) ) REPRESENTATION_CONTEXT ( 'NONE', 'WORKASPACE' ) );
#78 = ORIENTED_EDGE ( 'NONE', *, *, #39, .F. ) ;
#79 = FACE_OUTER_BOUND ( 'NONE', #42, .T. ) ;
#80 = DIRECTION ( 'NONE',  ( -0.0000000000000000000, -0.0000000000000000000, -1.000000000000000000 ) ) ;
#81 = ADVANCED_FACE ( 'NONE', ( #111 ), #173, .T. ) ;
#82 = CARTESIAN_POINT ( 'NONE',  ( 0.0000000000000000000, 0.0000000000000000000, 2.244094000000000033 ) ) ;
#83 = COLOUR_RGB ( '',0.7921568627450980005, 0.8196078431372548767, 0.9333333333333333481 ) ;
#84 = CARTESIAN_POINT ( 'NONE',  ( 0.1181100000000000066, 1.446430334472939084E-17, 2.244094000000000033 ) ) ;
#85 = MANIFOLD_SOLID_BREP ( 'Cut-Revolve1', #6 ) ;
#86 = EDGE_CURVE ( 'NONE', #223, #220, #367, .T. ) ;
#87 = AXIS2_PLACEMENT_3D ( 'NONE', #335, #200, #44 ) ;
#88 = DIRECTION ( 'NONE',  ( 0.7071067811865358044, 8.659560562354788645E-17, -0.7071067811865590080 ) ) ;
#89 = DIRECTION ( 'NONE',  ( -0.0000000000000000000, -0.0000000000000000000, -1.000000000000000000 ) ) ;
#90 = CARTESIAN_POINT ( 'NONE',  ( 0.0000000000000000000, 0.0000000000000000000, 0.0000000000000000000 ) ) ;
#91 = AXIS2_PLACEMENT_3D ( 'NONE', #262, #212, #34 ) ;
#92 = APPLICATION_PROTOCOL_DEFINITION ( 'draft international standard', 'automotive_design', 1998, #360 ) ;
#93 = CARTESIAN_POINT ( 'NONE',  ( 0.05708650000000002611, 6.991079949952541271E-18, 0.0000000000000000000 ) ) ;
#94 = ADVANCED_FACE ( 'NONE', ( #184 ), #7, .T. ) ;
#95 = LINE ( 'NONE', #176, #318 ) ;
#96 = DIRECTION ( 'NONE',  ( -0.0000000000000000000, -0.0000000000000000000, -1.000000000000000000 ) ) ;
#97 = ORIENTED_EDGE ( 'NONE', *, *, #334, .F. ) ;
#98 = FILL_AREA_STYLE_COLOUR ( '', #125 ) ;
#99 = CIRCLE ( 'NONE', #317, 0.05708650000000001917 ) ;
#100 = VECTOR ( 'NONE', #285, 39.37007874015748143 ) ;
#101 = ORIENTED_EDGE ( 'NONE', *, *, #145, .F. ) ;
#102 = DIRECTION ( 'NONE',  ( -0.0000000000000000000, -0.0000000000000000000, -1.000000000000000000 ) ) ;
#103 = VERTEX_POINT ( 'NONE', #329 ) ;
#104 = EDGE_LOOP ( 'NONE', ( #243, #362, #152, #78 ) ) ;
#105 = PRODUCT ( 'Micro_SFBM-030-8X', 'Micro_SFBM-030-8X', '', ( #337 ) ) ;
#106 = ORIENTED_EDGE ( 'NONE', *, *, #196, .F. ) ;
#107 = AXIS2_PLACEMENT_3D ( 'NONE', #236, #89, #30 ) ;
#108 = CARTESIAN_POINT ( 'NONE',  ( 0.05904909450000001697, 7.231428457197460236E-18, 0.0000000000000000000 ) ) ;
#109 = EDGE_LOOP ( 'NONE', ( #134, #198, #183, #131 ) ) ;
#110 = SURFACE_STYLE_USAGE ( .BOTH. , #19 ) ;
#111 = FACE_OUTER_BOUND ( 'NONE', #305, .T. ) ;
#112 = CIRCLE ( 'NONE', #325, 0.05904909450000001697 ) ;
#113 =( CONVERSION_BASED_UNIT ( 'INCH', #233 ) LENGTH_UNIT ( ) NAMED_UNIT ( #157 ) );
#114 = LINE ( 'NONE', #205, #100 ) ;
#115 = CARTESIAN_POINT ( 'NONE',  ( 0.05904909450000001697, 7.231428457197460236E-18, 0.0000000000000000000 ) ) ;
#116 = CARTESIAN_POINT ( 'NONE',  ( 0.05904909450000001697, 7.231428457197460236E-18, 0.1574800000000000089 ) ) ;
#117 = LINE ( 'NONE', #61, #345 ) ;
#118 = DIRECTION ( 'NONE',  ( -0.0000000000000000000, -0.0000000000000000000, -1.000000000000000000 ) ) ;
#119 = ORIENTED_EDGE ( 'NONE', *, *, #130, .T. ) ;
#120 = DIRECTION ( 'NONE',  ( -1.000000000000000000, 0.0000000000000000000, 0.0000000000000000000 ) ) ;
#121 = DIRECTION ( 'NONE',  ( -0.0000000000000000000, -0.0000000000000000000, -1.000000000000000000 ) ) ;
#122 = PRODUCT_DEFINITION_SHAPE ( 'NONE', 'NONE',  #267 ) ;
#123 = VERTEX_POINT ( 'NONE', #324 ) ;
#124 = AXIS2_PLACEMENT_3D ( 'NONE', #228, #197, #22 ) ;
#125 = COLOUR_RGB ( '',0.7921568627450980005, 0.8196078431372548767, 0.9333333333333333481 ) ;
#126 = CARTESIAN_POINT ( 'NONE',  ( 0.0000000000000000000, 0.0000000000000000000, 0.0000000000000000000 ) ) ;
#127 = ORIENTED_EDGE ( 'NONE', *, *, #242, .T. ) ;
#128 = ORIENTED_EDGE ( 'NONE', *, *, #304, .T. ) ;
#129 = CARTESIAN_POINT ( 'NONE',  ( 0.0000000000000000000, 0.0000000000000000000, 2.244094000000000033 ) ) ;
#130 = EDGE_CURVE ( 'NONE', #290, #103, #215, .T. ) ;
#131 = ORIENTED_EDGE ( 'NONE', *, *, #374, .F. ) ;
#132 = CARTESIAN_POINT ( 'NONE',  ( 0.05708650000000001917, 7.111254203575000753E-18, 0.1686104265071316777 ) ) ;
#133 = VECTOR ( 'NONE', #12, 39.37007874015748854 ) ;
#134 = ORIENTED_EDGE ( 'NONE', *, *, #181, .T. ) ;
#135 =( NAMED_UNIT ( * ) SI_UNIT ( $, .STERADIAN. ) SOLID_ANGLE_UNIT ( ) );
#136 = DIRECTION ( 'NONE',  ( 0.0000000000000000000, 0.0000000000000000000, 1.000000000000000000 ) ) ;
#137 = SHAPE_DEFINITION_REPRESENTATION ( #122, #313 ) ;
#138 = DIRECTION ( 'NONE',  ( -1.000000000000000000, 0.0000000000000000000, 0.0000000000000000000 ) ) ;
#139 = VECTOR ( 'NONE', #340, 39.37007874015748143 ) ;
#140 =( LENGTH_UNIT ( ) NAMED_UNIT ( * ) SI_UNIT ( $, .METRE. ) );
#141 = VECTOR ( 'NONE', #187, 39.37007874015748143 ) ;
#142 = EDGE_CURVE ( 'NONE', #290, #194, #344, .T. ) ;
#143 = CIRCLE ( 'NONE', #256, 0.05708650000000003305 ) ;
#144 = DIRECTION ( 'NONE',  ( -1.000000000000000000, 0.0000000000000000000, 0.0000000000000000000 ) ) ;
#145 = EDGE_CURVE ( 'NONE', #190, #8, #186, .T. ) ;
#146 = CARTESIAN_POINT ( 'NONE',  ( 0.1181100000000000066, 1.446430334472939084E-17, 0.3149610000000000465 ) ) ;
#147 = CONICAL_SURFACE ( 'NONE', #91, 0.1031100000000002570, 0.7853981633974318477 ) ;
#148 = FACE_OUTER_BOUND ( 'NONE', #297, .T. ) ;
#149 =( NAMED_UNIT ( * ) PLANE_ANGLE_UNIT ( ) SI_UNIT ( $, .RADIAN. ) );
#150 = CARTESIAN_POINT ( 'NONE',  ( 0.0000000000000000000, 0.0000000000000000000, 2.244094000000000033 ) ) ;
#151 = CARTESIAN_POINT ( 'NONE',  ( 0.0000000000000000000, 0.0000000000000000000, 0.1574800000000000089 ) ) ;
#152 = ORIENTED_EDGE ( 'NONE', *, *, #312, .T. ) ;
#153 = LINE ( 'NONE', #321, #141 ) ;
#154 = ORIENTED_EDGE ( 'NONE', *, *, #178, .F. ) ;
#155 = CARTESIAN_POINT ( 'NONE',  ( 0.0000000000000000000, 0.0000000000000000000, 0.3149609999999999910 ) ) ;
#156 = ORIENTED_EDGE ( 'NONE', *, *, #142, .T. ) ;
#157 = DIMENSIONAL_EXPONENTS ( 1.000000000000000000, 0.0000000000000000000, 0.0000000000000000000, 0.0000000000000000000, 0.0000000000000000000, 0.0000000000000000000, 0.0000000000000000000 ) ;
#158 = ADVANCED_FACE ( 'NONE', ( #296 ), #161, .T. ) ;
#159 = EDGE_LOOP ( 'NONE', ( #189, #275, #370, #331 ) ) ;
#160 = AXIS2_PLACEMENT_3D ( 'NONE', #219, #188, #191 ) ;
#161 = CYLINDRICAL_SURFACE ( 'NONE', #20, 0.05708650000000002611 ) ;
#162 = ORIENTED_EDGE ( 'NONE', *, *, #2, .T. ) ;
#163 = ORIENTED_EDGE ( 'NONE', *, *, #178, .T. ) ;
#164 = DIMENSIONAL_EXPONENTS ( 1.000000000000000000, 0.0000000000000000000, 0.0000000000000000000, 0.0000000000000000000, 0.0000000000000000000, 0.0000000000000000000, 0.0000000000000000000 ) ;
#165 = DIRECTION ( 'NONE',  ( -0.0000000000000000000, -0.0000000000000000000, -1.000000000000000000 ) ) ;
#166 = EDGE_CURVE ( 'NONE', #14, #123, #234, .T. ) ;
#167 =( NAMED_UNIT ( * ) PLANE_ANGLE_UNIT ( ) SI_UNIT ( $, .RADIAN. ) );
#168 = AXIS2_PLACEMENT_3D ( 'NONE', #37, #96, #268 ) ;
#169 = CARTESIAN_POINT ( 'NONE',  ( -0.05708650000000001917, 0.0000000000000000000, 0.1686104265071316777 ) ) ;
#170 = SURFACE_STYLE_FILL_AREA ( #276 ) ;
#171 = ADVANCED_FACE ( 'NONE', ( #10 ), #65, .T. ) ;
#172 = PLANE ( 'NONE',  #259 ) ;
#173 = CONICAL_SURFACE ( 'NONE', #225, 0.1031100000000002570, 0.7853981633974318477 ) ;
#174 = AXIS2_PLACEMENT_3D ( 'NONE', #372, #302, #306 ) ;
#175 = LINE ( 'NONE', #289, #332 ) ;
#176 = CARTESIAN_POINT ( 'NONE',  ( -0.05708650000000002611, 0.0000000000000000000, 0.0000000000000000000 ) ) ;
#177 = CARTESIAN_POINT ( 'NONE',  ( 0.0000000000000000000, 0.0000000000000000000, 0.1574800000000000089 ) ) ;
#178 = EDGE_CURVE ( 'NONE', #8, #190, #273, .T. ) ;
#179 = DIRECTION ( 'NONE',  ( -1.000000000000000000, 0.0000000000000000000, 0.0000000000000000000 ) ) ;
#180 = PRESENTATION_STYLE_ASSIGNMENT (( #63 ) ) ;
#181 = EDGE_CURVE ( 'NONE', #103, #265, #52, .T. ) ;
#182 = CARTESIAN_POINT ( 'NONE',  ( 0.0000000000000000000, 0.0000000000000000000, 0.3149610000000000465 ) ) ;
#183 = ORIENTED_EDGE ( 'NONE', *, *, #86, .F. ) ;
#184 = FACE_OUTER_BOUND ( 'NONE', #109, .T. ) ;
#185 = ORIENTED_EDGE ( 'NONE', *, *, #181, .F. ) ;
#186 = CIRCLE ( 'NONE', #69, 0.05904909450000001697 ) ;
#187 = DIRECTION ( 'NONE',  ( -0.0000000000000000000, -0.0000000000000000000, -1.000000000000000000 ) ) ;
#188 = DIRECTION ( 'NONE',  ( 0.0000000000000000000, 0.0000000000000000000, 1.000000000000000000 ) ) ;
#189 = ORIENTED_EDGE ( 'NONE', *, *, #166, .T. ) ;
#190 = VERTEX_POINT ( 'NONE', #315 ) ;
#191 = DIRECTION ( 'NONE',  ( 1.000000000000000000, 0.0000000000000000000, 0.0000000000000000000 ) ) ;
#192 = DIMENSIONAL_EXPONENTS ( 1.000000000000000000, 0.0000000000000000000, 0.0000000000000000000, 0.0000000000000000000, 0.0000000000000000000, 0.0000000000000000000, 0.0000000000000000000 ) ;
#193 = ORIENTED_EDGE ( 'NONE', *, *, #66, .T. ) ;
#194 = VERTEX_POINT ( 'NONE', #288 ) ;
#195 = AXIS2_PLACEMENT_3D ( 'NONE', #371, #255, #281 ) ;
#196 = EDGE_CURVE ( 'NONE', #366, #294, #266, .T. ) ;
#197 = DIRECTION ( 'NONE',  ( 0.0000000000000000000, 0.0000000000000000000, -1.000000000000000000 ) ) ;
#198 = ORIENTED_EDGE ( 'NONE', *, *, #9, .T. ) ;
#199 = DIRECTION ( 'NONE',  ( -1.000000000000000000, 0.0000000000000000000, 0.0000000000000000000 ) ) ;
#200 = DIRECTION ( 'NONE',  ( -0.0000000000000000000, -0.0000000000000000000, -1.000000000000000000 ) ) ;
#201 = CARTESIAN_POINT ( 'NONE',  ( 0.05708650000000003305, 0.0000000000000000000, 0.3149609999999999910 ) ) ;
#202 = ADVANCED_FACE ( 'NONE', ( #207 ), #287, .T. ) ;
#203 = PRODUCT_RELATED_PRODUCT_CATEGORY ( 'part', '', ( #105 ) ) ;
#204 = STYLED_ITEM ( 'NONE', ( #180 ), #313 ) ;
#205 = CARTESIAN_POINT ( 'NONE',  ( -0.05904909450000001697, 0.0000000000000000000, 0.1574800000000000089 ) ) ;
#206 = FACE_OUTER_BOUND ( 'NONE', #104, .T. ) ;
#207 = FACE_OUTER_BOUND ( 'NONE', #295, .T. ) ;
#208 = AXIS2_PLACEMENT_3D ( 'NONE', #129, #41, #270 ) ;
#209 = EDGE_CURVE ( 'NONE', #74, #294, #117, .T. ) ;
#210 = SURFACE_STYLE_FILL_AREA ( #68 ) ;
#211 = DIRECTION ( 'NONE',  ( -0.0000000000000000000, -0.0000000000000000000, -1.000000000000000000 ) ) ;
#212 = DIRECTION ( 'NONE',  ( 0.0000000000000000000, 0.0000000000000000000, -1.000000000000000000 ) ) ;
#213 = DIRECTION ( 'NONE',  ( -1.000000000000000000, 0.0000000000000000000, 0.0000000000000000000 ) ) ;
#214 = LENGTH_MEASURE_WITH_UNIT ( LENGTH_MEASURE( 0.02539999999999999897 ), #356 );
#215 = LINE ( 'NONE', #245, #133 ) ;
#216 = EDGE_CURVE ( 'NONE', #194, #265, #175, .T. ) ;
#217 = ORIENTED_EDGE ( 'NONE', *, *, #209, .T. ) ;
#218 = AXIS2_PLACEMENT_3D ( 'NONE', #151, #237, #179 ) ;
#219 = CARTESIAN_POINT ( 'NONE',  ( 0.0000000000000000000, 0.0000000000000000000, 2.244094000000000033 ) ) ;
#220 = VERTEX_POINT ( 'NONE', #146 ) ;
#221 = CIRCLE ( 'NONE', #124, 0.1181100000000000066 ) ;
#222 = DIRECTION ( 'NONE',  ( -1.000000000000000000, 0.0000000000000000000, 0.0000000000000000000 ) ) ;
#223 = VERTEX_POINT ( 'NONE', #263 ) ;
#224 = EDGE_LOOP ( 'NONE', ( #359, #128 ) ) ;
#225 = AXIS2_PLACEMENT_3D ( 'NONE', #82, #300, #199 ) ;
#226 = VECTOR ( 'NONE', #355, 39.37007874015748143 ) ;
#227 = PLANE ( 'NONE',  #298 ) ;
#228 = CARTESIAN_POINT ( 'NONE',  ( 0.0000000000000000000, 0.0000000000000000000, 2.229093999999999465 ) ) ;
#229 = ORIENTED_EDGE ( 'NONE', *, *, #17, .T. ) ;
#230 = DIRECTION ( 'NONE',  ( -0.0000000000000000000, -0.0000000000000000000, -1.000000000000000000 ) ) ;
#231 = PRESENTATION_LAYER_ASSIGNMENT (  '', '', ( #239 ) ) ;
#232 = PRESENTATION_STYLE_ASSIGNMENT (( #110 ) ) ;
#233 = LENGTH_MEASURE_WITH_UNIT ( LENGTH_MEASURE( 0.02539999999999999897 ), #140 );
#234 = CIRCLE ( 'NONE', #45, 0.05708650000000003305 ) ;
#235 = DIRECTION ( 'NONE',  ( 0.0000000000000000000, 0.0000000000000000000, -1.000000000000000000 ) ) ;
#236 = CARTESIAN_POINT ( 'NONE',  ( 0.0000000000000000000, 0.0000000000000000000, 0.1574800000000000089 ) ) ;
#237 = DIRECTION ( 'NONE',  ( -0.0000000000000000000, -0.0000000000000000000, -1.000000000000000000 ) ) ;
#238 = CARTESIAN_POINT ( 'NONE',  ( 0.1181100000000000066, 1.446430334472939084E-17, 2.229093999999999465 ) ) ;
#239 = STYLED_ITEM ( 'NONE', ( #232 ), #85 ) ;
#240 = LINE ( 'NONE', #115, #226 ) ;
#241 = EDGE_LOOP ( 'NONE', ( #97, #330, #333, #154 ) ) ;
#242 = EDGE_CURVE ( 'NONE', #123, #14, #143, .T. ) ;
#243 = ORIENTED_EDGE ( 'NONE', *, *, #209, .F. ) ;
#244 = SURFACE_SIDE_STYLE ('',( #210 ) ) ;
#245 = CARTESIAN_POINT ( 'NONE',  ( -0.1031100000000002570, 0.0000000000000000000, 2.244094000000000033 ) ) ;
#246 = ORIENTED_EDGE ( 'NONE', *, *, #279, .F. ) ;
#247 = CARTESIAN_POINT ( 'NONE',  ( 0.0000000000000000000, 0.0000000000000000000, 0.0000000000000000000 ) ) ;
#248 = ORIENTED_EDGE ( 'NONE', *, *, #312, .F. ) ;
#249 = ADVANCED_FACE ( 'NONE', ( #284 ), #348, .T. ) ;
#250 = CARTESIAN_POINT ( 'NONE',  ( 0.0000000000000000000, 0.0000000000000000000, 0.1686104265071316777 ) ) ;
#251 = DIRECTION ( 'NONE',  ( -1.000000000000000000, 0.0000000000000000000, 0.0000000000000000000 ) ) ;
#252 = UNCERTAINTY_MEASURE_WITH_UNIT (LENGTH_MEASURE( 1.000000000000000082E-05 ), #40, 'distance_accuracy_value', 'NONE');
#253 = ADVANCED_FACE ( 'NONE', ( #1 ), #4, .T. ) ;
#254 = CARTESIAN_POINT ( 'NONE',  ( 0.0000000000000000000, 0.0000000000000000000, 0.0000000000000000000 ) ) ;
#255 = DIRECTION ( 'NONE',  ( 0.0000000000000000000, 0.0000000000000000000, 1.000000000000000000 ) ) ;
#256 = AXIS2_PLACEMENT_3D ( 'NONE', #349, #319, #62 ) ;
#257 = FACE_OUTER_BOUND ( 'NONE', #224, .T. ) ;
#258 = DIRECTION ( 'NONE',  ( -1.000000000000000000, 0.0000000000000000000, 0.0000000000000000000 ) ) ;
#259 = AXIS2_PLACEMENT_3D ( 'NONE', #254, #136, #57 ) ;
#260 = VECTOR ( 'NONE', #64, 39.37007874015748143 ) ;
#261 = DIRECTION ( 'NONE',  ( -0.0000000000000000000, -0.0000000000000000000, -1.000000000000000000 ) ) ;
#262 = CARTESIAN_POINT ( 'NONE',  ( 0.0000000000000000000, 0.0000000000000000000, 2.244094000000000033 ) ) ;
#263 = CARTESIAN_POINT ( 'NONE',  ( -0.1181100000000000066, 0.0000000000000000000, 0.3149610000000000465 ) ) ;
#264 = DIRECTION ( 'NONE',  ( 1.000000000000000000, 0.0000000000000000000, 0.0000000000000000000 ) ) ;
#265 = VERTEX_POINT ( 'NONE', #238 ) ;
#266 = CIRCLE ( 'NONE', #218, 0.05904909450000001697 ) ;
#267 = PRODUCT_DEFINITION ( 'UNKNOWN', '', #29, #342 ) ;
#268 = DIRECTION ( 'NONE',  ( -1.000000000000000000, 0.0000000000000000000, 0.0000000000000000000 ) ) ;
#269 = ORIENTED_EDGE ( 'NONE', *, *, #304, .F. ) ;
#270 = DIRECTION ( 'NONE',  ( -1.000000000000000000, 0.0000000000000000000, 0.0000000000000000000 ) ) ;
#271 = ORIENTED_EDGE ( 'NONE', *, *, #66, .F. ) ;
#272 = ORIENTED_EDGE ( 'NONE', *, *, #2, .F. ) ;
#273 = CIRCLE ( 'NONE', #168, 0.05904909450000001697 ) ;
#274 = EDGE_CURVE ( 'NONE', #123, #74, #353, .T. ) ;
#275 = ORIENTED_EDGE ( 'NONE', *, *, #274, .T. ) ;
#276 = FILL_AREA_STYLE ('',( #311 ) ) ;
#277 = ADVANCED_FACE ( 'NONE', ( #320 ), #309, .T. ) ;
#278 =( NAMED_UNIT ( * ) SI_UNIT ( $, .STERADIAN. ) SOLID_ANGLE_UNIT ( ) );
#279 = EDGE_CURVE ( 'NONE', #366, #190, #322, .T. ) ;
#280 =( GEOMETRIC_REPRESENTATION_CONTEXT ( 3 ) GLOBAL_UNCERTAINTY_ASSIGNED_CONTEXT ( ( #283 ) ) GLOBAL_UNIT_ASSIGNED_CONTEXT ( ( #323, #55, #135 ) ) REPRESENTATION_CONTEXT ( 'NONE', 'WORKASPACE' ) );
#281 = DIRECTION ( 'NONE',  ( 1.000000000000000000, 0.0000000000000000000, 0.0000000000000000000 ) ) ;
#282 = DIRECTION ( 'NONE',  ( -0.0000000000000000000, 0.0000000000000000000, -1.000000000000000000 ) ) ;
#283 = UNCERTAINTY_MEASURE_WITH_UNIT (LENGTH_MEASURE( 1.000000000000000082E-05 ), #323, 'distance_accuracy_value', 'NONE');
#284 = FACE_OUTER_BOUND ( 'NONE', #301, .T. ) ;
#285 = DIRECTION ( 'NONE',  ( -0.1736481776669306087, 0.0000000000000000000, -0.9848077530122080203 ) ) ;
#286 = AXIS2_PLACEMENT_3D ( 'NONE', #379, #26, #144 ) ;
#287 = CYLINDRICAL_SURFACE ( 'NONE', #368, 0.1181100000000000066 ) ;
#288 = CARTESIAN_POINT ( 'NONE',  ( 0.1031100000000002570, 1.354581824536888722E-17, 2.244094000000000033 ) ) ;
#289 = CARTESIAN_POINT ( 'NONE',  ( 0.1031100000000002570, 1.262733314600838667E-17, 2.244094000000000033 ) ) ;
#290 = VERTEX_POINT ( 'NONE', #378 ) ;
#291 = CARTESIAN_POINT ( 'NONE',  ( 0.0000000000000000000, 0.0000000000000000000, 0.0000000000000000000 ) ) ;
#292 = ORIENTED_EDGE ( 'NONE', *, *, #142, .F. ) ;
#293 = LENGTH_MEASURE_WITH_UNIT ( LENGTH_MEASURE( 0.02539999999999999897 ), #31 );
#294 = VERTEX_POINT ( 'NONE', #116 ) ;
#295 = EDGE_LOOP ( 'NONE', ( #54, #162, #67, #269 ) ) ;
#296 = FACE_OUTER_BOUND ( 'NONE', #159, .T. ) ;
#297 = EDGE_LOOP ( 'NONE', ( #271, #18, #185, #11 ) ) ;
#298 = AXIS2_PLACEMENT_3D ( 'NONE', #201, #282, #49 ) ;
#299 = ORIENTED_EDGE ( 'NONE', *, *, #196, .T. ) ;
#300 = DIRECTION ( 'NONE',  ( 0.0000000000000000000, 0.0000000000000000000, -1.000000000000000000 ) ) ;
#301 = EDGE_LOOP ( 'NONE', ( #5, #127, #308, #38 ) ) ;
#302 = DIRECTION ( 'NONE',  ( 0.0000000000000000000, 0.0000000000000000000, 1.000000000000000000 ) ) ;
#303 = CARTESIAN_POINT ( 'NONE',  ( -0.05708650000000003305, 0.0000000000000000000, 0.3149609999999999910 ) ) ;
#304 = EDGE_CURVE ( 'NONE', #220, #223, #377, .T. ) ;
#305 = EDGE_LOOP ( 'NONE', ( #36, #292, #119, #272 ) ) ;
#306 = DIRECTION ( 'NONE',  ( 1.000000000000000000, 0.0000000000000000000, 0.0000000000000000000 ) ) ;
#307 = DIRECTION ( 'NONE',  ( -1.000000000000000000, 0.0000000000000000000, 0.0000000000000000000 ) ) ;
#308 = ORIENTED_EDGE ( 'NONE', *, *, #341, .T. ) ;
#309 = CONICAL_SURFACE ( 'NONE', #3, 0.05904909450000001697, 0.1745329251994332254 ) ;
#310 = FACE_OUTER_BOUND ( 'NONE', #75, .T. ) ;
#311 = FILL_AREA_STYLE_COLOUR ( '', #83 ) ;
#312 = EDGE_CURVE ( 'NONE', #46, #366, #114, .T. ) ;
#313 = ADVANCED_BREP_SHAPE_REPRESENTATION ( 'Micro_SFBM-030-8X', ( #85, #174 ), #70 ) ;
#314 = CIRCLE ( 'NONE', #28, 0.05708650000000001917 ) ;
#315 = CARTESIAN_POINT ( 'NONE',  ( -0.05904909450000001697, 0.0000000000000000000, 0.0000000000000000000 ) ) ;
#316 = DIRECTION ( 'NONE',  ( -1.000000000000000000, 0.0000000000000000000, 0.0000000000000000000 ) ) ;
#317 = AXIS2_PLACEMENT_3D ( 'NONE', #338, #165, #138 ) ;
#318 = VECTOR ( 'NONE', #60, 39.37007874015748143 ) ;
#319 = DIRECTION ( 'NONE',  ( -0.0000000000000000000, -0.0000000000000000000, -1.000000000000000000 ) ) ;
#320 = FACE_OUTER_BOUND ( 'NONE', #72, .T. ) ;
#321 = CARTESIAN_POINT ( 'NONE',  ( -0.1181100000000000066, 0.0000000000000000000, 2.244094000000000033 ) ) ;
#322 = LINE ( 'NONE', #375, #260 ) ;
#323 =( CONVERSION_BASED_UNIT ( 'INCH', #214 ) LENGTH_UNIT ( ) NAMED_UNIT ( #192 ) );
#324 = CARTESIAN_POINT ( 'NONE',  ( 0.05708650000000003305, 6.991079949952542812E-18, 0.3149609999999999910 ) ) ;
#325 = AXIS2_PLACEMENT_3D ( 'NONE', #369, #80, #307 ) ;
#326 = ORIENTED_EDGE ( 'NONE', *, *, #334, .T. ) ;
#327 = AXIS2_PLACEMENT_3D ( 'NONE', #90, #35, #258 ) ;
#328 = ORIENTED_EDGE ( 'NONE', *, *, #242, .F. ) ;
#329 = CARTESIAN_POINT ( 'NONE',  ( -0.1181100000000000066, 0.0000000000000000000, 2.229093999999999465 ) ) ;
#330 = ORIENTED_EDGE ( 'NONE', *, *, #39, .T. ) ;
#331 = ORIENTED_EDGE ( 'NONE', *, *, #341, .F. ) ;
#332 = VECTOR ( 'NONE', #88, 39.37007874015748854 ) ;
#333 = ORIENTED_EDGE ( 'NONE', *, *, #279, .T. ) ;
#334 = EDGE_CURVE ( 'NONE', #294, #8, #240, .T. ) ;
#335 = CARTESIAN_POINT ( 'NONE',  ( 0.0000000000000000000, 0.0000000000000000000, 0.3149610000000000465 ) ) ;
#336 = FACE_BOUND ( 'NONE', #48, .T. ) ;
#337 = PRODUCT_CONTEXT ( 'NONE', #360, 'mechanical' ) ;
#338 = CARTESIAN_POINT ( 'NONE',  ( 0.0000000000000000000, 0.0000000000000000000, 0.1686104265071316777 ) ) ;
#339 = CONICAL_SURFACE ( 'NONE', #107, 0.05904909450000001697, 0.1745329251994332254 ) ;
#340 = DIRECTION ( 'NONE',  ( -0.0000000000000000000, -0.0000000000000000000, -1.000000000000000000 ) ) ;
#341 = EDGE_CURVE ( 'NONE', #14, #46, #95, .T. ) ;
#342 = PRODUCT_DEFINITION_CONTEXT ( 'detailed design', #363, 'design' ) ;
#343 = ADVANCED_FACE ( 'NONE', ( #206 ), #339, .T. ) ;
#344 = CIRCLE ( 'NONE', #160, 0.1031100000000002570 ) ;
#345 = VECTOR ( 'NONE', #347, 39.37007874015748143 ) ;
#346 = ADVANCED_FACE ( 'NONE', ( #148 ), #147, .T. ) ;
#347 = DIRECTION ( 'NONE',  ( 0.1736481776669306087, 2.126576849575774688E-17, -0.9848077530122080203 ) ) ;
#348 = CYLINDRICAL_SURFACE ( 'NONE', #286, 0.05708650000000002611 ) ;
#349 = CARTESIAN_POINT ( 'NONE',  ( 0.0000000000000000000, 0.0000000000000000000, 0.3149609999999999910 ) ) ;
#350 = CARTESIAN_POINT ( 'NONE',  ( -0.05904909450000001697, 0.0000000000000000000, 0.1574800000000000089 ) ) ;
#351 = CIRCLE ( 'NONE', #195, 0.1031100000000002570 ) ;
#352 = MECHANICAL_DESIGN_GEOMETRIC_PRESENTATION_REPRESENTATION (  '', ( #204 ), #280 ) ;
#353 = LINE ( 'NONE', #93, #15 ) ;
#354 =( NAMED_UNIT ( * ) SI_UNIT ( $, .STERADIAN. ) SOLID_ANGLE_UNIT ( ) );
#355 = DIRECTION ( 'NONE',  ( -0.0000000000000000000, -0.0000000000000000000, -1.000000000000000000 ) ) ;
#356 =( LENGTH_UNIT ( ) NAMED_UNIT ( * ) SI_UNIT ( $, .METRE. ) );
#357 = DIRECTION ( 'NONE',  ( -1.000000000000000000, 0.0000000000000000000, 0.0000000000000000000 ) ) ;
#358 = ORIENTED_EDGE ( 'NONE', *, *, #166, .F. ) ;
#359 = ORIENTED_EDGE ( 'NONE', *, *, #86, .T. ) ;
#360 = APPLICATION_CONTEXT ( 'automotive_design' ) ;
#361 = DIRECTION ( 'NONE',  ( -1.000000000000000000, 0.0000000000000000000, 0.0000000000000000000 ) ) ;
#362 = ORIENTED_EDGE ( 'NONE', *, *, #76, .T. ) ;
#363 = APPLICATION_CONTEXT ( 'automotive_design' ) ;
#364 = APPLICATION_PROTOCOL_DEFINITION ( 'draft international standard', 'automotive_design', 1998, #363 ) ;
#365 = DIRECTION ( 'NONE',  ( -0.0000000000000000000, -0.0000000000000000000, -1.000000000000000000 ) ) ;
#366 = VERTEX_POINT ( 'NONE', #350 ) ;
#367 = CIRCLE ( 'NONE', #87, 0.1181100000000000066 ) ;
#368 = AXIS2_PLACEMENT_3D ( 'NONE', #150, #33, #316 ) ;
#369 = CARTESIAN_POINT ( 'NONE',  ( 0.0000000000000000000, 0.0000000000000000000, 0.1574800000000000089 ) ) ;
#370 = ORIENTED_EDGE ( 'NONE', *, *, #17, .F. ) ;
#371 = CARTESIAN_POINT ( 'NONE',  ( 0.0000000000000000000, 0.0000000000000000000, 2.244094000000000033 ) ) ;
#372 = CARTESIAN_POINT ( 'NONE',  ( 0.0000000000000000000, 0.0000000000000000000, 0.0000000000000000000 ) ) ;
#373 = PLANE ( 'NONE',  #13 ) ;
#374 = EDGE_CURVE ( 'NONE', #103, #223, #153, .T. ) ;
#375 = CARTESIAN_POINT ( 'NONE',  ( -0.05904909450000001697, 0.0000000000000000000, 0.0000000000000000000 ) ) ;
#376 = AXIS2_PLACEMENT_3D ( 'NONE', #291, #121, #357 ) ;
#377 = CIRCLE ( 'NONE', #53, 0.1181100000000000066 ) ;
#378 = CARTESIAN_POINT ( 'NONE',  ( -0.1031100000000002570, 0.0000000000000000000, 2.244094000000000033 ) ) ;
#379 = CARTESIAN_POINT ( 'NONE',  ( 0.0000000000000000000, 0.0000000000000000000, 0.0000000000000000000 ) ) ;
ENDSEC;
END-ISO-10303-21;
