ISO-10303-21;
HEADER;
FILE_DESCRIPTION (( 'STEP AP214' ),
    '1' );
FILE_NAME ('83373.STEP',
    '2023-06-23T09:35:04',
    ( '' ),
    ( '' ),
    'SwSTEP 2.0',
    'SolidWorks 2023',
    '' );
FILE_SCHEMA (( 'AUTOMOTIVE_DESIGN' ));
ENDSEC;

DATA;
#1 = VERTEX_POINT ( 'NONE', #71 ) ;
#2 = VERTEX_POINT ( 'NONE', #196 ) ;
#3 = VERTEX_POINT ( 'NONE', #28 ) ;
#4 = AXIS2_PLACEMENT_3D ( 'NONE', #280, #159, #6 ) ;
#5 = LENGTH_MEASURE_WITH_UNIT ( LENGTH_MEASURE( 0.02539999999999999897 ), #222 );
#6 = DIRECTION ( 'NONE',  ( 0.000000000000000000, 0.000000000000000000, -1.000000000000000000 ) ) ;
#7 = AXIS2_PLACEMENT_3D ( 'NONE', #247, #129, #79 ) ;
#8 = CIRCLE ( 'NONE', #36, 0.3125000000000000000 ) ;
#9 = MANIFOLD_SOLID_BREP ( 'Revolve - Cutting Edge', #118 ) ;
#10 = SURFACE_SIDE_STYLE ('',( #153 ) ) ;
#11 = LENGTH_MEASURE_WITH_UNIT ( LENGTH_MEASURE( 0.02539999999999999897 ), #108 );
#12 = CYLINDRICAL_SURFACE ( 'NONE', #20, 0.3124999999999999445 ) ;
#13 = DIRECTION ( 'NONE',  ( -0.000000000000000000, -1.000000000000000000, -0.000000000000000000 ) ) ;
#14 = SURFACE_STYLE_USAGE ( .BOTH. , #167 ) ;
#15 = DIRECTION ( 'NONE',  ( -1.000000000000000000, 0.000000000000000000, 0.000000000000000000 ) ) ;
#16 = FACE_OUTER_BOUND ( 'NONE', #199, .T. ) ;
#17 = DIRECTION ( 'NONE',  ( -1.000000000000000000, 0.000000000000000000, 0.000000000000000000 ) ) ;
#18 = EDGE_CURVE ( 'NONE', #219, #261, #61, .T. ) ;
#19 = CARTESIAN_POINT ( 'NONE',  ( 0.3125000000000000000, 5.000000000000000000, 0.000000000000000000 ) ) ;
#20 = AXIS2_PLACEMENT_3D ( 'NONE', #141, #303, #256 ) ;
#21 = LENGTH_MEASURE_WITH_UNIT ( LENGTH_MEASURE( 0.02539999999999999897 ), #40 );
#22 = CARTESIAN_POINT ( 'NONE',  ( 3.827021247335478926E-17, 0.000000000000000000, 0.3125000000000000000 ) ) ;
#23 = ORIENTED_EDGE ( 'NONE', *, *, #24, .T. ) ;
#24 = EDGE_CURVE ( 'NONE', #261, #219, #107, .T. ) ;
#25 = ORIENTED_EDGE ( 'NONE', *, *, #18, .F. ) ;
#26 = COLOUR_RGB ( '',0.7921568627450980005, 0.8196078431372548767, 0.9333333333333333481 ) ;
#27 = DIRECTION ( 'NONE',  ( 1.000000000000000000, 0.000000000000000000, 0.000000000000000000 ) ) ;
#28 = CARTESIAN_POINT ( 'NONE',  ( -0.3125000000000000000, 2.500000000000000000, 0.000000000000000000 ) ) ;
#29 = ORIENTED_EDGE ( 'NONE', *, *, #24, .F. ) ;
#30 = FILL_AREA_STYLE ('',( #53 ) ) ;
#31 = PRESENTATION_LAYER_ASSIGNMENT (  '', '', ( #132 ) ) ;
#32 = SURFACE_STYLE_USAGE ( .BOTH. , #152 ) ;
#33 =( NAMED_UNIT ( * ) PLANE_ANGLE_UNIT ( ) SI_UNIT ( $, .RADIAN. ) );
#34 =( NAMED_UNIT ( * ) SI_UNIT ( $, .STERADIAN. ) SOLID_ANGLE_UNIT ( ) );
#35 = VECTOR ( 'NONE', #190, 39.37007874015748143 ) ;
#36 = AXIS2_PLACEMENT_3D ( 'NONE', #37, #298, #17 ) ;
#37 = CARTESIAN_POINT ( 'NONE',  ( 0.000000000000000000, 2.500000000000000000, 0.000000000000000000 ) ) ;
#38 = DIRECTION ( 'NONE',  ( 0.000000000000000000, 0.000000000000000000, -1.000000000000000000 ) ) ;
#39 = FILL_AREA_STYLE ('',( #213 ) ) ;
#40 =( LENGTH_UNIT ( ) NAMED_UNIT ( * ) SI_UNIT ( $, .METRE. ) );
#41 = DIRECTION ( 'NONE',  ( -0.000000000000000000, -1.000000000000000000, -0.000000000000000000 ) ) ;
#42 = DIMENSIONAL_EXPONENTS ( 1.000000000000000000, 0.000000000000000000, 0.000000000000000000, 0.000000000000000000, 0.000000000000000000, 0.000000000000000000, 0.000000000000000000 ) ;
#43 = CARTESIAN_POINT ( 'NONE',  ( 1.224646799147354440E-16, 5.000000000000000000, 0.000000000000000000 ) ) ;
#44 = SURFACE_STYLE_FILL_AREA ( #65 ) ;
#45 = FILL_AREA_STYLE ('',( #128 ) ) ;
#46 =( GEOMETRIC_REPRESENTATION_CONTEXT ( 3 ) GLOBAL_UNCERTAINTY_ASSIGNED_CONTEXT ( ( #76 ) ) GLOBAL_UNIT_ASSIGNED_CONTEXT ( ( #84, #182, #224 ) ) REPRESENTATION_CONTEXT ( 'NONE', 'WORKASPACE' ) );
#47 = PRESENTATION_STYLE_ASSIGNMENT (( #173 ) ) ;
#48 = PLANE ( 'NONE',  #259 ) ;
#49 = ORIENTED_EDGE ( 'NONE', *, *, #206, .F. ) ;
#50 = CIRCLE ( 'NONE', #134, 0.3125000000000000000 ) ;
#51 = PRESENTATION_LAYER_ASSIGNMENT (  '', '', ( #75 ) ) ;
#52 = UNCERTAINTY_MEASURE_WITH_UNIT (LENGTH_MEASURE( 1.000000000000000082E-05 ), #89, 'distance_accuracy_value', 'NONE');
#53 = FILL_AREA_STYLE_COLOUR ( '', #83 ) ;
#54 = DIRECTION ( 'NONE',  ( -0.000000000000000000, -1.000000000000000000, -0.000000000000000000 ) ) ;
#55 = AXIS2_PLACEMENT_3D ( 'NONE', #185, #54, #210 ) ;
#56 =( LENGTH_UNIT ( ) NAMED_UNIT ( * ) SI_UNIT ( $, .METRE. ) );
#57 = MECHANICAL_DESIGN_GEOMETRIC_PRESENTATION_REPRESENTATION (  '', ( #75 ), #46 ) ;
#58 = PRODUCT_RELATED_PRODUCT_CATEGORY ( 'part', '', ( #156 ) ) ;
#59 = LINE ( 'NONE', #139, #217 ) ;
#60 = CARTESIAN_POINT ( 'NONE',  ( -0.3124999999999998335, 5.000000000000000000, 0.000000000000000000 ) ) ;
#61 = CIRCLE ( 'NONE', #4, 0.3125000000000000000 ) ;
#62 = CIRCLE ( 'NONE', #124, 0.3124999999999998890 ) ;
#63 = EDGE_CURVE ( 'NONE', #1, #3, #8, .T. ) ;
#64 = DIRECTION ( 'NONE',  ( -0.000000000000000000, -1.000000000000000000, -0.000000000000000000 ) ) ;
#65 = FILL_AREA_STYLE ('',( #278 ) ) ;
#66 = SURFACE_SIDE_STYLE ('',( #44 ) ) ;
#67 = SURFACE_STYLE_FILL_AREA ( #116 ) ;
#68 = MECHANICAL_DESIGN_GEOMETRIC_PRESENTATION_REPRESENTATION (  '', ( #132 ), #294 ) ;
#69 = DIRECTION ( 'NONE',  ( 0.000000000000000000, -1.000000000000000000, -0.000000000000000000 ) ) ;
#70 = ORIENTED_EDGE ( 'NONE', *, *, #225, .T. ) ;
#71 = CARTESIAN_POINT ( 'NONE',  ( 0.3125000000000000000, 2.500000000000000000, 3.827021247335477694E-17 ) ) ;
#72 = PRESENTATION_STYLE_ASSIGNMENT (( #91 ) ) ;
#73 = DIMENSIONAL_EXPONENTS ( 1.000000000000000000, 0.000000000000000000, 0.000000000000000000, 0.000000000000000000, 0.000000000000000000, 0.000000000000000000, 0.000000000000000000 ) ;
#74 = ADVANCED_FACE ( 'NONE', ( #238 ), #48, .T. ) ;
#75 = STYLED_ITEM ( 'NONE', ( #103 ), #110 ) ;
#76 = UNCERTAINTY_MEASURE_WITH_UNIT (LENGTH_MEASURE( 1.000000000000000082E-05 ), #84, 'distance_accuracy_value', 'NONE');
#77 = FACE_OUTER_BOUND ( 'NONE', #201, .T. ) ;
#78 =( CONVERSION_BASED_UNIT ( 'INCH', #130 ) LENGTH_UNIT ( ) NAMED_UNIT ( #73 ) );
#79 = DIRECTION ( 'NONE',  ( 0.000000000000000000, -0.000000000000000000, 1.000000000000000000 ) ) ;
#80 = UNCERTAINTY_MEASURE_WITH_UNIT (LENGTH_MEASURE( 1.000000000000000082E-05 ), #78, 'distance_accuracy_value', 'NONE');
#81 = DIRECTION ( 'NONE',  ( 0.000000000000000000, 0.000000000000000000, -1.000000000000000000 ) ) ;
#82 =( NAMED_UNIT ( * ) PLANE_ANGLE_UNIT ( ) SI_UNIT ( $, .RADIAN. ) );
#83 = COLOUR_RGB ( '',1.000000000000000000, 0.000000000000000000, 0.000000000000000000 ) ;
#84 =( CONVERSION_BASED_UNIT ( 'INCH', #11 ) LENGTH_UNIT ( ) NAMED_UNIT ( #305 ) );
#85 = EDGE_CURVE ( 'NONE', #263, #2, #165, .T. ) ;
#86 = DIRECTION ( 'NONE',  ( 0.000000000000000000, 0.000000000000000000, -1.000000000000000000 ) ) ;
#87 = AXIS2_PLACEMENT_3D ( 'NONE', #88, #193, #117 ) ;
#88 = CARTESIAN_POINT ( 'NONE',  ( 3.749399456654651290E-34, 2.500000000000000000, 0.000000000000000000 ) ) ;
#89 =( CONVERSION_BASED_UNIT ( 'INCH', #21 ) LENGTH_UNIT ( ) NAMED_UNIT ( #170 ) );
#90 = CARTESIAN_POINT ( 'NONE',  ( 0.000000000000000000, 2.500000000000000000, 0.000000000000000000 ) ) ;
#91 = SURFACE_STYLE_USAGE ( .BOTH. , #288 ) ;
#92 = CYLINDRICAL_SURFACE ( 'NONE', #290, 0.3124999999999999445 ) ;
#93 =( CONVERSION_BASED_UNIT ( 'INCH', #143 ) LENGTH_UNIT ( ) NAMED_UNIT ( #42 ) );
#94 = FACE_OUTER_BOUND ( 'NONE', #147, .T. ) ;
#95 = DIRECTION ( 'NONE',  ( 4.898587196589417389E-17, 1.000000000000000000, -0.000000000000000000 ) ) ;
#96 = EDGE_CURVE ( 'NONE', #126, #176, #157, .T. ) ;
#97 =( NAMED_UNIT ( * ) PLANE_ANGLE_UNIT ( ) SI_UNIT ( $, .RADIAN. ) );
#98 = MECHANICAL_DESIGN_GEOMETRIC_PRESENTATION_REPRESENTATION (  '', ( #216 ), #223 ) ;
#99 = PRODUCT_DEFINITION_FORMATION_WITH_SPECIFIED_SOURCE ( 'ANY', '', #156, .NOT_KNOWN. ) ;
#100 = APPLICATION_PROTOCOL_DEFINITION ( 'draft international standard', 'automotive_design', 1998, #200 ) ;
#101 = SHAPE_DEFINITION_REPRESENTATION ( #262, #249 ) ;
#102 = ORIENTED_EDGE ( 'NONE', *, *, #149, .T. ) ;
#103 = PRESENTATION_STYLE_ASSIGNMENT (( #32 ) ) ;
#104 = AXIS2_PLACEMENT_3D ( 'NONE', #19, #113, #137 ) ;
#105 = ORIENTED_EDGE ( 'NONE', *, *, #18, .T. ) ;
#106 =( GEOMETRIC_REPRESENTATION_CONTEXT ( 3 ) GLOBAL_UNCERTAINTY_ASSIGNED_CONTEXT ( ( #80 ) ) GLOBAL_UNIT_ASSIGNED_CONTEXT ( ( #78, #202, #34 ) ) REPRESENTATION_CONTEXT ( 'NONE', 'WORKASPACE' ) );
#107 = CIRCLE ( 'NONE', #55, 0.3125000000000000000 ) ;
#108 =( LENGTH_UNIT ( ) NAMED_UNIT ( * ) SI_UNIT ( $, .METRE. ) );
#109 = COLOUR_RGB ( '',1.000000000000000000, 0.000000000000000000, 0.000000000000000000 ) ;
#110 = MANIFOLD_SOLID_BREP ( 'Revolve - Tool Body (Straight Shanked)', #295 ) ;
#111 = LINE ( 'NONE', #22, #230 ) ;
#112 = ADVANCED_FACE ( 'NONE', ( #77 ), #267, .T. ) ;
#113 = DIRECTION ( 'NONE',  ( -4.898587196589418006E-17, -1.000000000000000000, 0.000000000000000000 ) ) ;
#114 = CARTESIAN_POINT ( 'NONE',  ( 3.827021247335478926E-17, 0.000000000000000000, 0.3125000000000000000 ) ) ;
#115 = AXIS2_PLACEMENT_3D ( 'NONE', #169, #302, #255 ) ;
#116 = FILL_AREA_STYLE ('',( #175 ) ) ;
#117 = DIRECTION ( 'NONE',  ( -1.000000000000000000, 4.898587196589418006E-17, 0.000000000000000000 ) ) ;
#118 = CLOSED_SHELL ( 'NONE', ( #112, #264, #287, #74 ) ) ;
#119 = MECHANICAL_DESIGN_GEOMETRIC_PRESENTATION_REPRESENTATION (  '', ( #208 ), #135 ) ;
#120 = ORIENTED_EDGE ( 'NONE', *, *, #96, .F. ) ;
#121 = EDGE_LOOP ( 'NONE', ( #172, #233 ) ) ;
#122 = CARTESIAN_POINT ( 'NONE',  ( 1.224646799147354440E-16, 5.000000000000000000, 0.000000000000000000 ) ) ;
#123 = ORIENTED_EDGE ( 'NONE', *, *, #63, .F. ) ;
#124 = AXIS2_PLACEMENT_3D ( 'NONE', #43, #95, #15 ) ;
#125 = EDGE_CURVE ( 'NONE', #2, #261, #277, .T. ) ;
#126 = VERTEX_POINT ( 'NONE', #198 ) ;
#127 = APPLICATION_PROTOCOL_DEFINITION ( 'draft international standard', 'automotive_design', 1998, #168 ) ;
#128 = FILL_AREA_STYLE_COLOUR ( '', #174 ) ;
#129 = DIRECTION ( 'NONE',  ( 0.000000000000000000, 1.000000000000000000, 0.000000000000000000 ) ) ;
#130 = LENGTH_MEASURE_WITH_UNIT ( LENGTH_MEASURE( 0.02539999999999999897 ), #56 );
#131 = ADVANCED_FACE ( 'NONE', ( #142 ), #171, .F. ) ;
#132 = STYLED_ITEM ( 'NONE', ( #271 ), #112 ) ;
#133 =( NAMED_UNIT ( * ) SI_UNIT ( $, .STERADIAN. ) SOLID_ANGLE_UNIT ( ) );
#134 = AXIS2_PLACEMENT_3D ( 'NONE', #90, #281, #164 ) ;
#135 =( GEOMETRIC_REPRESENTATION_CONTEXT ( 3 ) GLOBAL_UNCERTAINTY_ASSIGNED_CONTEXT ( ( #186 ) ) GLOBAL_UNIT_ASSIGNED_CONTEXT ( ( #231, #257, #253 ) ) REPRESENTATION_CONTEXT ( 'NONE', 'WORKASPACE' ) );
#136 = SURFACE_STYLE_FILL_AREA ( #220 ) ;
#137 = DIRECTION ( 'NONE',  ( 1.000000000000000000, -4.898587196589418006E-17, 0.000000000000000000 ) ) ;
#138 = CYLINDRICAL_SURFACE ( 'NONE', #226, 0.3125000000000000000 ) ;
#139 = CARTESIAN_POINT ( 'NONE',  ( 0.3125000000000000555, 5.000000000000000000, 3.827021247335477694E-17 ) ) ;
#140 = DIMENSIONAL_EXPONENTS ( 1.000000000000000000, 0.000000000000000000, 0.000000000000000000, 0.000000000000000000, 0.000000000000000000, 0.000000000000000000, 0.000000000000000000 ) ;
#141 = CARTESIAN_POINT ( 'NONE',  ( 1.224646799147354440E-16, 5.000000000000000000, 0.000000000000000000 ) ) ;
#142 = FACE_OUTER_BOUND ( 'NONE', #121, .T. ) ;
#143 = LENGTH_MEASURE_WITH_UNIT ( LENGTH_MEASURE( 0.02539999999999999897 ), #195 );
#144 = SURFACE_SIDE_STYLE ('',( #221 ) ) ;
#145 = ORIENTED_EDGE ( 'NONE', *, *, #125, .T. ) ;
#146 = LINE ( 'NONE', #60, #35 ) ;
#147 = EDGE_LOOP ( 'NONE', ( #177, #286, #145, #25 ) ) ;
#148 = EDGE_LOOP ( 'NONE', ( #102, #70, #308, #49 ) ) ;
#149 = EDGE_CURVE ( 'NONE', #3, #1, #191, .T. ) ;
#150 = DIRECTION ( 'NONE',  ( -0.000000000000000000, -1.000000000000000000, -0.000000000000000000 ) ) ;
#151 = PRESENTATION_LAYER_ASSIGNMENT (  '', '', ( #208 ) ) ;
#152 = SURFACE_SIDE_STYLE ('',( #136 ) ) ;
#153 = SURFACE_STYLE_FILL_AREA ( #30 ) ;
#154 = DIRECTION ( 'NONE',  ( 0.000000000000000000, 0.000000000000000000, 1.000000000000000000 ) ) ;
#155 = UNCERTAINTY_MEASURE_WITH_UNIT (LENGTH_MEASURE( 1.000000000000000082E-05 ), #211, 'distance_accuracy_value', 'NONE');
#156 = PRODUCT ( '83373', '83373', '', ( #309 ) ) ;
#157 = CIRCLE ( 'NONE', #203, 0.3124999999999998890 ) ;
#158 = UNCERTAINTY_MEASURE_WITH_UNIT (LENGTH_MEASURE( 1.000000000000000082E-05 ), #93, 'distance_accuracy_value', 'NONE');
#159 = DIRECTION ( 'NONE',  ( -0.000000000000000000, -1.000000000000000000, -0.000000000000000000 ) ) ;
#160 = EDGE_CURVE ( 'NONE', #263, #219, #111, .T. ) ;
#161 = PRESENTATION_LAYER_ASSIGNMENT (  '', '', ( #227 ) ) ;
#162 = VECTOR ( 'NONE', #13, 39.37007874015748143 ) ;
#163 =( CONVERSION_BASED_UNIT ( 'INCH', #5 ) LENGTH_UNIT ( ) NAMED_UNIT ( #140 ) );
#164 = DIRECTION ( 'NONE',  ( 0.000000000000000000, 0.000000000000000000, -1.000000000000000000 ) ) ;
#165 = CIRCLE ( 'NONE', #292, 0.3125000000000000000 ) ;
#166 =( GEOMETRIC_REPRESENTATION_CONTEXT ( 3 ) GLOBAL_UNCERTAINTY_ASSIGNED_CONTEXT ( ( #155 ) ) GLOBAL_UNIT_ASSIGNED_CONTEXT ( ( #211, #97, #242 ) ) REPRESENTATION_CONTEXT ( 'NONE', 'WORKASPACE' ) );
#167 = SURFACE_SIDE_STYLE ('',( #189 ) ) ;
#168 = APPLICATION_CONTEXT ( 'automotive_design' ) ;
#169 = CARTESIAN_POINT ( 'NONE',  ( 0.000000000000000000, 2.500000000000000000, 0.000000000000000000 ) ) ;
#170 = DIMENSIONAL_EXPONENTS ( 1.000000000000000000, 0.000000000000000000, 0.000000000000000000, 0.000000000000000000, 0.000000000000000000, 0.000000000000000000, 0.000000000000000000 ) ;
#171 = PLANE ( 'NONE',  #104 ) ;
#172 = ORIENTED_EDGE ( 'NONE', *, *, #214, .T. ) ;
#173 = SURFACE_STYLE_USAGE ( .BOTH. , #66 ) ;
#174 = COLOUR_RGB ( '',0.7921568627450980005, 0.8196078431372548767, 0.9333333333333333481 ) ;
#175 = FILL_AREA_STYLE_COLOUR ( '', #109 ) ;
#176 = VERTEX_POINT ( 'NONE', #212 ) ;
#177 = ORIENTED_EDGE ( 'NONE', *, *, #160, .F. ) ;
#178 = CARTESIAN_POINT ( 'NONE',  ( 0.000000000000000000, 2.500000000000000000, 0.000000000000000000 ) ) ;
#179 =( GEOMETRIC_REPRESENTATION_CONTEXT ( 3 ) GLOBAL_UNCERTAINTY_ASSIGNED_CONTEXT ( ( #52 ) ) GLOBAL_UNIT_ASSIGNED_CONTEXT ( ( #89, #33, #133 ) ) REPRESENTATION_CONTEXT ( 'NONE', 'WORKASPACE' ) );
#180 = EDGE_LOOP ( 'NONE', ( #243, #241 ) ) ;
#181 = UNCERTAINTY_MEASURE_WITH_UNIT (LENGTH_MEASURE( 1.000000000000000082E-05 ), #163, 'distance_accuracy_value', 'NONE');
#182 =( NAMED_UNIT ( * ) PLANE_ANGLE_UNIT ( ) SI_UNIT ( $, .RADIAN. ) );
#183 = CARTESIAN_POINT ( 'NONE',  ( 0.000000000000000000, 0.000000000000000000, 0.000000000000000000 ) ) ;
#184 = DIRECTION ( 'NONE',  ( 4.898587196589417389E-17, 1.000000000000000000, -0.000000000000000000 ) ) ;
#185 = CARTESIAN_POINT ( 'NONE',  ( 0.000000000000000000, 0.000000000000000000, 0.000000000000000000 ) ) ;
#186 = UNCERTAINTY_MEASURE_WITH_UNIT (LENGTH_MEASURE( 1.000000000000000082E-05 ), #231, 'distance_accuracy_value', 'NONE');
#187 = AXIS2_PLACEMENT_3D ( 'NONE', #252, #64, #86 ) ;
#188 = SURFACE_STYLE_USAGE ( .BOTH. , #10 ) ;
#189 = SURFACE_STYLE_FILL_AREA ( #39 ) ;
#190 = DIRECTION ( 'NONE',  ( 4.898587196589418006E-17, 1.000000000000000000, -0.000000000000000000 ) ) ;
#191 = CIRCLE ( 'NONE', #115, 0.3125000000000000000 ) ;
#192 = AXIS2_PLACEMENT_3D ( 'NONE', #183, #154, #27 ) ;
#193 = DIRECTION ( 'NONE',  ( 4.898587196589418006E-17, 1.000000000000000000, -0.000000000000000000 ) ) ;
#194 = FACE_OUTER_BOUND ( 'NONE', #180, .T. ) ;
#195 =( LENGTH_UNIT ( ) NAMED_UNIT ( * ) SI_UNIT ( $, .METRE. ) );
#196 = CARTESIAN_POINT ( 'NONE',  ( 0.000000000000000000, 2.500000000000000000, -0.3125000000000000000 ) ) ;
#197 = PRESENTATION_STYLE_ASSIGNMENT (( #14 ) ) ;
#198 = CARTESIAN_POINT ( 'NONE',  ( 0.3125000000000000000, 5.000000000000000000, 3.827021247335477694E-17 ) ) ;
#199 = EDGE_LOOP ( 'NONE', ( #300, #123 ) ) ;
#200 = APPLICATION_CONTEXT ( 'automotive_design' ) ;
#201 = EDGE_LOOP ( 'NONE', ( #218, #246, #29, #207 ) ) ;
#202 =( NAMED_UNIT ( * ) PLANE_ANGLE_UNIT ( ) SI_UNIT ( $, .RADIAN. ) );
#203 = AXIS2_PLACEMENT_3D ( 'NONE', #209, #184, #291 ) ;
#204 = COLOUR_RGB ( '',1.000000000000000000, 0.000000000000000000, 0.000000000000000000 ) ;
#205 = ORIENTED_EDGE ( 'NONE', *, *, #225, .F. ) ;
#206 = EDGE_CURVE ( 'NONE', #3, #176, #146, .T. ) ;
#207 = ORIENTED_EDGE ( 'NONE', *, *, #125, .F. ) ;
#208 = STYLED_ITEM ( 'NONE', ( #197 ), #287 ) ;
#209 = CARTESIAN_POINT ( 'NONE',  ( 1.224646799147354440E-16, 5.000000000000000000, 0.000000000000000000 ) ) ;
#210 = DIRECTION ( 'NONE',  ( 0.000000000000000000, 0.000000000000000000, -1.000000000000000000 ) ) ;
#211 =( CONVERSION_BASED_UNIT ( 'INCH', #228 ) LENGTH_UNIT ( ) NAMED_UNIT ( #285 ) );
#212 = CARTESIAN_POINT ( 'NONE',  ( -0.3124999999999997224, 5.000000000000000000, 0.000000000000000000 ) ) ;
#213 = FILL_AREA_STYLE_COLOUR ( '', #204 ) ;
#214 = EDGE_CURVE ( 'NONE', #176, #126, #62, .T. ) ;
#215 = DIRECTION ( 'NONE',  ( 4.898587196589417389E-17, 1.000000000000000000, -0.000000000000000000 ) ) ;
#216 = STYLED_ITEM ( 'NONE', ( #72 ), #74 ) ;
#217 = VECTOR ( 'NONE', #234, 39.37007874015748143 ) ;
#218 = ORIENTED_EDGE ( 'NONE', *, *, #251, .T. ) ;
#219 = VERTEX_POINT ( 'NONE', #114 ) ;
#220 = FILL_AREA_STYLE ('',( #269 ) ) ;
#221 = SURFACE_STYLE_FILL_AREA ( #45 ) ;
#222 =( LENGTH_UNIT ( ) NAMED_UNIT ( * ) SI_UNIT ( $, .METRE. ) );
#223 =( GEOMETRIC_REPRESENTATION_CONTEXT ( 3 ) GLOBAL_UNCERTAINTY_ASSIGNED_CONTEXT ( ( #158 ) ) GLOBAL_UNIT_ASSIGNED_CONTEXT ( ( #93, #260, #240 ) ) REPRESENTATION_CONTEXT ( 'NONE', 'WORKASPACE' ) );
#224 =( NAMED_UNIT ( * ) SI_UNIT ( $, .STERADIAN. ) SOLID_ANGLE_UNIT ( ) );
#225 = EDGE_CURVE ( 'NONE', #1, #126, #59, .T. ) ;
#226 = AXIS2_PLACEMENT_3D ( 'NONE', #232, #235, #38 ) ;
#227 = STYLED_ITEM ( 'NONE', ( #248 ), #9 ) ;
#228 = LENGTH_MEASURE_WITH_UNIT ( LENGTH_MEASURE( 0.02539999999999999897 ), #299 );
#229 = PRESENTATION_LAYER_ASSIGNMENT (  '', '', ( #216 ) ) ;
#230 = VECTOR ( 'NONE', #41, 39.37007874015748143 ) ;
#231 =( CONVERSION_BASED_UNIT ( 'INCH', #282 ) LENGTH_UNIT ( ) NAMED_UNIT ( #239 ) );
#232 = CARTESIAN_POINT ( 'NONE',  ( 0.000000000000000000, 0.000000000000000000, 0.000000000000000000 ) ) ;
#233 = ORIENTED_EDGE ( 'NONE', *, *, #96, .T. ) ;
#234 = DIRECTION ( 'NONE',  ( 4.898587196589418006E-17, 1.000000000000000000, -0.000000000000000000 ) ) ;
#235 = DIRECTION ( 'NONE',  ( -0.000000000000000000, -1.000000000000000000, -0.000000000000000000 ) ) ;
#236 = CARTESIAN_POINT ( 'NONE',  ( 0.000000000000000000, 0.000000000000000000, -0.3125000000000000000 ) ) ;
#237 = MECHANICAL_DESIGN_GEOMETRIC_PRESENTATION_REPRESENTATION (  '', ( #265 ), #179 ) ;
#238 = FACE_OUTER_BOUND ( 'NONE', #289, .T. ) ;
#239 = DIMENSIONAL_EXPONENTS ( 1.000000000000000000, 0.000000000000000000, 0.000000000000000000, 0.000000000000000000, 0.000000000000000000, 0.000000000000000000, 0.000000000000000000 ) ;
#240 =( NAMED_UNIT ( * ) SI_UNIT ( $, .STERADIAN. ) SOLID_ANGLE_UNIT ( ) );
#241 = ORIENTED_EDGE ( 'NONE', *, *, #85, .F. ) ;
#242 =( NAMED_UNIT ( * ) SI_UNIT ( $, .STERADIAN. ) SOLID_ANGLE_UNIT ( ) );
#243 = ORIENTED_EDGE ( 'NONE', *, *, #251, .F. ) ;
#244 = PLANE ( 'NONE',  #7 ) ;
#245 = ADVANCED_FACE ( 'NONE', ( #275 ), #92, .T. ) ;
#246 = ORIENTED_EDGE ( 'NONE', *, *, #160, .T. ) ;
#247 = CARTESIAN_POINT ( 'NONE',  ( 0.000000000000000000, 2.500000000000000000, 0.000000000000000000 ) ) ;
#248 = PRESENTATION_STYLE_ASSIGNMENT (( #304 ) ) ;
#249 = ADVANCED_BREP_SHAPE_REPRESENTATION ( '83373', ( #9, #110, #192 ), #166 ) ;
#250 = PRESENTATION_LAYER_ASSIGNMENT (  '', '', ( #265 ) ) ;
#251 = EDGE_CURVE ( 'NONE', #2, #263, #50, .T. ) ;
#252 = CARTESIAN_POINT ( 'NONE',  ( 0.000000000000000000, 0.000000000000000000, 0.000000000000000000 ) ) ;
#253 =( NAMED_UNIT ( * ) SI_UNIT ( $, .STERADIAN. ) SOLID_ANGLE_UNIT ( ) );
#254 = CARTESIAN_POINT ( 'NONE',  ( 0.000000000000000000, 0.000000000000000000, -0.3125000000000000000 ) ) ;
#255 = DIRECTION ( 'NONE',  ( -1.000000000000000000, 0.000000000000000000, 0.000000000000000000 ) ) ;
#256 = DIRECTION ( 'NONE',  ( -1.000000000000000000, 0.000000000000000000, 0.000000000000000000 ) ) ;
#257 =( NAMED_UNIT ( * ) PLANE_ANGLE_UNIT ( ) SI_UNIT ( $, .RADIAN. ) );
#258 = ORIENTED_EDGE ( 'NONE', *, *, #206, .T. ) ;
#259 = AXIS2_PLACEMENT_3D ( 'NONE', #283, #69, #307 ) ;
#260 =( NAMED_UNIT ( * ) PLANE_ANGLE_UNIT ( ) SI_UNIT ( $, .RADIAN. ) );
#261 = VERTEX_POINT ( 'NONE', #254 ) ;
#262 = PRODUCT_DEFINITION_SHAPE ( 'NONE', 'NONE',  #272 ) ;
#263 = VERTEX_POINT ( 'NONE', #306 ) ;
#264 = ADVANCED_FACE ( 'NONE', ( #194 ), #244, .T. ) ;
#265 = STYLED_ITEM ( 'NONE', ( #47 ), #264 ) ;
#266 = EDGE_LOOP ( 'NONE', ( #205, #284, #258, #120 ) ) ;
#267 = CYLINDRICAL_SURFACE ( 'NONE', #187, 0.3125000000000000000 ) ;
#268 = FACE_OUTER_BOUND ( 'NONE', #148, .T. ) ;
#269 = FILL_AREA_STYLE_COLOUR ( '', #26 ) ;
#270 = PRODUCT_DEFINITION_CONTEXT ( 'detailed design', #168, 'design' ) ;
#271 = PRESENTATION_STYLE_ASSIGNMENT (( #188 ) ) ;
#272 = PRODUCT_DEFINITION ( 'UNKNOWN', '', #99, #270 ) ;
#273 =( NAMED_UNIT ( * ) SI_UNIT ( $, .STERADIAN. ) SOLID_ANGLE_UNIT ( ) );
#274 = ADVANCED_FACE ( 'NONE', ( #268 ), #12, .T. ) ;
#275 = FACE_OUTER_BOUND ( 'NONE', #266, .T. ) ;
#276 = MECHANICAL_DESIGN_GEOMETRIC_PRESENTATION_REPRESENTATION (  '', ( #227 ), #106 ) ;
#277 = LINE ( 'NONE', #236, #162 ) ;
#278 = FILL_AREA_STYLE_COLOUR ( '', #297 ) ;
#279 =( LENGTH_UNIT ( ) NAMED_UNIT ( * ) SI_UNIT ( $, .METRE. ) );
#280 = CARTESIAN_POINT ( 'NONE',  ( 0.000000000000000000, 0.000000000000000000, 0.000000000000000000 ) ) ;
#281 = DIRECTION ( 'NONE',  ( -0.000000000000000000, -1.000000000000000000, -0.000000000000000000 ) ) ;
#282 = LENGTH_MEASURE_WITH_UNIT ( LENGTH_MEASURE( 0.02539999999999999897 ), #279 );
#283 = CARTESIAN_POINT ( 'NONE',  ( 0.000000000000000000, 0.000000000000000000, 0.000000000000000000 ) ) ;
#284 = ORIENTED_EDGE ( 'NONE', *, *, #63, .T. ) ;
#285 = DIMENSIONAL_EXPONENTS ( 1.000000000000000000, 0.000000000000000000, 0.000000000000000000, 0.000000000000000000, 0.000000000000000000, 0.000000000000000000, 0.000000000000000000 ) ;
#286 = ORIENTED_EDGE ( 'NONE', *, *, #85, .T. ) ;
#287 = ADVANCED_FACE ( 'NONE', ( #94 ), #138, .T. ) ;
#288 = SURFACE_SIDE_STYLE ('',( #67 ) ) ;
#289 = EDGE_LOOP ( 'NONE', ( #23, #105 ) ) ;
#290 = AXIS2_PLACEMENT_3D ( 'NONE', #122, #215, #296 ) ;
#291 = DIRECTION ( 'NONE',  ( -1.000000000000000000, 0.000000000000000000, 0.000000000000000000 ) ) ;
#292 = AXIS2_PLACEMENT_3D ( 'NONE', #178, #150, #81 ) ;
#293 = PLANE ( 'NONE',  #87 ) ;
#294 =( GEOMETRIC_REPRESENTATION_CONTEXT ( 3 ) GLOBAL_UNCERTAINTY_ASSIGNED_CONTEXT ( ( #181 ) ) GLOBAL_UNIT_ASSIGNED_CONTEXT ( ( #163, #82, #273 ) ) REPRESENTATION_CONTEXT ( 'NONE', 'WORKASPACE' ) );
#295 = CLOSED_SHELL ( 'NONE', ( #274, #301, #245, #131 ) ) ;
#296 = DIRECTION ( 'NONE',  ( -1.000000000000000000, 0.000000000000000000, 0.000000000000000000 ) ) ;
#297 = COLOUR_RGB ( '',1.000000000000000000, 0.000000000000000000, 0.000000000000000000 ) ;
#298 = DIRECTION ( 'NONE',  ( 4.898587196589417389E-17, 1.000000000000000000, -0.000000000000000000 ) ) ;
#299 =( LENGTH_UNIT ( ) NAMED_UNIT ( * ) SI_UNIT ( $, .METRE. ) );
#300 = ORIENTED_EDGE ( 'NONE', *, *, #149, .F. ) ;
#301 = ADVANCED_FACE ( 'NONE', ( #16 ), #293, .F. ) ;
#302 = DIRECTION ( 'NONE',  ( 4.898587196589417389E-17, 1.000000000000000000, -0.000000000000000000 ) ) ;
#303 = DIRECTION ( 'NONE',  ( 4.898587196589417389E-17, 1.000000000000000000, -0.000000000000000000 ) ) ;
#304 = SURFACE_STYLE_USAGE ( .BOTH. , #144 ) ;
#305 = DIMENSIONAL_EXPONENTS ( 1.000000000000000000, 0.000000000000000000, 0.000000000000000000, 0.000000000000000000, 0.000000000000000000, 0.000000000000000000, 0.000000000000000000 ) ;
#306 = CARTESIAN_POINT ( 'NONE',  ( 3.827021247335478926E-17, 2.500000000000000000, 0.3125000000000000000 ) ) ;
#307 = DIRECTION ( 'NONE',  ( 0.000000000000000000, 0.000000000000000000, -1.000000000000000000 ) ) ;
#308 = ORIENTED_EDGE ( 'NONE', *, *, #214, .F. ) ;
#309 = PRODUCT_CONTEXT ( 'NONE', #200, 'mechanical' ) ;
ENDSEC;
END-ISO-10303-21;
