ISO-10303-21;
HEADER;
FILE_DESCRIPTION (( 'STEP AP214' ),
    '1' );
FILE_NAME ('59694.STEP',
    '2023-07-24T15:25:00',
    ( '' ),
    ( '' ),
    'SwSTEP 2.0',
    'SolidWorks 2023',
    '' );
FILE_SCHEMA (( 'AUTOMOTIVE_DESIGN' ));
ENDSEC;

DATA;
#1 = CARTESIAN_POINT ( 'NONE',  ( -2.999999999999994227, 63.00000000000000000, 0.000000000000000000 ) ) ;
#2 = FILL_AREA_STYLE_COLOUR ( '', #233 ) ;
#3 = ORIENTED_EDGE ( 'NONE', *, *, #323, .T. ) ;
#4 = VECTOR ( 'NONE', #236, 1000.000000000000000 ) ;
#5 = MECHANICAL_DESIGN_GEOMETRIC_PRESENTATION_REPRESENTATION (  '', ( #85 ), #301 ) ;
#6 = AXIS2_PLACEMENT_3D ( 'NONE', #247, #312, #171 ) ;
#7 = DIRECTION ( 'NONE',  ( -1.213614799521464586E-16, 1.000000000000000000, -0.000000000000000000 ) ) ;
#8 = FILL_AREA_STYLE ('',( #147 ) ) ;
#9 = EDGE_LOOP ( 'NONE', ( #157, #34, #97, #183 ) ) ;
#10 = AXIS2_PLACEMENT_3D ( 'NONE', #235, #180, #352 ) ;
#11 =( GEOMETRIC_REPRESENTATION_CONTEXT ( 3 ) GLOBAL_UNCERTAINTY_ASSIGNED_CONTEXT ( ( #308 ) ) GLOBAL_UNIT_ASSIGNED_CONTEXT ( ( #80, #47, #234 ) ) REPRESENTATION_CONTEXT ( 'NONE', 'WORKASPACE' ) );
#12 = TOROIDAL_SURFACE ( 'NONE', #6, 2.000000000000000000, 0.9999999999999997780 ) ;
#13 = SURFACE_STYLE_FILL_AREA ( #179 ) ;
#14 = DIRECTION ( 'NONE',  ( 0.000000000000000000, 0.000000000000000000, -1.000000000000000000 ) ) ;
#15 = FACE_OUTER_BOUND ( 'NONE', #44, .T. ) ;
#16 = FILL_AREA_STYLE_COLOUR ( '', #213 ) ;
#17 = EDGE_LOOP ( 'NONE', ( #3, #266 ) ) ;
#18 = EDGE_CURVE ( 'NONE', #149, #111, #315, .T. ) ;
#19 = COLOUR_RGB ( '',1.000000000000000000, 0.000000000000000000, 0.000000000000000000 ) ;
#20 = AXIS2_PLACEMENT_3D ( 'NONE', #208, #302, #277 ) ;
#21 = CARTESIAN_POINT ( 'NONE',  ( 8.023096076392732812E-15, 9.000000000000000000, 0.000000000000000000 ) ) ;
#22 = EDGE_LOOP ( 'NONE', ( #245, #36, #329, #128 ) ) ;
#23 = DIRECTION ( 'NONE',  ( 0.000000000000000000, 0.000000000000000000, -1.000000000000000000 ) ) ;
#24 = SURFACE_STYLE_USAGE ( .BOTH. , #332 ) ;
#25 = DIRECTION ( 'NONE',  ( -1.213614799521464586E-16, 1.000000000000000000, -0.000000000000000000 ) ) ;
#26 = CARTESIAN_POINT ( 'NONE',  ( 3.000000000000000444, 63.00000000000000000, 3.673940397442056910E-16 ) ) ;
#27 = CLOSED_SHELL ( 'NONE', ( #104, #342, #264, #230, #124, #219 ) ) ;
#28 = VECTOR ( 'NONE', #232, 1000.000000000000000 ) ;
#29 = DIRECTION ( 'NONE',  ( -1.213614799521464586E-16, 1.000000000000000000, -0.000000000000000000 ) ) ;
#30 = LINE ( 'NONE', #144, #279 ) ;
#31 = SURFACE_STYLE_FILL_AREA ( #367 ) ;
#32 = FACE_OUTER_BOUND ( 'NONE', #185, .T. ) ;
#33 = STYLED_ITEM ( 'NONE', ( #121 ), #219 ) ;
#34 = ORIENTED_EDGE ( 'NONE', *, *, #146, .T. ) ;
#35 = FILL_AREA_STYLE_COLOUR ( '', #320 ) ;
#36 = ORIENTED_EDGE ( 'NONE', *, *, #77, .T. ) ;
#37 = EDGE_CURVE ( 'NONE', #200, #50, #127, .T. ) ;
#38 = CARTESIAN_POINT ( 'NONE',  ( 0.000000000000000000, 1.000000000000000000, 0.000000000000000000 ) ) ;
#39 = DIRECTION ( 'NONE',  ( 0.000000000000000000, 0.000000000000000000, -1.000000000000000000 ) ) ;
#40 = STYLED_ITEM ( 'NONE', ( #173 ), #124 ) ;
#41 = AXIS2_PLACEMENT_3D ( 'NONE', #226, #93, #256 ) ;
#42 = DIRECTION ( 'NONE',  ( 0.000000000000000000, -0.000000000000000000, 1.000000000000000000 ) ) ;
#43 = LINE ( 'NONE', #207, #4 ) ;
#44 = EDGE_LOOP ( 'NONE', ( #273, #162, #46, #280 ) ) ;
#45 =( GEOMETRIC_REPRESENTATION_CONTEXT ( 3 ) GLOBAL_UNCERTAINTY_ASSIGNED_CONTEXT ( ( #139 ) ) GLOBAL_UNIT_ASSIGNED_CONTEXT ( ( #322, #64, #370 ) ) REPRESENTATION_CONTEXT ( 'NONE', 'WORKASPACE' ) );
#46 = ORIENTED_EDGE ( 'NONE', *, *, #167, .F. ) ;
#47 =( NAMED_UNIT ( * ) PLANE_ANGLE_UNIT ( ) SI_UNIT ( $, .RADIAN. ) );
#48 = ORIENTED_EDGE ( 'NONE', *, *, #118, .F. ) ;
#49 = SURFACE_SIDE_STYLE ('',( #110 ) ) ;
#50 = VERTEX_POINT ( 'NONE', #242 ) ;
#51 = MECHANICAL_DESIGN_GEOMETRIC_PRESENTATION_REPRESENTATION (  '', ( #278 ), #107 ) ;
#52 = PRESENTATION_LAYER_ASSIGNMENT (  '', '', ( #196 ) ) ;
#53 = UNCERTAINTY_MEASURE_WITH_UNIT (LENGTH_MEASURE( 1.000000000000000082E-05 ), #119, 'distance_accuracy_value', 'NONE');
#54 = CARTESIAN_POINT ( 'NONE',  ( 3.673940397442059868E-16, 9.000000000000000000, 3.000000000000000000 ) ) ;
#55 = DIRECTION ( 'NONE',  ( -1.000000000000000000, 0.000000000000000000, 0.000000000000000000 ) ) ;
#56 = SURFACE_STYLE_USAGE ( .BOTH. , #218 ) ;
#57 = CIRCLE ( 'NONE', #195, 2.000000000000000000 ) ;
#58 = AXIS2_PLACEMENT_3D ( 'NONE', #186, #140, #23 ) ;
#59 = VECTOR ( 'NONE', #25, 1000.000000000000000 ) ;
#60 = SURFACE_STYLE_USAGE ( .BOTH. , #62 ) ;
#61 = UNCERTAINTY_MEASURE_WITH_UNIT (LENGTH_MEASURE( 1.000000000000000082E-05 ), #214, 'distance_accuracy_value', 'NONE');
#62 = SURFACE_SIDE_STYLE ('',( #31 ) ) ;
#63 = EDGE_CURVE ( 'NONE', #300, #357, #211, .T. ) ;
#64 =( NAMED_UNIT ( * ) PLANE_ANGLE_UNIT ( ) SI_UNIT ( $, .RADIAN. ) );
#65 = COLOUR_RGB ( '',1.000000000000000000, 0.000000000000000000, 0.000000000000000000 ) ;
#66 =( NAMED_UNIT ( * ) PLANE_ANGLE_UNIT ( ) SI_UNIT ( $, .RADIAN. ) );
#67 = CIRCLE ( 'NONE', #368, 2.999999999999998668 ) ;
#68 = SURFACE_STYLE_USAGE ( .BOTH. , #343 ) ;
#69 = AXIS2_PLACEMENT_3D ( 'NONE', #88, #252, #366 ) ;
#70 = AXIS2_PLACEMENT_3D ( 'NONE', #98, #148, #199 ) ;
#71 = PRESENTATION_LAYER_ASSIGNMENT (  '', '', ( #174 ) ) ;
#72 = PLANE ( 'NONE',  #99 ) ;
#73 = DIRECTION ( 'NONE',  ( 0.000000000000000000, 0.000000000000000000, -1.000000000000000000 ) ) ;
#74 = SURFACE_STYLE_USAGE ( .BOTH. , #159 ) ;
#75 = FILL_AREA_STYLE ('',( #326 ) ) ;
#76 =( GEOMETRIC_REPRESENTATION_CONTEXT ( 3 ) GLOBAL_UNCERTAINTY_ASSIGNED_CONTEXT ( ( #81 ) ) GLOBAL_UNIT_ASSIGNED_CONTEXT ( ( #297, #66, #125 ) ) REPRESENTATION_CONTEXT ( 'NONE', 'WORKASPACE' ) );
#77 = EDGE_CURVE ( 'NONE', #111, #149, #156, .T. ) ;
#78 = PRESENTATION_STYLE_ASSIGNMENT (( #74 ) ) ;
#79 = EDGE_LOOP ( 'NONE', ( #160, #84, #106, #306 ) ) ;
#80 =( LENGTH_UNIT ( ) NAMED_UNIT ( * ) SI_UNIT ( .MILLI., .METRE. ) );
#81 = UNCERTAINTY_MEASURE_WITH_UNIT (LENGTH_MEASURE( 1.000000000000000082E-05 ), #297, 'distance_accuracy_value', 'NONE');
#82 = ORIENTED_EDGE ( 'NONE', *, *, #258, .F. ) ;
#83 = FILL_AREA_STYLE ('',( #318 ) ) ;
#84 = ORIENTED_EDGE ( 'NONE', *, *, #169, .T. ) ;
#85 = STYLED_ITEM ( 'NONE', ( #328 ), #264 ) ;
#86 = CYLINDRICAL_SURFACE ( 'NONE', #69, 3.000000000000000000 ) ;
#87 = DIRECTION ( 'NONE',  ( -1.213614799521464586E-16, 1.000000000000000000, 0.000000000000000000 ) ) ;
#88 = CARTESIAN_POINT ( 'NONE',  ( 0.000000000000000000, 0.000000000000000000, 0.000000000000000000 ) ) ;
#89 = SHAPE_DEFINITION_REPRESENTATION ( #287, #221 ) ;
#90 = PRESENTATION_LAYER_ASSIGNMENT (  '', '', ( #310 ) ) ;
#91 = DIRECTION ( 'NONE',  ( 0.000000000000000000, 0.000000000000000000, -1.000000000000000000 ) ) ;
#92 = UNCERTAINTY_MEASURE_WITH_UNIT (LENGTH_MEASURE( 1.000000000000000082E-05 ), #341, 'distance_accuracy_value', 'NONE');
#93 = DIRECTION ( 'NONE',  ( -1.000000000000000000, 0.000000000000000000, 0.000000000000000000 ) ) ;
#94 = DIRECTION ( 'NONE',  ( 0.000000000000000000, 0.000000000000000000, -1.000000000000000000 ) ) ;
#95 = EDGE_CURVE ( 'NONE', #111, #200, #43, .T. ) ;
#96 = TOROIDAL_SURFACE ( 'NONE', #151, 2.000000000000000000, 0.9999999999999997780 ) ;
#97 = ORIENTED_EDGE ( 'NONE', *, *, #323, .F. ) ;
#98 = CARTESIAN_POINT ( 'NONE',  ( 0.000000000000000000, 1.000000000000000000, 0.000000000000000000 ) ) ;
#99 = AXIS2_PLACEMENT_3D ( 'NONE', #272, #100, #73 ) ;
#100 = DIRECTION ( 'NONE',  ( 0.000000000000000000, -1.000000000000000000, -0.000000000000000000 ) ) ;
#101 = VERTEX_POINT ( 'NONE', #103 ) ;
#102 = FACE_OUTER_BOUND ( 'NONE', #17, .T. ) ;
#103 = CARTESIAN_POINT ( 'NONE',  ( -2.999999999999984457, 9.000000000000001776, 0.000000000000000000 ) ) ;
#104 = ADVANCED_FACE ( 'NONE', ( #15 ), #209, .T. ) ;
#105 = ADVANCED_FACE ( 'NONE', ( #192 ), #338, .T. ) ;
#106 = ORIENTED_EDGE ( 'NONE', *, *, #258, .T. ) ;
#107 =( GEOMETRIC_REPRESENTATION_CONTEXT ( 3 ) GLOBAL_UNCERTAINTY_ASSIGNED_CONTEXT ( ( #92 ) ) GLOBAL_UNIT_ASSIGNED_CONTEXT ( ( #341, #220, #250 ) ) REPRESENTATION_CONTEXT ( 'NONE', 'WORKASPACE' ) );
#108 = COLOUR_RGB ( '',1.000000000000000000, 0.000000000000000000, 0.000000000000000000 ) ;
#109 = AXIS2_PLACEMENT_3D ( 'NONE', #253, #225, #165 ) ;
#110 = SURFACE_STYLE_FILL_AREA ( #265 ) ;
#111 = VERTEX_POINT ( 'NONE', #54 ) ;
#112 = DIRECTION ( 'NONE',  ( -1.000000000000000000, -1.213614799521464586E-16, 0.000000000000000000 ) ) ;
#113 = CARTESIAN_POINT ( 'NONE',  ( 1.469576158976823750E-15, 63.00000000000000000, 0.000000000000000000 ) ) ;
#114 = APPLICATION_PROTOCOL_DEFINITION ( 'draft international standard', 'automotive_design', 1998, #271 ) ;
#115 = COLOUR_RGB ( '',1.000000000000000000, 0.000000000000000000, 0.000000000000000000 ) ;
#116 = AXIS2_PLACEMENT_3D ( 'NONE', #290, #164, #281 ) ;
#117 = DIRECTION ( 'NONE',  ( -0.000000000000000000, -1.000000000000000000, -0.000000000000000000 ) ) ;
#118 = EDGE_CURVE ( 'NONE', #212, #50, #57, .T. ) ;
#119 =( LENGTH_UNIT ( ) NAMED_UNIT ( * ) SI_UNIT ( .MILLI., .METRE. ) );
#120 = CIRCLE ( 'NONE', #109, 2.999999999999992450 ) ;
#121 = PRESENTATION_STYLE_ASSIGNMENT (( #68 ) ) ;
#122 = DIRECTION ( 'NONE',  ( -1.000000000000000000, 0.000000000000000000, 0.000000000000000000 ) ) ;
#123 = STYLED_ITEM ( 'NONE', ( #349 ), #262 ) ;
#124 = ADVANCED_FACE ( 'NONE', ( #145 ), #86, .T. ) ;
#125 =( NAMED_UNIT ( * ) SI_UNIT ( $, .STERADIAN. ) SOLID_ANGLE_UNIT ( ) );
#126 = FACE_OUTER_BOUND ( 'NONE', #299, .T. ) ;
#127 = CIRCLE ( 'NONE', #288, 0.9999999999999997780 ) ;
#128 = ORIENTED_EDGE ( 'NONE', *, *, #169, .F. ) ;
#129 = MECHANICAL_DESIGN_GEOMETRIC_PRESENTATION_REPRESENTATION (  '', ( #196 ), #45 ) ;
#130 = DIRECTION ( 'NONE',  ( 1.000000000000000000, 0.000000000000000000, -1.224646799147353207E-16 ) ) ;
#131 = EDGE_CURVE ( 'NONE', #50, #212, #187, .T. ) ;
#132 = ORIENTED_EDGE ( 'NONE', *, *, #167, .T. ) ;
#133 = PLANE ( 'NONE',  #224 ) ;
#134 = ORIENTED_EDGE ( 'NONE', *, *, #238, .T. ) ;
#135 = CIRCLE ( 'NONE', #188, 3.000000000000000000 ) ;
#136 = VERTEX_POINT ( 'NONE', #285 ) ;
#137 = EDGE_CURVE ( 'NONE', #101, #353, #120, .T. ) ;
#138 =( NAMED_UNIT ( * ) PLANE_ANGLE_UNIT ( ) SI_UNIT ( $, .RADIAN. ) );
#139 = UNCERTAINTY_MEASURE_WITH_UNIT (LENGTH_MEASURE( 1.000000000000000082E-05 ), #322, 'distance_accuracy_value', 'NONE');
#140 = DIRECTION ( 'NONE',  ( -0.000000000000000000, -1.000000000000000000, -0.000000000000000000 ) ) ;
#141 = PRODUCT_CONTEXT ( 'NONE', #271, 'mechanical' ) ;
#142 = CARTESIAN_POINT ( 'NONE',  ( 0.000000000000000000, 9.000000000000000000, -3.000000000000000000 ) ) ;
#143 = CIRCLE ( 'NONE', #345, 2.999999999999992450 ) ;
#144 = CARTESIAN_POINT ( 'NONE',  ( 0.000000000000000000, 0.000000000000000000, -3.000000000000000000 ) ) ;
#145 = FACE_OUTER_BOUND ( 'NONE', #22, .T. ) ;
#146 = EDGE_CURVE ( 'NONE', #353, #300, #363, .T. ) ;
#147 = FILL_AREA_STYLE_COLOUR ( '', #108 ) ;
#148 = DIRECTION ( 'NONE',  ( -0.000000000000000000, -1.000000000000000000, -0.000000000000000000 ) ) ;
#149 = VERTEX_POINT ( 'NONE', #142 ) ;
#150 = CARTESIAN_POINT ( 'NONE',  ( 8.023096076392732812E-15, 9.000000000000001776, 0.000000000000000000 ) ) ;
#151 = AXIS2_PLACEMENT_3D ( 'NONE', #38, #202, #94 ) ;
#152 = FILL_AREA_STYLE ('',( #2 ) ) ;
#153 = SURFACE_STYLE_FILL_AREA ( #152 ) ;
#154 = FACE_OUTER_BOUND ( 'NONE', #163, .T. ) ;
#155 = ORIENTED_EDGE ( 'NONE', *, *, #77, .F. ) ;
#156 = CIRCLE ( 'NONE', #10, 3.000000000000000000 ) ;
#157 = ORIENTED_EDGE ( 'NONE', *, *, #137, .T. ) ;
#158 = AXIS2_PLACEMENT_3D ( 'NONE', #249, #29, #166 ) ;
#159 = SURFACE_SIDE_STYLE ('',( #13 ) ) ;
#160 = ORIENTED_EDGE ( 'NONE', *, *, #37, .F. ) ;
#161 =( NAMED_UNIT ( * ) PLANE_ANGLE_UNIT ( ) SI_UNIT ( $, .RADIAN. ) );
#162 = ORIENTED_EDGE ( 'NONE', *, *, #95, .T. ) ;
#163 = EDGE_LOOP ( 'NONE', ( #355, #203 ) ) ;
#164 = DIRECTION ( 'NONE',  ( 0.000000000000000000, 0.000000000000000000, 1.000000000000000000 ) ) ;
#165 = DIRECTION ( 'NONE',  ( -1.000000000000000000, 0.000000000000000000, 0.000000000000000000 ) ) ;
#166 = DIRECTION ( 'NONE',  ( -1.000000000000000000, 0.000000000000000000, 0.000000000000000000 ) ) ;
#167 = EDGE_CURVE ( 'NONE', #136, #200, #135, .T. ) ;
#168 = PRESENTATION_STYLE_ASSIGNMENT (( #24 ) ) ;
#169 = EDGE_CURVE ( 'NONE', #200, #136, #260, .T. ) ;
#170 = PRESENTATION_LAYER_ASSIGNMENT (  '', '', ( #85 ) ) ;
#171 = DIRECTION ( 'NONE',  ( 0.000000000000000000, 0.000000000000000000, -1.000000000000000000 ) ) ;
#172 = CARTESIAN_POINT ( 'NONE',  ( 0.000000000000000000, 0.000000000000000000, 0.000000000000000000 ) ) ;
#173 = PRESENTATION_STYLE_ASSIGNMENT (( #60 ) ) ;
#174 = STYLED_ITEM ( 'NONE', ( #168 ), #342 ) ;
#175 = ORIENTED_EDGE ( 'NONE', *, *, #146, .F. ) ;
#176 = CARTESIAN_POINT ( 'NONE',  ( 0.000000000000000000, 9.000000000000000000, 0.000000000000000000 ) ) ;
#177 = DIRECTION ( 'NONE',  ( 0.000000000000000000, 1.000000000000000000, 0.000000000000000000 ) ) ;
#178 = SURFACE_STYLE_USAGE ( .BOTH. , #206 ) ;
#179 = FILL_AREA_STYLE ('',( #16 ) ) ;
#180 = DIRECTION ( 'NONE',  ( -0.000000000000000000, -1.000000000000000000, -0.000000000000000000 ) ) ;
#181 = SURFACE_STYLE_FILL_AREA ( #75 ) ;
#182 = PRODUCT_DEFINITION_FORMATION_WITH_SPECIFIED_SOURCE ( 'ANY', '', #267, .NOT_KNOWN. ) ;
#183 = ORIENTED_EDGE ( 'NONE', *, *, #238, .F. ) ;
#184 = PLANE ( 'NONE',  #20 ) ;
#185 = EDGE_LOOP ( 'NONE', ( #257, #155 ) ) ;
#186 = CARTESIAN_POINT ( 'NONE',  ( 0.000000000000000000, 0.000000000000000000, 0.000000000000000000 ) ) ;
#187 = CIRCLE ( 'NONE', #223, 2.000000000000000000 ) ;
#188 = AXIS2_PLACEMENT_3D ( 'NONE', #248, #117, #39 ) ;
#189 =( NAMED_UNIT ( * ) SI_UNIT ( $, .STERADIAN. ) SOLID_ANGLE_UNIT ( ) );
#190 =( NAMED_UNIT ( * ) SI_UNIT ( $, .STERADIAN. ) SOLID_ANGLE_UNIT ( ) );
#191 = CYLINDRICAL_SURFACE ( 'NONE', #158, 2.999999999999995559 ) ;
#192 = FACE_OUTER_BOUND ( 'NONE', #348, .T. ) ;
#193 = CARTESIAN_POINT ( 'NONE',  ( -2.999999999999997335, 63.00000000000000000, 0.000000000000000000 ) ) ;
#194 = CARTESIAN_POINT ( 'NONE',  ( 1.469576158976823750E-15, 63.00000000000000000, 0.000000000000000000 ) ) ;
#195 = AXIS2_PLACEMENT_3D ( 'NONE', #172, #289, #311 ) ;
#196 = STYLED_ITEM ( 'NONE', ( #263 ), #230 ) ;
#197 = UNCERTAINTY_MEASURE_WITH_UNIT (LENGTH_MEASURE( 1.000000000000000082E-05 ), #307, 'distance_accuracy_value', 'NONE');
#198 = PRESENTATION_STYLE_ASSIGNMENT (( #56 ) ) ;
#199 = DIRECTION ( 'NONE',  ( 0.000000000000000000, 0.000000000000000000, -1.000000000000000000 ) ) ;
#200 = VERTEX_POINT ( 'NONE', #231 ) ;
#201 = PLANE ( 'NONE',  #317 ) ;
#202 = DIRECTION ( 'NONE',  ( -0.000000000000000000, -1.000000000000000000, -0.000000000000000000 ) ) ;
#203 = ORIENTED_EDGE ( 'NONE', *, *, #131, .T. ) ;
#204 = AXIS2_PLACEMENT_3D ( 'NONE', #275, #270, #14 ) ;
#205 = EDGE_CURVE ( 'NONE', #353, #101, #143, .T. ) ;
#206 = SURFACE_SIDE_STYLE ('',( #354 ) ) ;
#207 = CARTESIAN_POINT ( 'NONE',  ( 3.673940397442059868E-16, 0.000000000000000000, 3.000000000000000000 ) ) ;
#208 = CARTESIAN_POINT ( 'NONE',  ( 3.000000000000000000, 63.00000000000000000, 0.000000000000000000 ) ) ;
#209 = CYLINDRICAL_SURFACE ( 'NONE', #58, 3.000000000000000000 ) ;
#210 = AXIS2_PLACEMENT_3D ( 'NONE', #113, #359, #333 ) ;
#211 = CIRCLE ( 'NONE', #210, 2.999999999999998668 ) ;
#212 = VERTEX_POINT ( 'NONE', #319 ) ;
#213 = COLOUR_RGB ( '',0.7921568627450980005, 0.8196078431372548767, 0.9333333333333333481 ) ;
#214 =( LENGTH_UNIT ( ) NAMED_UNIT ( * ) SI_UNIT ( .MILLI., .METRE. ) );
#215 = ORIENTED_EDGE ( 'NONE', *, *, #205, .T. ) ;
#216 =( LENGTH_UNIT ( ) NAMED_UNIT ( * ) SI_UNIT ( .MILLI., .METRE. ) );
#217 = EDGE_LOOP ( 'NONE', ( #132, #237, #48, #82 ) ) ;
#218 = SURFACE_SIDE_STYLE ('',( #181 ) ) ;
#219 = ADVANCED_FACE ( 'NONE', ( #32 ), #201, .T. ) ;
#220 =( NAMED_UNIT ( * ) PLANE_ANGLE_UNIT ( ) SI_UNIT ( $, .RADIAN. ) );
#221 = ADVANCED_BREP_SHAPE_REPRESENTATION ( '59694', ( #262, #276, #116 ), #269 ) ;
#222 = CARTESIAN_POINT ( 'NONE',  ( 0.000000000000000000, 0.000000000000000000, 0.000000000000000000 ) ) ;
#223 = AXIS2_PLACEMENT_3D ( 'NONE', #222, #340, #91 ) ;
#224 = AXIS2_PLACEMENT_3D ( 'NONE', #21, #87, #112 ) ;
#225 = DIRECTION ( 'NONE',  ( -1.213614799521464586E-16, 1.000000000000000000, -0.000000000000000000 ) ) ;
#226 = CARTESIAN_POINT ( 'NONE',  ( 0.000000000000000000, 1.000000000000000000, -2.000000000000000000 ) ) ;
#227 = FILL_AREA_STYLE_COLOUR ( '', #255 ) ;
#228 = PRESENTATION_LAYER_ASSIGNMENT (  '', '', ( #278 ) ) ;
#229 = FACE_OUTER_BOUND ( 'NONE', #79, .T. ) ;
#230 = ADVANCED_FACE ( 'NONE', ( #229 ), #96, .T. ) ;
#231 = CARTESIAN_POINT ( 'NONE',  ( 3.673940397442059375E-16, 1.000000000000000000, 3.000000000000000000 ) ) ;
#232 = DIRECTION ( 'NONE',  ( -1.213614799521464586E-16, 1.000000000000000000, -0.000000000000000000 ) ) ;
#233 = COLOUR_RGB ( '',1.000000000000000000, 0.000000000000000000, 0.000000000000000000 ) ;
#234 =( NAMED_UNIT ( * ) SI_UNIT ( $, .STERADIAN. ) SOLID_ANGLE_UNIT ( ) );
#235 = CARTESIAN_POINT ( 'NONE',  ( 0.000000000000000000, 9.000000000000000000, 0.000000000000000000 ) ) ;
#236 = DIRECTION ( 'NONE',  ( -0.000000000000000000, -1.000000000000000000, -0.000000000000000000 ) ) ;
#237 = ORIENTED_EDGE ( 'NONE', *, *, #37, .T. ) ;
#238 = EDGE_CURVE ( 'NONE', #101, #357, #295, .T. ) ;
#239 = SURFACE_STYLE_USAGE ( .BOTH. , #49 ) ;
#240 = MECHANICAL_DESIGN_GEOMETRIC_PRESENTATION_REPRESENTATION (  '', ( #40 ), #350 ) ;
#241 =( GEOMETRIC_REPRESENTATION_CONTEXT ( 3 ) GLOBAL_UNCERTAINTY_ASSIGNED_CONTEXT ( ( #197 ) ) GLOBAL_UNIT_ASSIGNED_CONTEXT ( ( #307, #161, #351 ) ) REPRESENTATION_CONTEXT ( 'NONE', 'WORKASPACE' ) );
#242 = CARTESIAN_POINT ( 'NONE',  ( 3.061616997868383141E-16, 0.000000000000000000, 2.000000000000000000 ) ) ;
#243 = APPLICATION_CONTEXT ( 'automotive_design' ) ;
#244 = FACE_OUTER_BOUND ( 'NONE', #9, .T. ) ;
#245 = ORIENTED_EDGE ( 'NONE', *, *, #95, .F. ) ;
#246 =( LENGTH_UNIT ( ) NAMED_UNIT ( * ) SI_UNIT ( .MILLI., .METRE. ) );
#247 = CARTESIAN_POINT ( 'NONE',  ( 0.000000000000000000, 1.000000000000000000, 0.000000000000000000 ) ) ;
#248 = CARTESIAN_POINT ( 'NONE',  ( 0.000000000000000000, 1.000000000000000000, 0.000000000000000000 ) ) ;
#249 = CARTESIAN_POINT ( 'NONE',  ( 1.469576158976823750E-15, 63.00000000000000000, 0.000000000000000000 ) ) ;
#250 =( NAMED_UNIT ( * ) SI_UNIT ( $, .STERADIAN. ) SOLID_ANGLE_UNIT ( ) );
#251 =( NAMED_UNIT ( * ) SI_UNIT ( $, .STERADIAN. ) SOLID_ANGLE_UNIT ( ) );
#252 = DIRECTION ( 'NONE',  ( -0.000000000000000000, -1.000000000000000000, -0.000000000000000000 ) ) ;
#253 = CARTESIAN_POINT ( 'NONE',  ( 8.023096076392732812E-15, 9.000000000000001776, 0.000000000000000000 ) ) ;
#254 = PRESENTATION_LAYER_ASSIGNMENT (  '', '', ( #40 ) ) ;
#255 = COLOUR_RGB ( '',0.7921568627450980005, 0.8196078431372548767, 0.9333333333333333481 ) ;
#256 = DIRECTION ( 'NONE',  ( 0.000000000000000000, 0.000000000000000000, 1.000000000000000000 ) ) ;
#257 = ORIENTED_EDGE ( 'NONE', *, *, #18, .F. ) ;
#258 = EDGE_CURVE ( 'NONE', #136, #212, #356, .T. ) ;
#259 = AXIS2_PLACEMENT_3D ( 'NONE', #194, #336, #335 ) ;
#260 = CIRCLE ( 'NONE', #70, 3.000000000000000000 ) ;
#261 = MECHANICAL_DESIGN_GEOMETRIC_PRESENTATION_REPRESENTATION (  '', ( #123 ), #241 ) ;
#262 = MANIFOLD_SOLID_BREP ( 'Revolve - Cutting Edge', #27 ) ;
#263 = PRESENTATION_STYLE_ASSIGNMENT (( #347 ) ) ;
#264 = ADVANCED_FACE ( 'NONE', ( #154 ), #72, .T. ) ;
#265 = FILL_AREA_STYLE ('',( #35 ) ) ;
#266 = ORIENTED_EDGE ( 'NONE', *, *, #63, .T. ) ;
#267 = PRODUCT ( '59694', '59694', '', ( #141 ) ) ;
#268 = PRESENTATION_LAYER_ASSIGNMENT (  '', '', ( #33 ) ) ;
#269 =( GEOMETRIC_REPRESENTATION_CONTEXT ( 3 ) GLOBAL_UNCERTAINTY_ASSIGNED_CONTEXT ( ( #360 ) ) GLOBAL_UNIT_ASSIGNED_CONTEXT ( ( #216, #138, #251 ) ) REPRESENTATION_CONTEXT ( 'NONE', 'WORKASPACE' ) );
#270 = DIRECTION ( 'NONE',  ( -0.000000000000000000, -1.000000000000000000, -0.000000000000000000 ) ) ;
#271 = APPLICATION_CONTEXT ( 'automotive_design' ) ;
#272 = CARTESIAN_POINT ( 'NONE',  ( 0.000000000000000000, 0.000000000000000000, 0.000000000000000000 ) ) ;
#273 = ORIENTED_EDGE ( 'NONE', *, *, #18, .T. ) ;
#274 =( NAMED_UNIT ( * ) PLANE_ANGLE_UNIT ( ) SI_UNIT ( $, .RADIAN. ) );
#275 = CARTESIAN_POINT ( 'NONE',  ( 0.000000000000000000, 9.000000000000000000, 0.000000000000000000 ) ) ;
#276 = MANIFOLD_SOLID_BREP ( 'Revolve - Tool Body (Straight Shanked)', #324 ) ;
#277 = DIRECTION ( 'NONE',  ( 1.000000000000000000, 1.213614799521464586E-16, 0.000000000000000000 ) ) ;
#278 = STYLED_ITEM ( 'NONE', ( #198 ), #104 ) ;
#279 = VECTOR ( 'NONE', #313, 1000.000000000000000 ) ;
#280 = ORIENTED_EDGE ( 'NONE', *, *, #304, .F. ) ;
#281 = DIRECTION ( 'NONE',  ( 1.000000000000000000, 0.000000000000000000, 0.000000000000000000 ) ) ;
#282 = CARTESIAN_POINT ( 'NONE',  ( 2.999999999999996891, 63.00000000000000000, 3.673940397442054445E-16 ) ) ;
#283 = ADVANCED_FACE ( 'NONE', ( #102 ), #184, .F. ) ;
#284 = SURFACE_STYLE_FILL_AREA ( #83 ) ;
#285 = CARTESIAN_POINT ( 'NONE',  ( 0.000000000000000000, 1.000000000000000000, -3.000000000000000000 ) ) ;
#286 = PRODUCT_DEFINITION_CONTEXT ( 'detailed design', #243, 'design' ) ;
#287 = PRODUCT_DEFINITION_SHAPE ( 'NONE', 'NONE',  #358 ) ;
#288 = AXIS2_PLACEMENT_3D ( 'NONE', #303, #130, #330 ) ;
#289 = DIRECTION ( 'NONE',  ( -0.000000000000000000, -1.000000000000000000, -0.000000000000000000 ) ) ;
#290 = CARTESIAN_POINT ( 'NONE',  ( 0.000000000000000000, 0.000000000000000000, 0.000000000000000000 ) ) ;
#291 =( NAMED_UNIT ( * ) PLANE_ANGLE_UNIT ( ) SI_UNIT ( $, .RADIAN. ) );
#292 = SURFACE_STYLE_FILL_AREA ( #8 ) ;
#293 = ADVANCED_FACE ( 'NONE', ( #126 ), #133, .F. ) ;
#294 = ORIENTED_EDGE ( 'NONE', *, *, #137, .F. ) ;
#295 = LINE ( 'NONE', #1, #28 ) ;
#296 = MECHANICAL_DESIGN_GEOMETRIC_PRESENTATION_REPRESENTATION (  '', ( #310 ), #11 ) ;
#297 =( LENGTH_UNIT ( ) NAMED_UNIT ( * ) SI_UNIT ( .MILLI., .METRE. ) );
#298 = PRODUCT_RELATED_PRODUCT_CATEGORY ( 'part', '', ( #267 ) ) ;
#299 = EDGE_LOOP ( 'NONE', ( #294, #325 ) ) ;
#300 = VERTEX_POINT ( 'NONE', #26 ) ;
#301 =( GEOMETRIC_REPRESENTATION_CONTEXT ( 3 ) GLOBAL_UNCERTAINTY_ASSIGNED_CONTEXT ( ( #61 ) ) GLOBAL_UNIT_ASSIGNED_CONTEXT ( ( #214, #274, #305 ) ) REPRESENTATION_CONTEXT ( 'NONE', 'WORKASPACE' ) );
#302 = DIRECTION ( 'NONE',  ( 1.213614799521464586E-16, -1.000000000000000000, 0.000000000000000000 ) ) ;
#303 = CARTESIAN_POINT ( 'NONE',  ( 2.449293598294706414E-16, 1.000000000000000000, 2.000000000000000000 ) ) ;
#304 = EDGE_CURVE ( 'NONE', #149, #136, #30, .T. ) ;
#305 =( NAMED_UNIT ( * ) SI_UNIT ( $, .STERADIAN. ) SOLID_ANGLE_UNIT ( ) );
#306 = ORIENTED_EDGE ( 'NONE', *, *, #131, .F. ) ;
#307 =( LENGTH_UNIT ( ) NAMED_UNIT ( * ) SI_UNIT ( .MILLI., .METRE. ) );
#308 = UNCERTAINTY_MEASURE_WITH_UNIT (LENGTH_MEASURE( 1.000000000000000082E-05 ), #80, 'distance_accuracy_value', 'NONE');
#309 = ORIENTED_EDGE ( 'NONE', *, *, #63, .F. ) ;
#310 = STYLED_ITEM ( 'NONE', ( #78 ), #276 ) ;
#311 = DIRECTION ( 'NONE',  ( 0.000000000000000000, 0.000000000000000000, -1.000000000000000000 ) ) ;
#312 = DIRECTION ( 'NONE',  ( -0.000000000000000000, -1.000000000000000000, -0.000000000000000000 ) ) ;
#313 = DIRECTION ( 'NONE',  ( -0.000000000000000000, -1.000000000000000000, -0.000000000000000000 ) ) ;
#314 = CARTESIAN_POINT ( 'NONE',  ( 1.469576158976823750E-15, 63.00000000000000000, 0.000000000000000000 ) ) ;
#315 = CIRCLE ( 'NONE', #204, 3.000000000000000000 ) ;
#316 = FILL_AREA_STYLE_COLOUR ( '', #19 ) ;
#317 = AXIS2_PLACEMENT_3D ( 'NONE', #176, #177, #42 ) ;
#318 = FILL_AREA_STYLE_COLOUR ( '', #115 ) ;
#319 = CARTESIAN_POINT ( 'NONE',  ( 0.000000000000000000, 0.000000000000000000, -2.000000000000000000 ) ) ;
#320 = COLOUR_RGB ( '',1.000000000000000000, 0.000000000000000000, 0.000000000000000000 ) ;
#321 = SURFACE_SIDE_STYLE ('',( #153 ) ) ;
#322 =( LENGTH_UNIT ( ) NAMED_UNIT ( * ) SI_UNIT ( .MILLI., .METRE. ) );
#323 = EDGE_CURVE ( 'NONE', #357, #300, #67, .T. ) ;
#324 = CLOSED_SHELL ( 'NONE', ( #331, #293, #105, #283 ) ) ;
#325 = ORIENTED_EDGE ( 'NONE', *, *, #205, .F. ) ;
#326 = FILL_AREA_STYLE_COLOUR ( '', #65 ) ;
#327 = PRESENTATION_LAYER_ASSIGNMENT (  '', '', ( #123 ) ) ;
#328 = PRESENTATION_STYLE_ASSIGNMENT (( #239 ) ) ;
#329 = ORIENTED_EDGE ( 'NONE', *, *, #304, .T. ) ;
#330 = DIRECTION ( 'NONE',  ( -1.224646799147353207E-16, 0.000000000000000000, -1.000000000000000000 ) ) ;
#331 = ADVANCED_FACE ( 'NONE', ( #244 ), #191, .T. ) ;
#332 = SURFACE_SIDE_STYLE ('',( #284 ) ) ;
#333 = DIRECTION ( 'NONE',  ( -1.000000000000000000, 0.000000000000000000, 0.000000000000000000 ) ) ;
#334 = DIRECTION ( 'NONE',  ( -1.213614799521464586E-16, 1.000000000000000000, -0.000000000000000000 ) ) ;
#335 = DIRECTION ( 'NONE',  ( -1.000000000000000000, 0.000000000000000000, 0.000000000000000000 ) ) ;
#336 = DIRECTION ( 'NONE',  ( -1.213614799521464586E-16, 1.000000000000000000, -0.000000000000000000 ) ) ;
#337 = CARTESIAN_POINT ( 'NONE',  ( 3.000000000000000888, 9.000000000000001776, 3.673940397442056910E-16 ) ) ;
#338 = CYLINDRICAL_SURFACE ( 'NONE', #259, 2.999999999999995559 ) ;
#339 = UNCERTAINTY_MEASURE_WITH_UNIT (LENGTH_MEASURE( 1.000000000000000082E-05 ), #246, 'distance_accuracy_value', 'NONE');
#340 = DIRECTION ( 'NONE',  ( -0.000000000000000000, -1.000000000000000000, -0.000000000000000000 ) ) ;
#341 =( LENGTH_UNIT ( ) NAMED_UNIT ( * ) SI_UNIT ( .MILLI., .METRE. ) );
#342 = ADVANCED_FACE ( 'NONE', ( #365 ), #12, .T. ) ;
#343 = SURFACE_SIDE_STYLE ('',( #292 ) ) ;
#344 = FILL_AREA_STYLE ('',( #227 ) ) ;
#345 = AXIS2_PLACEMENT_3D ( 'NONE', #150, #7, #122 ) ;
#346 =( GEOMETRIC_REPRESENTATION_CONTEXT ( 3 ) GLOBAL_UNCERTAINTY_ASSIGNED_CONTEXT ( ( #53 ) ) GLOBAL_UNIT_ASSIGNED_CONTEXT ( ( #119, #364, #189 ) ) REPRESENTATION_CONTEXT ( 'NONE', 'WORKASPACE' ) );
#347 = SURFACE_STYLE_USAGE ( .BOTH. , #321 ) ;
#348 = EDGE_LOOP ( 'NONE', ( #175, #215, #134, #309 ) ) ;
#349 = PRESENTATION_STYLE_ASSIGNMENT (( #178 ) ) ;
#350 =( GEOMETRIC_REPRESENTATION_CONTEXT ( 3 ) GLOBAL_UNCERTAINTY_ASSIGNED_CONTEXT ( ( #339 ) ) GLOBAL_UNIT_ASSIGNED_CONTEXT ( ( #246, #291, #190 ) ) REPRESENTATION_CONTEXT ( 'NONE', 'WORKASPACE' ) );
#351 =( NAMED_UNIT ( * ) SI_UNIT ( $, .STERADIAN. ) SOLID_ANGLE_UNIT ( ) );
#352 = DIRECTION ( 'NONE',  ( 0.000000000000000000, 0.000000000000000000, -1.000000000000000000 ) ) ;
#353 = VERTEX_POINT ( 'NONE', #337 ) ;
#354 = SURFACE_STYLE_FILL_AREA ( #344 ) ;
#355 = ORIENTED_EDGE ( 'NONE', *, *, #118, .T. ) ;
#356 = CIRCLE ( 'NONE', #41, 0.9999999999999997780 ) ;
#357 = VERTEX_POINT ( 'NONE', #193 ) ;
#358 = PRODUCT_DEFINITION ( 'UNKNOWN', '', #182, #286 ) ;
#359 = DIRECTION ( 'NONE',  ( -1.213614799521464586E-16, 1.000000000000000000, -0.000000000000000000 ) ) ;
#360 = UNCERTAINTY_MEASURE_WITH_UNIT (LENGTH_MEASURE( 1.000000000000000082E-05 ), #216, 'distance_accuracy_value', 'NONE');
#361 = APPLICATION_PROTOCOL_DEFINITION ( 'draft international standard', 'automotive_design', 1998, #243 ) ;
#362 = MECHANICAL_DESIGN_GEOMETRIC_PRESENTATION_REPRESENTATION (  '', ( #33 ), #76 ) ;
#363 = LINE ( 'NONE', #282, #59 ) ;
#364 =( NAMED_UNIT ( * ) PLANE_ANGLE_UNIT ( ) SI_UNIT ( $, .RADIAN. ) );
#365 = FACE_OUTER_BOUND ( 'NONE', #217, .T. ) ;
#366 = DIRECTION ( 'NONE',  ( 0.000000000000000000, 0.000000000000000000, -1.000000000000000000 ) ) ;
#367 = FILL_AREA_STYLE ('',( #316 ) ) ;
#368 = AXIS2_PLACEMENT_3D ( 'NONE', #314, #334, #55 ) ;
#369 = MECHANICAL_DESIGN_GEOMETRIC_PRESENTATION_REPRESENTATION (  '', ( #174 ), #346 ) ;
#370 =( NAMED_UNIT ( * ) SI_UNIT ( $, .STERADIAN. ) SOLID_ANGLE_UNIT ( ) );
ENDSEC;
END-ISO-10303-21;
