ISO-10303-21;
HEADER;
FILE_DESCRIPTION (( 'STEP AP214' ),
    '1' );
FILE_NAME ('Micro_EMS-125-2.STEP',
    '2021-09-01T17:39:56',
    ( '' ),
    ( '' ),
    'SwSTEP 2.0',
    'SolidWorks 2020',
    '' );
FILE_SCHEMA (( 'AUTOMOTIVE_DESIGN' ));
ENDSEC;

DATA;
#1 =( NAMED_UNIT ( * ) SI_UNIT ( $, .STERADIAN. ) SOLID_ANGLE_UNIT ( ) );
#2 = ORIENTED_EDGE ( 'NONE', *, *, #109, .T. ) ;
#3 =( NAMED_UNIT ( * ) SI_UNIT ( $, .STERADIAN. ) SOLID_ANGLE_UNIT ( ) );
#4 = CIRCLE ( 'NONE', #66, 0.06243749999999999994 ) ;
#5 = EDGE_CURVE ( 'NONE', #7, #119, #79, .T. ) ;
#6 = PRODUCT_CONTEXT ( 'NONE', #211, 'mechanical' ) ;
#7 = VERTEX_POINT ( 'NONE', #151 ) ;
#8 = UNCERTAINTY_MEASURE_WITH_UNIT (LENGTH_MEASURE( 1.000000000000000082E-05 ), #213, 'distance_accuracy_value', 'NONE');
#9 = FILL_AREA_STYLE ('',( #36 ) ) ;
#10 =( LENGTH_UNIT ( ) NAMED_UNIT ( * ) SI_UNIT ( $, .METRE. ) );
#11 = AXIS2_PLACEMENT_3D ( 'NONE', #157, #245, #44 ) ;
#12 = DIRECTION ( 'NONE',  ( -1.000000000000000000, 0.0000000000000000000, 0.0000000000000000000 ) ) ;
#13 = DIRECTION ( 'NONE',  ( 1.224646799147353700E-16, 0.0000000000000000000, 1.000000000000000000 ) ) ;
#14 = SURFACE_SIDE_STYLE ('',( #103 ) ) ;
#15 = CLOSED_SHELL ( 'NONE', ( #58, #40, #126, #267, #61, #102, #168, #258, #178, #16 ) ) ;
#16 = ADVANCED_FACE ( 'NONE', ( #218 ), #175, .F. ) ;
#17 = CONICAL_SURFACE ( 'NONE', #31, 0.04750000000000064587, 0.7853981633974466137 ) ;
#18 = CARTESIAN_POINT ( 'NONE',  ( 0.04750000000000064587, 5.817072295950006528E-18, 1.500000000000000222 ) ) ;
#19 = CARTESIAN_POINT ( 'NONE',  ( 0.04750000000000064587, 6.735557395310483192E-18, 1.500000000000000222 ) ) ;
#20 = FACE_OUTER_BOUND ( 'NONE', #33, .T. ) ;
#21 = AXIS2_PLACEMENT_3D ( 'NONE', #220, #184, #94 ) ;
#22 = FACE_OUTER_BOUND ( 'NONE', #259, .T. ) ;
#23 = DIRECTION ( 'NONE',  ( 0.0000000000000000000, 0.0000000000000000000, 1.000000000000000000 ) ) ;
#24 = ORIENTED_EDGE ( 'NONE', *, *, #190, .T. ) ;
#25 = LENGTH_MEASURE_WITH_UNIT ( LENGTH_MEASURE( 0.02539999999999999897 ), #274 );
#26 = VERTEX_POINT ( 'NONE', #179 ) ;
#27 = DIRECTION ( 'NONE',  ( 1.000000000000000000, 0.0000000000000000000, 0.0000000000000000000 ) ) ;
#28 = ORIENTED_EDGE ( 'NONE', *, *, #109, .F. ) ;
#29 = EDGE_LOOP ( 'NONE', ( #142, #207, #99, #120 ) ) ;
#30 = EDGE_CURVE ( 'NONE', #165, #7, #174, .T. ) ;
#31 = AXIS2_PLACEMENT_3D ( 'NONE', #203, #43, #110 ) ;
#32 =( GEOMETRIC_REPRESENTATION_CONTEXT ( 3 ) GLOBAL_UNCERTAINTY_ASSIGNED_CONTEXT ( ( #35 ) ) GLOBAL_UNIT_ASSIGNED_CONTEXT ( ( #187, #206, #3 ) ) REPRESENTATION_CONTEXT ( 'NONE', 'WORKASPACE' ) );
#33 = EDGE_LOOP ( 'NONE', ( #76, #188, #143, #106 ) ) ;
#34 = CYLINDRICAL_SURFACE ( 'NONE', #112, 0.06250000000000002776 ) ;
#35 = UNCERTAINTY_MEASURE_WITH_UNIT (LENGTH_MEASURE( 1.000000000000000082E-05 ), #187, 'distance_accuracy_value', 'NONE');
#36 = FILL_AREA_STYLE_COLOUR ( '', #107 ) ;
#37 = CARTESIAN_POINT ( 'NONE',  ( 0.0000000000000000000, 0.0000000000000000000, 1.485000000000000764 ) ) ;
#38 = CIRCLE ( 'NONE', #21, 0.06243750000000001382 ) ;
#39 = CARTESIAN_POINT ( 'NONE',  ( -0.06243749999999999994, 0.0000000000000000000, 1.529277690435258091E-17 ) ) ;
#40 = ADVANCED_FACE ( 'NONE', ( #194 ), #261, .T. ) ;
#41 = CARTESIAN_POINT ( 'NONE',  ( 9.364125142994982608E-34, 0.0000000000000000000, 7.646388452176290456E-18 ) ) ;
#42 = AXIS2_PLACEMENT_3D ( 'NONE', #82, #13, #149 ) ;
#43 = DIRECTION ( 'NONE',  ( 0.0000000000000000000, 0.0000000000000000000, -1.000000000000000000 ) ) ;
#44 = DIRECTION ( 'NONE',  ( 1.000000000000000000, 0.0000000000000000000, 0.0000000000000000000 ) ) ;
#45 = CARTESIAN_POINT ( 'NONE',  ( 0.0000000000000000000, 0.0000000000000000000, 1.500000000000000222 ) ) ;
#46 = AXIS2_PLACEMENT_3D ( 'NONE', #244, #114, #160 ) ;
#47 = LINE ( 'NONE', #199, #176 ) ;
#48 = FILL_AREA_STYLE_COLOUR ( '', #87 ) ;
#49 = ORIENTED_EDGE ( 'NONE', *, *, #115, .T. ) ;
#50 = AXIS2_PLACEMENT_3D ( 'NONE', #246, #222, #137 ) ;
#51 =( LENGTH_UNIT ( ) NAMED_UNIT ( * ) SI_UNIT ( $, .METRE. ) );
#52 = VERTEX_POINT ( 'NONE', #39 ) ;
#53 = EDGE_CURVE ( 'NONE', #78, #7, #56, .T. ) ;
#54 = LENGTH_MEASURE_WITH_UNIT ( LENGTH_MEASURE( 0.02539999999999999897 ), #51 );
#55 = CIRCLE ( 'NONE', #46, 0.04750000000000064587 ) ;
#56 = LINE ( 'NONE', #88, #123 ) ;
#57 = ORIENTED_EDGE ( 'NONE', *, *, #292, .F. ) ;
#58 = ADVANCED_FACE ( 'NONE', ( #236 ), #285, .T. ) ;
#59 = CARTESIAN_POINT ( 'NONE',  ( 6.127574818941429733E-17, 0.0000000000000000000, 0.5003544551137261154 ) ) ;
#60 =( NAMED_UNIT ( * ) SI_UNIT ( $, .STERADIAN. ) SOLID_ANGLE_UNIT ( ) );
#61 = ADVANCED_FACE ( 'NONE', ( #127 ), #34, .T. ) ;
#62 = DIRECTION ( 'NONE',  ( 1.000000000000000000, 0.0000000000000000000, 0.0000000000000000000 ) ) ;
#63 = ADVANCED_BREP_SHAPE_REPRESENTATION ( 'Micro_EMS-125-2', ( #83, #105 ), #279 ) ;
#64 = DIRECTION ( 'NONE',  ( -1.224646799147353700E-16, -0.0000000000000000000, -1.000000000000000000 ) ) ;
#65 = LINE ( 'NONE', #18, #189 ) ;
#66 = AXIS2_PLACEMENT_3D ( 'NONE', #158, #64, #153 ) ;
#67 = DIRECTION ( 'NONE',  ( -1.224646799147353700E-16, -0.0000000000000000000, -1.000000000000000000 ) ) ;
#68 = CARTESIAN_POINT ( 'NONE',  ( 0.06243749999999999994, 7.646388452176287375E-18, -9.478001694819074349E-34 ) ) ;
#69 = FACE_OUTER_BOUND ( 'NONE', #96, .T. ) ;
#70 = VECTOR ( 'NONE', #225, 39.37007874015748143 ) ;
#71 = DIRECTION ( 'NONE',  ( -0.7071067811865462405, 0.0000000000000000000, -0.7071067811865486830 ) ) ;
#72 = ORIENTED_EDGE ( 'NONE', *, *, #154, .T. ) ;
#73 = EDGE_LOOP ( 'NONE', ( #212, #275, #228, #262 ) ) ;
#74 = AXIS2_PLACEMENT_3D ( 'NONE', #200, #89, #202 ) ;
#75 = DIRECTION ( 'NONE',  ( -0.1736481776669310528, 2.126576849575781776E-17, 0.9848077530122080203 ) ) ;
#76 = ORIENTED_EDGE ( 'NONE', *, *, #260, .T. ) ;
#77 = ORIENTED_EDGE ( 'NONE', *, *, #5, .F. ) ;
#78 = VERTEX_POINT ( 'NONE', #219 ) ;
#79 = CIRCLE ( 'NONE', #166, 0.06250000000000002776 ) ;
#80 = CIRCLE ( 'NONE', #243, 0.06243750000000001382 ) ;
#81 = CARTESIAN_POINT ( 'NONE',  ( 0.0000000000000000000, 0.0000000000000000000, 0.0000000000000000000 ) ) ;
#82 = CARTESIAN_POINT ( 'NONE',  ( 6.123233995736768501E-17, 0.0000000000000000000, 0.5000000000000000000 ) ) ;
#83 = MANIFOLD_SOLID_BREP ( 'Cut-Revolve1', #15 ) ;
#84 = PRESENTATION_STYLE_ASSIGNMENT (( #198 ) ) ;
#85 = PRODUCT_RELATED_PRODUCT_CATEGORY ( 'part', '', ( #128 ) ) ;
#86 = DIRECTION ( 'NONE',  ( 1.000000000000000000, 0.0000000000000000000, 0.0000000000000000000 ) ) ;
#87 = COLOUR_RGB ( '',0.7921568627450980005, 0.8196078431372548767, 0.9333333333333333481 ) ;
#88 = CARTESIAN_POINT ( 'NONE',  ( 0.06250000000000002776, 7.654042494670959086E-18, 1.500000000000000222 ) ) ;
#89 = DIRECTION ( 'NONE',  ( 0.0000000000000000000, 0.0000000000000000000, -1.000000000000000000 ) ) ;
#90 = DIRECTION ( 'NONE',  ( -0.0000000000000000000, -0.0000000000000000000, -1.000000000000000000 ) ) ;
#91 = APPLICATION_CONTEXT ( 'automotive_design' ) ;
#92 = VECTOR ( 'NONE', #97, 39.37007874015748143 ) ;
#93 = DIRECTION ( 'NONE',  ( 0.7071067811865462405, 8.659560562354916834E-17, -0.7071067811865486830 ) ) ;
#94 = DIRECTION ( 'NONE',  ( -1.000000000000000000, 0.0000000000000000000, 0.0000000000000000000 ) ) ;
#95 = FACE_OUTER_BOUND ( 'NONE', #171, .T. ) ;
#96 = EDGE_LOOP ( 'NONE', ( #57, #232, #167, #100 ) ) ;
#97 = DIRECTION ( 'NONE',  ( -1.224646799147353700E-16, -0.0000000000000000000, -1.000000000000000000 ) ) ;
#98 = ORIENTED_EDGE ( 'NONE', *, *, #101, .T. ) ;
#99 = ORIENTED_EDGE ( 'NONE', *, *, #239, .F. ) ;
#100 = ORIENTED_EDGE ( 'NONE', *, *, #5, .T. ) ;
#101 = EDGE_CURVE ( 'NONE', #78, #26, #223, .T. ) ;
#102 = ADVANCED_FACE ( 'NONE', ( #241 ), #294, .T. ) ;
#103 = SURFACE_STYLE_FILL_AREA ( #9 ) ;
#104 = CARTESIAN_POINT ( 'NONE',  ( 0.0000000000000000000, 0.0000000000000000000, 0.0000000000000000000 ) ) ;
#105 = AXIS2_PLACEMENT_3D ( 'NONE', #229, #231, #27 ) ;
#106 = ORIENTED_EDGE ( 'NONE', *, *, #247, .F. ) ;
#107 = COLOUR_RGB ( '',0.7921568627450980005, 0.8196078431372548767, 0.9333333333333333481 ) ;
#108 = DIRECTION ( 'NONE',  ( -1.224646799147353700E-16, -0.0000000000000000000, -1.000000000000000000 ) ) ;
#109 = EDGE_CURVE ( 'NONE', #192, #52, #148, .T. ) ;
#110 = DIRECTION ( 'NONE',  ( -1.000000000000000000, 0.0000000000000000000, 0.0000000000000000000 ) ) ;
#111 = CYLINDRICAL_SURFACE ( 'NONE', #253, 0.06250000000000002776 ) ;
#112 = AXIS2_PLACEMENT_3D ( 'NONE', #237, #173, #12 ) ;
#113 = DIMENSIONAL_EXPONENTS ( 1.000000000000000000, 0.0000000000000000000, 0.0000000000000000000, 0.0000000000000000000, 0.0000000000000000000, 0.0000000000000000000, 0.0000000000000000000 ) ;
#114 = DIRECTION ( 'NONE',  ( 0.0000000000000000000, 0.0000000000000000000, 1.000000000000000000 ) ) ;
#115 = EDGE_CURVE ( 'NONE', #234, #170, #55, .T. ) ;
#116 = CARTESIAN_POINT ( 'NONE',  ( 6.123233995736768501E-17, 0.0000000000000000000, 0.5000000000000000000 ) ) ;
#117 = CIRCLE ( 'NONE', #172, 0.04750000000000064587 ) ;
#118 = SURFACE_STYLE_FILL_AREA ( #273 ) ;
#119 = VERTEX_POINT ( 'NONE', #248 ) ;
#120 = ORIENTED_EDGE ( 'NONE', *, *, #249, .F. ) ;
#121 = APPLICATION_PROTOCOL_DEFINITION ( 'draft international standard', 'automotive_design', 1998, #211 ) ;
#122 = EDGE_LOOP ( 'NONE', ( #280, #230, #24, #177 ) ) ;
#123 = VECTOR ( 'NONE', #197, 39.37007874015748143 ) ;
#124 = CARTESIAN_POINT ( 'NONE',  ( -0.06243749999999995137, 7.646388452176288915E-18, 0.5000000000000000000 ) ) ;
#125 = EDGE_CURVE ( 'NONE', #170, #234, #117, .T. ) ;
#126 = ADVANCED_FACE ( 'NONE', ( #133 ), #17, .T. ) ;
#127 = FACE_OUTER_BOUND ( 'NONE', #186, .T. ) ;
#128 = PRODUCT ( 'Micro_EMS-125-2', 'Micro_EMS-125-2', '', ( #6 ) ) ;
#129 = DIRECTION ( 'NONE',  ( -1.224646799147353700E-16, -0.0000000000000000000, -1.000000000000000000 ) ) ;
#130 =( NAMED_UNIT ( * ) PLANE_ANGLE_UNIT ( ) SI_UNIT ( $, .RADIAN. ) );
#131 = DIRECTION ( 'NONE',  ( 0.0000000000000000000, 0.0000000000000000000, -1.000000000000000000 ) ) ;
#132 = DIRECTION ( 'NONE',  ( -1.000000000000000000, 0.0000000000000000000, 1.224646799147353700E-16 ) ) ;
#133 = FACE_OUTER_BOUND ( 'NONE', #73, .T. ) ;
#134 = PRESENTATION_LAYER_ASSIGNMENT (  '', '', ( #235 ) ) ;
#135 = CARTESIAN_POINT ( 'NONE',  ( 6.127574818941429733E-17, 0.0000000000000000000, 0.5003544551137261154 ) ) ;
#136 = LINE ( 'NONE', #140, #70 ) ;
#137 = DIRECTION ( 'NONE',  ( 1.000000000000000000, 0.0000000000000000000, 0.0000000000000000000 ) ) ;
#138 = EDGE_CURVE ( 'NONE', #209, #165, #38, .T. ) ;
#139 = AXIS2_PLACEMENT_3D ( 'NONE', #180, #108, #290 ) ;
#140 = CARTESIAN_POINT ( 'NONE',  ( -0.06243750000000001382, 0.0000000000000000000, 7.646388452176291997E-18 ) ) ;
#141 = SURFACE_SIDE_STYLE ('',( #118 ) ) ;
#142 = ORIENTED_EDGE ( 'NONE', *, *, #138, .T. ) ;
#143 = ORIENTED_EDGE ( 'NONE', *, *, #190, .F. ) ;
#144 = CONICAL_SURFACE ( 'NONE', #11, 0.06243750000000001382, 0.1745329251994337805 ) ;
#145 = PRODUCT_DEFINITION ( 'UNKNOWN', '', #208, #216 ) ;
#146 = EDGE_CURVE ( 'NONE', #234, #78, #65, .T. ) ;
#147 = EDGE_LOOP ( 'NONE', ( #254, #49 ) ) ;
#148 = CIRCLE ( 'NONE', #201, 0.06243749999999999994 ) ;
#149 = DIRECTION ( 'NONE',  ( 1.000000000000000000, 0.0000000000000000000, 0.0000000000000000000 ) ) ;
#150 = DIRECTION ( 'NONE',  ( -1.224646799147353700E-16, -0.0000000000000000000, -1.000000000000000000 ) ) ;
#151 = CARTESIAN_POINT ( 'NONE',  ( 0.06250000000000008327, 7.654042494670966789E-18, 0.5003544551137261154 ) ) ;
#152 = DIRECTION ( 'NONE',  ( 0.0000000000000000000, 0.0000000000000000000, 1.000000000000000000 ) ) ;
#153 = DIRECTION ( 'NONE',  ( -1.000000000000000000, 0.0000000000000000000, 1.224646799147353947E-16 ) ) ;
#154 = EDGE_CURVE ( 'NONE', #165, #209, #80, .T. ) ;
#155 = DIRECTION ( 'NONE',  ( 1.000000000000000000, 0.0000000000000000000, -0.0000000000000000000 ) ) ;
#156 = AXIS2_PLACEMENT_3D ( 'NONE', #81, #152, #238 ) ;
#157 = CARTESIAN_POINT ( 'NONE',  ( 6.123233995736768501E-17, 0.0000000000000000000, 0.5000000000000000000 ) ) ;
#158 = CARTESIAN_POINT ( 'NONE',  ( 9.364125142994982608E-34, 0.0000000000000000000, 7.646388452176290456E-18 ) ) ;
#159 = VECTOR ( 'NONE', #71, 39.37007874015748854 ) ;
#160 = DIRECTION ( 'NONE',  ( 1.000000000000000000, 0.0000000000000000000, 0.0000000000000000000 ) ) ;
#161 =( GEOMETRIC_REPRESENTATION_CONTEXT ( 3 ) GLOBAL_UNCERTAINTY_ASSIGNED_CONTEXT ( ( #193 ) ) GLOBAL_UNIT_ASSIGNED_CONTEXT ( ( #287, #130, #60 ) ) REPRESENTATION_CONTEXT ( 'NONE', 'WORKASPACE' ) );
#162 = STYLED_ITEM ( 'NONE', ( #252 ), #63 ) ;
#163 =( NAMED_UNIT ( * ) PLANE_ANGLE_UNIT ( ) SI_UNIT ( $, .RADIAN. ) );
#164 = DIMENSIONAL_EXPONENTS ( 1.000000000000000000, 0.0000000000000000000, 0.0000000000000000000, 0.0000000000000000000, 0.0000000000000000000, 0.0000000000000000000, 0.0000000000000000000 ) ;
#165 = VERTEX_POINT ( 'NONE', #289 ) ;
#166 = AXIS2_PLACEMENT_3D ( 'NONE', #59, #129, #62 ) ;
#167 = ORIENTED_EDGE ( 'NONE', *, *, #30, .T. ) ;
#168 = ADVANCED_FACE ( 'NONE', ( #95 ), #195, .T. ) ;
#169 = CARTESIAN_POINT ( 'NONE',  ( -0.04750000000000064587, 0.0000000000000000000, 1.500000000000000222 ) ) ;
#170 = VERTEX_POINT ( 'NONE', #270 ) ;
#171 = EDGE_LOOP ( 'NONE', ( #215, #217, #298, #227 ) ) ;
#172 = AXIS2_PLACEMENT_3D ( 'NONE', #269, #266, #291 ) ;
#173 = DIRECTION ( 'NONE',  ( -0.0000000000000000000, -0.0000000000000000000, -1.000000000000000000 ) ) ;
#174 = LINE ( 'NONE', #240, #182 ) ;
#175 = PLANE ( 'NONE',  #156 ) ;
#176 = VECTOR ( 'NONE', #90, 39.37007874015748143 ) ;
#177 = ORIENTED_EDGE ( 'NONE', *, *, #30, .F. ) ;
#178 = ADVANCED_FACE ( 'NONE', ( #22 ), #224, .T. ) ;
#179 = CARTESIAN_POINT ( 'NONE',  ( -0.06250000000000002776, 0.0000000000000000000, 1.485000000000000764 ) ) ;
#180 = CARTESIAN_POINT ( 'NONE',  ( 0.0000000000000000000, 0.0000000000000000000, 0.0000000000000000000 ) ) ;
#181 = CARTESIAN_POINT ( 'NONE',  ( 0.0000000000000000000, 0.0000000000000000000, 1.500000000000000222 ) ) ;
#182 = VECTOR ( 'NONE', #288, 39.37007874015748143 ) ;
#183 = DIRECTION ( 'NONE',  ( -1.000000000000000000, 0.0000000000000000000, 0.0000000000000000000 ) ) ;
#184 = DIRECTION ( 'NONE',  ( -1.224646799147353700E-16, -0.0000000000000000000, -1.000000000000000000 ) ) ;
#185 = AXIS2_PLACEMENT_3D ( 'NONE', #181, #23, #155 ) ;
#186 = EDGE_LOOP ( 'NONE', ( #255, #98, #264, #77 ) ) ;
#187 =( CONVERSION_BASED_UNIT ( 'INCH', #54 ) LENGTH_UNIT ( ) NAMED_UNIT ( #113 ) );
#188 = ORIENTED_EDGE ( 'NONE', *, *, #53, .T. ) ;
#189 = VECTOR ( 'NONE', #93, 39.37007874015748854 ) ;
#190 = EDGE_CURVE ( 'NONE', #119, #7, #263, .T. ) ;
#191 = APPLICATION_PROTOCOL_DEFINITION ( 'draft international standard', 'automotive_design', 1998, #91 ) ;
#192 = VERTEX_POINT ( 'NONE', #68 ) ;
#193 = UNCERTAINTY_MEASURE_WITH_UNIT (LENGTH_MEASURE( 1.000000000000000082E-05 ), #287, 'distance_accuracy_value', 'NONE');
#194 = FACE_OUTER_BOUND ( 'NONE', #122, .T. ) ;
#195 = CONICAL_SURFACE ( 'NONE', #74, 0.04750000000000064587, 0.7853981633974466137 ) ;
#196 = LENGTH_MEASURE_WITH_UNIT ( LENGTH_MEASURE( 0.02539999999999999897 ), #10 );
#197 = DIRECTION ( 'NONE',  ( -0.0000000000000000000, -0.0000000000000000000, -1.000000000000000000 ) ) ;
#198 = SURFACE_STYLE_USAGE ( .BOTH. , #14 ) ;
#199 = CARTESIAN_POINT ( 'NONE',  ( -0.06250000000000002776, 0.0000000000000000000, 1.500000000000000222 ) ) ;
#200 = CARTESIAN_POINT ( 'NONE',  ( 0.0000000000000000000, 0.0000000000000000000, 1.500000000000000222 ) ) ;
#201 = AXIS2_PLACEMENT_3D ( 'NONE', #41, #67, #271 ) ;
#202 = DIRECTION ( 'NONE',  ( -1.000000000000000000, 0.0000000000000000000, 0.0000000000000000000 ) ) ;
#203 = CARTESIAN_POINT ( 'NONE',  ( 0.0000000000000000000, 0.0000000000000000000, 1.500000000000000222 ) ) ;
#204 = DIRECTION ( 'NONE',  ( -1.224646799147353700E-16, -0.0000000000000000000, -1.000000000000000000 ) ) ;
#205 = MECHANICAL_DESIGN_GEOMETRIC_PRESENTATION_REPRESENTATION (  '', ( #162 ), #32 ) ;
#206 =( NAMED_UNIT ( * ) PLANE_ANGLE_UNIT ( ) SI_UNIT ( $, .RADIAN. ) );
#207 = ORIENTED_EDGE ( 'NONE', *, *, #284, .T. ) ;
#208 = PRODUCT_DEFINITION_FORMATION_WITH_SPECIFIED_SOURCE ( 'ANY', '', #128, .NOT_KNOWN. ) ;
#209 = VERTEX_POINT ( 'NONE', #221 ) ;
#210 = LINE ( 'NONE', #277, #92 ) ;
#211 = APPLICATION_CONTEXT ( 'automotive_design' ) ;
#212 = ORIENTED_EDGE ( 'NONE', *, *, #115, .F. ) ;
#213 =( CONVERSION_BASED_UNIT ( 'INCH', #25 ) LENGTH_UNIT ( ) NAMED_UNIT ( #164 ) );
#214 = ORIENTED_EDGE ( 'NONE', *, *, #284, .F. ) ;
#215 = ORIENTED_EDGE ( 'NONE', *, *, #146, .F. ) ;
#216 = PRODUCT_DEFINITION_CONTEXT ( 'detailed design', #91, 'design' ) ;
#217 = ORIENTED_EDGE ( 'NONE', *, *, #125, .F. ) ;
#218 = FACE_OUTER_BOUND ( 'NONE', #251, .T. ) ;
#219 = CARTESIAN_POINT ( 'NONE',  ( 0.06250000000000002776, 7.654042494670959086E-18, 1.485000000000000764 ) ) ;
#220 = CARTESIAN_POINT ( 'NONE',  ( 6.123233995736768501E-17, 0.0000000000000000000, 0.5000000000000000000 ) ) ;
#221 = CARTESIAN_POINT ( 'NONE',  ( -0.06243749999999995137, 7.650215473423624771E-18, 0.5000000000000000000 ) ) ;
#222 = DIRECTION ( 'NONE',  ( 0.0000000000000000000, 0.0000000000000000000, -1.000000000000000000 ) ) ;
#223 = CIRCLE ( 'NONE', #296, 0.06250000000000002776 ) ;
#224 = CYLINDRICAL_SURFACE ( 'NONE', #139, 0.06243750000000001382 ) ;
#225 = DIRECTION ( 'NONE',  ( -1.224646799147353700E-16, -0.0000000000000000000, -1.000000000000000000 ) ) ;
#226 = SURFACE_STYLE_USAGE ( .BOTH. , #141 ) ;
#227 = ORIENTED_EDGE ( 'NONE', *, *, #101, .F. ) ;
#228 = ORIENTED_EDGE ( 'NONE', *, *, #260, .F. ) ;
#229 = CARTESIAN_POINT ( 'NONE',  ( 0.0000000000000000000, 0.0000000000000000000, 0.0000000000000000000 ) ) ;
#230 = ORIENTED_EDGE ( 'NONE', *, *, #292, .T. ) ;
#231 = DIRECTION ( 'NONE',  ( 0.0000000000000000000, 0.0000000000000000000, 1.000000000000000000 ) ) ;
#232 = ORIENTED_EDGE ( 'NONE', *, *, #154, .F. ) ;
#233 = LINE ( 'NONE', #169, #159 ) ;
#234 = VERTEX_POINT ( 'NONE', #19 ) ;
#235 = STYLED_ITEM ( 'NONE', ( #84 ), #83 ) ;
#236 = FACE_OUTER_BOUND ( 'NONE', #29, .T. ) ;
#237 = CARTESIAN_POINT ( 'NONE',  ( 0.0000000000000000000, 0.0000000000000000000, 1.500000000000000222 ) ) ;
#238 = DIRECTION ( 'NONE',  ( 1.000000000000000000, 0.0000000000000000000, -0.0000000000000000000 ) ) ;
#239 = EDGE_CURVE ( 'NONE', #52, #192, #4, .T. ) ;
#240 = CARTESIAN_POINT ( 'NONE',  ( 0.06243750000000006933, 0.0000000000000000000, 0.5000000000000000000 ) ) ;
#241 = FACE_OUTER_BOUND ( 'NONE', #147, .T. ) ;
#242 = VECTOR ( 'NONE', #75, 39.37007874015748854 ) ;
#243 = AXIS2_PLACEMENT_3D ( 'NONE', #116, #204, #183 ) ;
#244 = CARTESIAN_POINT ( 'NONE',  ( 0.0000000000000000000, 0.0000000000000000000, 1.500000000000000222 ) ) ;
#245 = DIRECTION ( 'NONE',  ( 1.224646799147353700E-16, 0.0000000000000000000, 1.000000000000000000 ) ) ;
#246 = CARTESIAN_POINT ( 'NONE',  ( 0.0000000000000000000, 0.0000000000000000000, 1.485000000000000764 ) ) ;
#247 = EDGE_CURVE ( 'NONE', #26, #119, #47, .T. ) ;
#248 = CARTESIAN_POINT ( 'NONE',  ( -0.06249999999999996531, 0.0000000000000000000, 0.5003544551137261154 ) ) ;
#249 = EDGE_CURVE ( 'NONE', #209, #52, #136, .T. ) ;
#250 = DIMENSIONAL_EXPONENTS ( 1.000000000000000000, 0.0000000000000000000, 0.0000000000000000000, 0.0000000000000000000, 0.0000000000000000000, 0.0000000000000000000, 0.0000000000000000000 ) ;
#251 = EDGE_LOOP ( 'NONE', ( #257, #2 ) ) ;
#252 = PRESENTATION_STYLE_ASSIGNMENT (( #226 ) ) ;
#253 = AXIS2_PLACEMENT_3D ( 'NONE', #45, #276, #297 ) ;
#254 = ORIENTED_EDGE ( 'NONE', *, *, #125, .T. ) ;
#255 = ORIENTED_EDGE ( 'NONE', *, *, #53, .F. ) ;
#256 = LINE ( 'NONE', #124, #242 ) ;
#257 = ORIENTED_EDGE ( 'NONE', *, *, #239, .T. ) ;
#258 = ADVANCED_FACE ( 'NONE', ( #69 ), #144, .T. ) ;
#259 = EDGE_LOOP ( 'NONE', ( #214, #72, #283, #28 ) ) ;
#260 = EDGE_CURVE ( 'NONE', #26, #78, #268, .T. ) ;
#261 = CONICAL_SURFACE ( 'NONE', #42, 0.06243750000000001382, 0.1745329251994337805 ) ;
#262 = ORIENTED_EDGE ( 'NONE', *, *, #299, .F. ) ;
#263 = CIRCLE ( 'NONE', #286, 0.06250000000000002776 ) ;
#264 = ORIENTED_EDGE ( 'NONE', *, *, #247, .T. ) ;
#265 = DIRECTION ( 'NONE',  ( -1.224646799147353700E-16, -0.0000000000000000000, -1.000000000000000000 ) ) ;
#266 = DIRECTION ( 'NONE',  ( 0.0000000000000000000, 0.0000000000000000000, 1.000000000000000000 ) ) ;
#267 = ADVANCED_FACE ( 'NONE', ( #20 ), #111, .T. ) ;
#268 = CIRCLE ( 'NONE', #50, 0.06250000000000002776 ) ;
#269 = CARTESIAN_POINT ( 'NONE',  ( 0.0000000000000000000, 0.0000000000000000000, 1.500000000000000222 ) ) ;
#270 = CARTESIAN_POINT ( 'NONE',  ( -0.04750000000000064587, 0.0000000000000000000, 1.500000000000000222 ) ) ;
#271 = DIRECTION ( 'NONE',  ( -1.000000000000000000, 0.0000000000000000000, 1.224646799147353947E-16 ) ) ;
#272 = MECHANICAL_DESIGN_GEOMETRIC_PRESENTATION_REPRESENTATION (  '', ( #235 ), #161 ) ;
#273 = FILL_AREA_STYLE ('',( #48 ) ) ;
#274 =( LENGTH_UNIT ( ) NAMED_UNIT ( * ) SI_UNIT ( $, .METRE. ) );
#275 = ORIENTED_EDGE ( 'NONE', *, *, #146, .T. ) ;
#276 = DIRECTION ( 'NONE',  ( -0.0000000000000000000, -0.0000000000000000000, -1.000000000000000000 ) ) ;
#277 = CARTESIAN_POINT ( 'NONE',  ( 0.06243750000000001382, 7.646388452176288915E-18, -7.646388452176291997E-18 ) ) ;
#278 = AXIS2_PLACEMENT_3D ( 'NONE', #104, #150, #132 ) ;
#279 =( GEOMETRIC_REPRESENTATION_CONTEXT ( 3 ) GLOBAL_UNCERTAINTY_ASSIGNED_CONTEXT ( ( #8 ) ) GLOBAL_UNIT_ASSIGNED_CONTEXT ( ( #213, #163, #1 ) ) REPRESENTATION_CONTEXT ( 'NONE', 'WORKASPACE' ) );
#280 = ORIENTED_EDGE ( 'NONE', *, *, #138, .F. ) ;
#281 = PRODUCT_DEFINITION_SHAPE ( 'NONE', 'NONE',  #145 ) ;
#282 = SHAPE_DEFINITION_REPRESENTATION ( #281, #63 ) ;
#283 = ORIENTED_EDGE ( 'NONE', *, *, #249, .T. ) ;
#284 = EDGE_CURVE ( 'NONE', #165, #192, #210, .T. ) ;
#285 = CYLINDRICAL_SURFACE ( 'NONE', #278, 0.06243750000000001382 ) ;
#286 = AXIS2_PLACEMENT_3D ( 'NONE', #135, #265, #293 ) ;
#287 =( CONVERSION_BASED_UNIT ( 'INCH', #196 ) LENGTH_UNIT ( ) NAMED_UNIT ( #250 ) );
#288 = DIRECTION ( 'NONE',  ( 0.1736481776669312749, 0.0000000000000000000, 0.9848077530122077983 ) ) ;
#289 = CARTESIAN_POINT ( 'NONE',  ( 0.06243750000000006933, 0.0000000000000000000, 0.5000000000000000000 ) ) ;
#290 = DIRECTION ( 'NONE',  ( -1.000000000000000000, 0.0000000000000000000, 1.224646799147353700E-16 ) ) ;
#291 = DIRECTION ( 'NONE',  ( 1.000000000000000000, 0.0000000000000000000, 0.0000000000000000000 ) ) ;
#292 = EDGE_CURVE ( 'NONE', #209, #119, #256, .T. ) ;
#293 = DIRECTION ( 'NONE',  ( 1.000000000000000000, 0.0000000000000000000, 0.0000000000000000000 ) ) ;
#294 = PLANE ( 'NONE',  #185 ) ;
#295 = PRESENTATION_LAYER_ASSIGNMENT (  '', '', ( #162 ) ) ;
#296 = AXIS2_PLACEMENT_3D ( 'NONE', #37, #131, #86 ) ;
#297 = DIRECTION ( 'NONE',  ( -1.000000000000000000, 0.0000000000000000000, 0.0000000000000000000 ) ) ;
#298 = ORIENTED_EDGE ( 'NONE', *, *, #299, .T. ) ;
#299 = EDGE_CURVE ( 'NONE', #170, #26, #233, .T. ) ;
ENDSEC;
END-ISO-10303-21;
